  0
SECTION
  2
HEADER
  9
$ACADVER
  1
AC1018
  9
$ACADMAINTVER
 70
   104
  9
$DWGCODEPAGE
  3
ANSI_1250
  9
$LASTSAVEDBY
  1
EVA
  9
$INSBASE
 10
0.0
 20
0.0
 30
0.0
  9
$EXTMIN
 10
-1044.547814616804
 20
-1171.042118189376
 30
0.0
  9
$EXTMAX
 10
514.0753091965514
 20
1174.140357065903
 30
0.0
  9
$LIMMIN
 10
0.0
 20
0.0
  9
$LIMMAX
 10
271.6285070728513
 20
136.3429239280804
  9
$ORTHOMODE
 70
     1
  9
$REGENMODE
 70
     1
  9
$FILLMODE
 70
     1
  9
$QTEXTMODE
 70
     0
  9
$MIRRTEXT
 70
     0
  9
$LTSCALE
 40
15.0
  9
$ATTMODE
 70
     1
  9
$TEXTSIZE
 40
14.0
  9
$TRACEWID
 40
1.0
  9
$TEXTSTYLE
  7
ROMANS
  9
$CLAYER
  8
INSULATION
  9
$CELTYPE
  6
AUSGEZOGEN
  9
$CECOLOR
 62
     1
  9
$CELTSCALE
 40
5.0
  9
$DISPSILH
 70
     0
  9
$DIMSCALE
 40
100.0
  9
$DIMASZ
 40
3.5
  9
$DIMEXO
 40
0.0
  9
$DIMDLI
 40
3.75
  9
$DIMRND
 40
0.0
  9
$DIMDLE
 40
0.0
  9
$DIMEXE
 40
1.25
  9
$DIMTP
 40
0.0
  9
$DIMTM
 40
0.0
  9
$DIMTXT
 40
3.5
  9
$DIMCEN
 40
3.5
  9
$DIMTSZ
 40
0.0
  9
$DIMTOL
 70
     0
  9
$DIMLIM
 70
     0
  9
$DIMTIH
 70
     0
  9
$DIMTOH
 70
     0
  9
$DIMSE1
 70
     0
  9
$DIMSE2
 70
     0
  9
$DIMTAD
 70
     1
  9
$DIMZIN
 70
     8
  9
$DIMBLK
  1

  9
$DIMASO
 70
     1
  9
$DIMSHO
 70
     1
  9
$DIMPOST
  1

  9
$DIMAPOST
  1

  9
$DIMALT
 70
     0
  9
$DIMALTD
 70
     4
  9
$DIMALTF
 40
0.0394
  9
$DIMLFAC
 40
1.0
  9
$DIMTOFL
 70
     0
  9
$DIMTVP
 40
0.0
  9
$DIMTIX
 70
     0
  9
$DIMSOXD
 70
     0
  9
$DIMSAH
 70
     0
  9
$DIMBLK1
  1

  9
$DIMBLK2
  1

  9
$DIMSTYLE
  2
350
  9
$DIMCLRD
 70
     0
  9
$DIMCLRE
 70
     0
  9
$DIMCLRT
 70
     2
  9
$DIMTFAC
 40
1.0
  9
$DIMGAP
 40
0.625
  9
$DIMJUST
 70
     0
  9
$DIMSD1
 70
     0
  9
$DIMSD2
 70
     0
  9
$DIMTOLJ
 70
     1
  9
$DIMTZIN
 70
     0
  9
$DIMALTZ
 70
     0
  9
$DIMALTTZ
 70
     0
  9
$DIMUPT
 70
     0
  9
$DIMDEC
 70
     0
  9
$DIMTDEC
 70
     4
  9
$DIMALTU
 70
     8
  9
$DIMALTTD
 70
     4
  9
$DIMTXSTY
  7
ROMANS
  9
$DIMAUNIT
 70
     0
  9
$DIMADEC
 70
     0
  9
$DIMALTRND
 40
0.0
  9
$DIMAZIN
 70
     0
  9
$DIMDSEP
 70
    46
  9
$DIMATFIT
 70
     3
  9
$DIMFRAC
 70
     0
  9
$DIMLDRBLK
  1

  9
$DIMLUNIT
 70
     6
  9
$DIMLWD
 70
    -2
  9
$DIMLWE
 70
    -2
  9
$DIMTMOVE
 70
     0
  9
$LUNITS
 70
     2
  9
$LUPREC
 70
     4
  9
$SKETCHINC
 40
1.0
  9
$FILLETRAD
 40
0.0
  9
$AUNITS
 70
     0
  9
$AUPREC
 70
     0
  9
$MENU
  1
.
  9
$ELEVATION
 40
0.0
  9
$PELEVATION
 40
0.0
  9
$THICKNESS
 40
0.0
  9
$LIMCHECK
 70
     0
  9
$CHAMFERA
 40
10.0
  9
$CHAMFERB
 40
10.0
  9
$CHAMFERC
 40
20.0
  9
$CHAMFERD
 40
0.0
  9
$SKPOLY
 70
     0
  9
$TDCREATE
 40
2451600.645418067
  9
$TDUCREATE
 40
2451600.562084734
  9
$TDUPDATE
 40
2457248.492204722
  9
$TDUUPDATE
 40
2457248.408871389
  9
$TDINDWG
 40
2.8154245718
  9
$TDUSRTIMER
 40
2.8154243403
  9
$USRTIMER
 70
     1
  9
$ANGBASE
 50
0.0
  9
$ANGDIR
 70
     0
  9
$PDMODE
 70
     0
  9
$PDSIZE
 40
0.0
  9
$PLINEWID
 40
0.0
  9
$SPLFRAME
 70
     0
  9
$SPLINETYPE
 70
     6
  9
$SPLINESEGS
 70
     8
  9
$HANDSEED
  5
40BF
  9
$SURFTAB1
 70
     6
  9
$SURFTAB2
 70
     6
  9
$SURFTYPE
 70
     6
  9
$SURFU
 70
     6
  9
$SURFV
 70
     6
  9
$UCSBASE
  2

  9
$UCSNAME
  2

  9
$UCSORG
 10
0.0
 20
0.0
 30
0.0
  9
$UCSXDIR
 10
1.0
 20
0.0
 30
0.0
  9
$UCSYDIR
 10
0.0
 20
1.0
 30
0.0
  9
$UCSORTHOREF
  2

  9
$UCSORTHOVIEW
 70
     0
  9
$UCSORGTOP
 10
0.0
 20
0.0
 30
0.0
  9
$UCSORGBOTTOM
 10
0.0
 20
0.0
 30
0.0
  9
$UCSORGLEFT
 10
0.0
 20
0.0
 30
0.0
  9
$UCSORGRIGHT
 10
0.0
 20
0.0
 30
0.0
  9
$UCSORGFRONT
 10
0.0
 20
0.0
 30
0.0
  9
$UCSORGBACK
 10
0.0
 20
0.0
 30
0.0
  9
$PUCSBASE
  2

  9
$PUCSNAME
  2

  9
$PUCSORG
 10
0.0
 20
0.0
 30
0.0
  9
$PUCSXDIR
 10
1.0
 20
0.0
 30
0.0
  9
$PUCSYDIR
 10
0.0
 20
1.0
 30
0.0
  9
$PUCSORTHOREF
  2

  9
$PUCSORTHOVIEW
 70
     0
  9
$PUCSORGTOP
 10
0.0
 20
0.0
 30
0.0
  9
$PUCSORGBOTTOM
 10
0.0
 20
0.0
 30
0.0
  9
$PUCSORGLEFT
 10
0.0
 20
0.0
 30
0.0
  9
$PUCSORGRIGHT
 10
0.0
 20
0.0
 30
0.0
  9
$PUCSORGFRONT
 10
0.0
 20
0.0
 30
0.0
  9
$PUCSORGBACK
 10
0.0
 20
0.0
 30
0.0
  9
$USERI1
 70
     0
  9
$USERI2
 70
     0
  9
$USERI3
 70
     0
  9
$USERI4
 70
     0
  9
$USERI5
 70
     0
  9
$USERR1
 40
0.0
  9
$USERR2
 40
0.0
  9
$USERR3
 40
0.0
  9
$USERR4
 40
0.0
  9
$USERR5
 40
0.0
  9
$WORLDVIEW
 70
     1
  9
$SHADEDGE
 70
     3
  9
$SHADEDIF
 70
    70
  9
$TILEMODE
 70
     0
  9
$MAXACTVP
 70
    48
  9
$PINSBASE
 10
0.0
 20
0.0
 30
0.0
  9
$PLIMCHECK
 70
     0
  9
$PEXTMIN
 10
4.451200760342317
 20
3.332852861880712
 30
0.0
  9
$PEXTMAX
 10
195.1228331906801
 20
281.9662386458112
 30
0.0
  9
$PLIMMIN
 10
-6.043083
 20
-6.762742
  9
$PLIMMAX
 10
203.930245
 20
290.205581
  9
$UNITMODE
 70
     0
  9
$VISRETAIN
 70
     1
  9
$PLINEGEN
 70
     0
  9
$PSLTSCALE
 70
     0
  9
$TREEDEPTH
 70
  3020
  9
$CMLSTYLE
  2
STANDARD
  9
$CMLJUST
 70
     0
  9
$CMLSCALE
 40
20.0
  9
$PROXYGRAPHICS
 70
     1
  9
$MEASUREMENT
 70
     0
  9
$CELWEIGHT
370
    -1
  9
$ENDCAPS
280
     0
  9
$JOINSTYLE
280
     0
  9
$LWDISPLAY
290
     0
  9
$INSUNITS
 70
     0
  9
$HYPERLINKBASE
  1

  9
$STYLESHEET
  1
CORUS_Mono.ctb
  9
$XEDIT
290
     1
  9
$CEPSNTYPE
380
     0
  9
$PSTYLEMODE
290
     1
  9
$FINGERPRINTGUID
  2
{9E2E0D10-E48E-11D3-BEBA-006008753510}
  9
$VERSIONGUID
  2
{ACC113D0-5DEB-478F-B742-031C86E0B1E6}
  9
$EXTNAMES
290
     1
  9
$PSVPSCALE
 40
0.0
  9
$OLESTARTUP
290
     0
  9
$SORTENTS
280
    96
  9
$INDEXCTL
280
     0
  9
$HIDETEXT
280
     0
  9
$XCLIPFRAME
290
     0
  9
$HALOGAP
280
     0
  9
$OBSCOLOR
 70
   257
  9
$OBSLTYPE
280
     0
  9
$INTERSECTIONDISPLAY
280
     0
  9
$INTERSECTIONCOLOR
 70
   257
  9
$DIMASSOC
280
     1
  9
$PROJECTNAME
  1

  0
ENDSEC
  0
SECTION
  2
CLASSES
  0
CLASS
  1
ACDBDICTIONARYWDFLT
  2
AcDbDictionaryWithDefault
  3
ObjectDBX Classes
 90
        0
 91
        1
280
     0
281
     0
  0
CLASS
  1
RASTERVARIABLES
  2
AcDbRasterVariables
  3
ISM
 90
        0
 91
        1
280
     0
281
     0
  0
CLASS
  1
IMAGEDEF
  2
AcDbRasterImageDef
  3
ISM
 90
        0
 91
        1
280
     0
281
     0
  0
CLASS
  1
IMAGEDEF_REACTOR
  2
AcDbRasterImageDefReactor
  3
ISM
 90
        1
 91
        0
280
     0
281
     0
  0
CLASS
  1
IMAGE
  2
AcDbRasterImage
  3
ISM
 90
     2175
 91
        0
280
     0
281
     1
  0
CLASS
  1
DICTIONARYVAR
  2
AcDbDictionaryVar
  3
ObjectDBX Classes
 90
        0
 91
       13
280
     0
281
     0
  0
CLASS
  1
MATERIAL
  2
AcDbMaterial
  3
ObjectDBX Classes
 90
     1153
 91
        3
280
     0
281
     0
  0
CLASS
  1
VISUALSTYLE
  2
AcDbVisualStyle
  3
ObjectDBX Classes
 90
     4095
 91
       24
280
     0
281
     0
  0
CLASS
  1
TABLESTYLE
  2
AcDbTableStyle
  3
ObjectDBX Classes
 90
     4095
 91
        1
280
     0
281
     0
  0
CLASS
  1
SCALE
  2
AcDbScale
  3
ObjectDBX Classes
 90
     1153
 91
       17
280
     0
281
     0
  0
CLASS
  1
MLEADERSTYLE
  2
AcDbMLeaderStyle
  3
ACDB_MLEADERSTYLE_CLASS
 90
     4095
 91
        1
280
     0
281
     0
  0
CLASS
  1
ACDBSECTIONVIEWSTYLE
  2
AcDbSectionViewStyle
  3
ObjectDBX Classes
 90
     1025
 91
        1
280
     0
281
     0
  0
CLASS
  1
ACDBDETAILVIEWSTYLE
  2
AcDbDetailViewStyle
  3
ObjectDBX Classes
 90
     1025
 91
        1
280
     0
281
     0
  0
CLASS
  1
CELLSTYLEMAP
  2
AcDbCellStyleMap
  3
ObjectDBX Classes
 90
     1152
 91
        2
280
     0
281
     0
  0
ENDSEC
  0
SECTION
  2
TABLES
  0
TABLE
  2
VPORT
  5
8
330
0
100
AcDbSymbolTable
 70
     1
  0
VPORT
  5
3F21
330
8
100
AcDbSymbolTableRecord
100
AcDbViewportTableRecord
  2
*Active
 70
     0
 10
0.0
 20
0.0
 11
1.0
 21
1.0
 12
-188.8305642715017
 22
-226.2449503212856
 13
0.0
 23
0.0
 14
10.0
 24
10.0
 15
10.0
 25
10.0
 16
0.0
 26
0.0
 36
1.0
 17
0.0
 27
0.0
 37
0.0
 40
3921.275995391663
 41
1.581724581724581
 42
50.0
 43
0.0
 44
0.0
 50
0.0
 51
0.0
 71
     0
 72
 20000
 73
     1
 74
     1
 75
     0
 76
     0
 77
     0
 78
     0
281
     0
 65
     1
110
0.0
120
0.0
130
0.0
111
1.0
121
0.0
131
0.0
112
0.0
122
1.0
132
0.0
 79
     0
146
0.0
1001
ACAD_NAV_VCDISPLAY
1070
     3
  0
ENDTAB
  0
TABLE
  2
LTYPE
  5
5
330
0
100
AcDbSymbolTable
 70
     6
  0
LTYPE
  5
12
330
5
100
AcDbSymbolTableRecord
100
AcDbLinetypeTableRecord
  2
BYBLOCK
 70
     0
  3

 72
    65
 73
     0
 40
0.0
  0
LTYPE
  5
13
330
5
100
AcDbSymbolTableRecord
100
AcDbLinetypeTableRecord
  2
BYLAYER
 70
     0
  3

 72
    65
 73
     0
 40
0.0
  0
LTYPE
  5
14
330
5
100
AcDbSymbolTableRecord
100
AcDbLinetypeTableRecord
  2
CONTINUOUS
 70
     0
  3
Solid line
 72
    65
 73
     0
 40
0.0
  0
LTYPE
  5
11FB
330
5
100
AcDbSymbolTableRecord
100
AcDbLinetypeTableRecord
  2
GESTRICHELT
 70
     0
  3
__ __ __ __ __ __ __ __ __ __ __ __ __ __ __
 72
    65
 73
     2
 40
0.75
 49
0.5
 74
     0
 49
-0.25
 74
     0
  0
LTYPE
  5
11FC
330
5
100
AcDbSymbolTableRecord
100
AcDbLinetypeTableRecord
  2
STRICHPUNKT
 70
     0
  3
__ . __ . __ . __ . __ . __ . __ . __ . __ . __
 72
    65
 73
     4
 40
1.0
 49
0.5
 74
     0
 49
-0.25
 74
     0
 49
0.0
 74
     0
 49
-0.25
 74
     0
  0
LTYPE
  5
11FD
330
5
100
AcDbSymbolTableRecord
100
AcDbLinetypeTableRecord
  2
VERDECKT
 70
     0
  3
_ _ _ _ _ _ _ _ _ _ _ _ _ _ _ _ _ _ _ _ _ _ _
 72
    65
 73
     2
 40
0.375
 49
0.25
 74
     0
 49
-0.125
 74
     0
  0
LTYPE
  5
1F65
330
5
100
AcDbSymbolTableRecord
100
AcDbLinetypeTableRecord
  2
AUSGEZOGEN
 70
     0
  3
Ausgezogene Linie
 72
    65
 73
     0
 40
0.0
  0
LTYPE
  5
3F6D
330
5
100
AcDbSymbolTableRecord
100
AcDbLinetypeTableRecord
  2
PHANTOM2
 70
     0
  3
___ _ _ ___ _ _ ___ _ _ ___ _ _
 72
    65
 73
     6
 40
1.25
 49
0.625
 74
     0
 49
-0.125
 74
     0
 49
0.125
 74
     0
 49
-0.125
 74
     0
 49
0.125
 74
     0
 49
-0.125
 74
     0
  0
ENDTAB
  0
TABLE
  2
LAYER
  5
2
102
{ACAD_XDICTIONARY
360
3F7A
102
}
330
0
100
AcDbSymbolTable
 70
     9
  0
LAYER
  5
E
102
{ACAD_XDICTIONARY
360
3F7F
102
}
330
2
100
AcDbSymbolTableRecord
100
AcDbLayerTableRecord
  2
0
 70
     0
 62
     7
  6
CONTINUOUS
370
    -3
390
5E8
  0
LAYER
  5
B7
102
{ACAD_XDICTIONARY
360
3F81
102
}
330
2
100
AcDbSymbolTableRecord
100
AcDbLayerTableRecord
  2
V5
 70
     0
 62
     7
  6
CONTINUOUS
370
    -3
390
5E8
  0
LAYER
  5
8F4
102
{ACAD_XDICTIONARY
360
3F83
102
}
330
2
100
AcDbSymbolTableRecord
100
AcDbLayerTableRecord
  2
Mansfen
 70
     0
 62
   253
  6
CONTINUOUS
290
     0
370
    -3
390
5E8
  0
LAYER
  5
11FF
102
{ACAD_XDICTIONARY
360
3F85
102
}
330
2
100
AcDbSymbolTableRecord
100
AcDbLayerTableRecord
  2
V35
 70
     0
 62
     3
  6
CONTINUOUS
370
    -3
390
5E8
  0
LAYER
  5
1200
102
{ACAD_XDICTIONARY
360
3F87
102
}
330
2
100
AcDbSymbolTableRecord
100
AcDbLayerTableRecord
  2
V25
 70
     0
 62
     4
  6
CONTINUOUS
370
    -3
390
5E8
  0
LAYER
  5
1201
102
{ACAD_XDICTIONARY
360
3F89
102
}
330
2
100
AcDbSymbolTableRecord
100
AcDbLayerTableRecord
  2
SV35
 70
     0
 62
     6
  6
VERDECKT
370
    -3
390
5E8
  0
LAYER
  5
1202
102
{ACAD_XDICTIONARY
360
3F8B
102
}
330
2
100
AcDbSymbolTableRecord
100
AcDbLayerTableRecord
  2
ACHS
 70
     0
 62
     4
  6
STRICHPUNKT
370
    -3
390
5E8
  0
LAYER
  5
1207
102
{ACAD_XDICTIONARY
360
3F8D
102
}
330
2
100
AcDbSymbolTableRecord
100
AcDbLayerTableRecord
  2
TXT-D
 70
     0
 62
     2
  6
CONTINUOUS
370
    -3
390
5E8
  0
LAYER
  5
1C60
102
{ACAD_XDICTIONARY
360
3F8F
102
}
330
2
100
AcDbSymbolTableRecord
100
AcDbLayerTableRecord
  2
INSULATION
 70
     0
 62
     4
  6
CONTINUOUS
370
    -3
390
5E8
  0
ENDTAB
  0
TABLE
  2
STYLE
  5
3
330
0
100
AcDbSymbolTable
 70
     3
  0
STYLE
  5
F
330
3
100
AcDbSymbolTableRecord
100
AcDbTextStyleTableRecord
  2
STANDARD
 70
     0
 40
0.0
 41
1.0
 50
0.0
 71
     0
 42
2.5
  3
txt
  4

  0
STYLE
  5
BF
330
3
100
AcDbSymbolTableRecord
100
AcDbTextStyleTableRecord
  2
ROMANS
 70
     0
 40
0.0
 41
1.0
 50
0.0
 71
     0
 42
14.0
  3
arial.ttf
  4

1001
ACAD
1000
Arial
1071
       34
  0
STYLE
  5
91F
330
3
100
AcDbSymbolTableRecord
100
AcDbTextStyleTableRecord
  2
Stil1
 70
     0
 40
3.0
 41
1.0
 50
0.0
 71
     0
 42
3.0
  3
arial.ttf
  4

1001
ACAD
1000
Arial
1071
       34
  0
ENDTAB
  0
TABLE
  2
VIEW
  5
6
330
0
100
AcDbSymbolTable
 70
     0
  0
ENDTAB
  0
TABLE
  2
UCS
  5
7
330
0
100
AcDbSymbolTable
 70
     0
  0
ENDTAB
  0
TABLE
  2
APPID
  5
9
330
0
100
AcDbSymbolTable
 70
     6
  0
APPID
  5
10
330
9
100
AcDbSymbolTableRecord
100
AcDbRegAppTableRecord
  2
ACAD
 70
     0
  0
APPID
  5
19C7
330
9
100
AcDbSymbolTableRecord
100
AcDbRegAppTableRecord
  2
CONTENTBLOCKICON
 70
     0
  0
APPID
  5
3B45
330
9
100
AcDbSymbolTableRecord
100
AcDbRegAppTableRecord
  2
DCO15
 70
     0
  0
APPID
  5
3F91
330
9
100
AcDbSymbolTableRecord
100
AcDbRegAppTableRecord
  2
ACAD_NAV_VCDISPLAY
 70
     0
  0
APPID
  5
3F9B
330
9
100
AcDbSymbolTableRecord
100
AcDbRegAppTableRecord
  2
ACAD_EXEMPT_FROM_CAD_STANDARDS
 70
     0
  0
APPID
  5
40BA
330
9
100
AcDbSymbolTableRecord
100
AcDbRegAppTableRecord
  2
ACAD_MLEADERVER
 70
     0
  0
ENDTAB
  0
TABLE
  2
DIMSTYLE
  5
A
330
0
100
AcDbSymbolTable
 70
     1
100
AcDbDimStyleTable
 71
     1
340
36C2
  0
DIMSTYLE
105
36C2
330
A
100
AcDbSymbolTableRecord
100
AcDbDimStyleTableRecord
  2
350
 70
     0
 40
100.0
 41
3.5
 42
0.0
 43
3.75
 44
1.25
 73
     0
 74
     0
 77
     1
 78
     8
140
3.5
141
3.5
143
0.0394
147
0.625
171
     4
178
     2
271
     0
273
     8
274
     4
277
     6
340
BF
  0
ENDTAB
  0
TABLE
  2
BLOCK_RECORD
  5
1
330
0
100
AcDbSymbolTable
 70
     3
  0
BLOCK_RECORD
  5
18
102
{ACAD_XDICTIONARY
360
81C
102
}
330
1
100
AcDbSymbolTableRecord
100
AcDbBlockTableRecord
  2
*MODEL_SPACE
340
5EB
  0
BLOCK_RECORD
  5
15
102
{ACAD_XDICTIONARY
360
81A
102
}
330
1
100
AcDbSymbolTableRecord
100
AcDbBlockTableRecord
  2
*PAPER_SPACE
340
5EC
  0
BLOCK_RECORD
  5
1C6E
330
1
100
AcDbSymbolTableRecord
100
AcDbBlockTableRecord
  2
DAEMM
340
0
102
{BLKREFS
331
3E22
331
3E23
331
3E24
331
3E25
331
3E27
331
3E28
331
3D68
331
3D69
331
3D6C
331
3D6D
331
3D6E
331
3D6F
331
3D70
331
3D71
331
3D72
331
3D73
331
3D74
331
3D75
331
3D76
331
3D77
331
3D78
331
3D79
331
3D7A
331
3D7B
331
3D7C
331
3D7F
331
3D80
331
3D81
331
3E0E
331
3E11
331
3E12
331
3E13
331
3E16
331
3E17
331
3E18
331
3E19
331
3E1A
331
3E1C
331
3E1D
331
3E1E
331
3E1F
102
}
  0
BLOCK_RECORD
  5
2D4A
330
1
100
AcDbSymbolTableRecord
100
AcDbBlockTableRecord
  2
PA140 Quer
340
0
310
2800000020000000200000000100080000000000000400000000000000000000000000000000000000000000000080000080000000808000800000008000800080800000C0C0C000C0DCC000F0CAA6000020400000206000002080000020A0000020C0000020E00000400000004020000040400000406000004080000040A0
310
000040C0000040E00000600000006020000060400000606000006080000060A0000060C0000060E00000800000008020000080400000806000008080000080A0000080C0000080E00000A0000000A0200000A0400000A0600000A0800000A0A00000A0C00000A0E00000C0000000C0200000C0400000C0600000C0800000C0
310
A00000C0C00000C0E00000E0000000E0200000E0400000E0600000E0800000E0A00000E0C00000E0E00040000000400020004000400040006000400080004000A0004000C0004000E00040200000402020004020400040206000402080004020A0004020C0004020E000404000004040200040404000404060004040800040
310
40A0004040C0004040E00040600000406020004060400040606000406080004060A0004060C0004060E00040800000408020004080400040806000408080004080A0004080C0004080E00040A0000040A0200040A0400040A0600040A0800040A0A00040A0C00040A0E00040C0000040C0200040C0400040C0600040C08000
310
40C0A00040C0C00040C0E00040E0000040E0200040E0400040E0600040E0800040E0A00040E0C00040E0E00080000000800020008000400080006000800080008000A0008000C0008000E00080200000802020008020400080206000802080008020A0008020C0008020E00080400000804020008040400080406000804080
310
008040A0008040C0008040E00080600000806020008060400080606000806080008060A0008060C0008060E00080800000808020008080400080806000808080008080A0008080C0008080E00080A0000080A0200080A0400080A0600080A0800080A0A00080A0C00080A0E00080C0000080C0200080C0400080C0600080C0
310
800080C0A00080C0C00080C0E00080E0000080E0200080E0400080E0600080E0800080E0A00080E0C00080E0E000C0000000C0002000C0004000C0006000C0008000C000A000C000C000C000E000C0200000C0202000C0204000C0206000C0208000C020A000C020C000C020E000C0400000C0402000C0404000C0406000C0
310
408000C040A000C040C000C040E000C0600000C0602000C0604000C0606000C0608000C060A000C060C000C060E000C0800000C0802000C0804000C0806000C0808000C080A000C080C000C080E000C0A00000C0A02000C0A04000C0A06000C0A08000C0A0A000C0A0C000C0A0E000C0C00000C0C02000C0C04000C0C06000
310
C0C08000C0C0A000F0FBFF00A4A0A000808080000000FF0000FF000000FFFF00FF000000FF00FF00FFFF0000FFFFFF0000000000000000000000000000000000000000000000000000000000000000000000000000000000000000FFFFFFFFFFFFFFFFFF00000000000000000000000000000000000000000000FFFFFFFFFF
310
00FFFFFF00FF00000000000000000000000000000000000000000000FF0000FF00FF0000FF0000000000000000000000000000000000000000000000FF0000FF00FF0000FF000000000000000000000000000000000000000000000000FF0000000000FF00000000000000000000000000000000000000000000000000FF00
310
00FF0000FF00000000000000000000000000000000000000000000000000FF0000FF0000FF00000000000000000000000000000000000000000000000000FF0000FF0000FF00000000000000000000000000000000000000000000000000FF0000FF0000FF0000000000000000000000000000000000000000000000000000
310
FF00FF00FF000000000000000000000000000000000000000000000000000000FF00FF00FF000000000000000000000000000000000000000000000000000000FF00FF00FF000000000000000000000000000000000000000000000000000000FF00FF00FF0000000000000000000000000000000000000000000000000000
310
0000FFFFFF0000000000000000000000000000000000000000000000000000000000FFFFFF0000000000000000000000000000000000000000000000000000000000FFFFFF0000000000000000000000000000000000000000000000000000000000FFFFFF0000000000000000000000000000000000000000000000000000
310
000000FFFFFF000000000000000000000000000000000000000000000000000000000000FF00000000000000000000000000000000000000000000000000000000000000FF00000000000000000000000000000000000000000000000000000000000000FF0000000000000000000000000000000000000000000000000000
310
0000000000FF00000000000000000000000000000000000000000000000000000000000000FF00000000000000000000000000000000000000000000000000000000000000FF00000000000000000000000000000000000000000000000000000000000000FF00000000000000000000000000000000000000000000000000
310
000000000000FF00000000000000000000000000000000000000000000000000000000000000FF000000000000000000000000000000000000000000000000000000000000FFFFFF00000000000000000000000000000000000000000000000000000000000000000000000000000000000000000000000000000000000000
310
0000000000000000000000000000000000000000000000000000000000000000000000000000000000000000000000000000000000000000
102
{BLKREFS
331
3DA0
331
3DC6
331
3DC9
331
3DCC
331
3DCF
102
}
  0
BLOCK_RECORD
  5
3D24
330
1
100
AcDbSymbolTableRecord
100
AcDbBlockTableRecord
  2
AluPers
340
0
102
{BLKREFS
331
3D65
331
3D8F
102
}
  0
ENDTAB
  0
ENDSEC
  0
SECTION
  2
BLOCKS
  0
BLOCK
  5
19
330
18
100
AcDbEntity
  8
0
100
AcDbBlockBegin
  2
*MODEL_SPACE
 70
     0
 10
0.0
 20
0.0
 30
0.0
  3
*MODEL_SPACE
  1

  0
ENDBLK
  5
1A
330
18
100
AcDbEntity
  8
0
100
AcDbBlockEnd
  0
BLOCK
  5
16
330
15
100
AcDbEntity
 67
     1
  8
0
100
AcDbBlockBegin
  2
*PAPER_SPACE
 70
     0
 10
0.0
 20
0.0
 30
0.0
  3
*PAPER_SPACE
  1

  0
ENDBLK
  5
17
330
15
100
AcDbEntity
 67
     1
  8
0
100
AcDbBlockEnd
  0
BLOCK
  5
1C70
330
1C6E
100
AcDbEntity
  8
0
 48
5.0
100
AcDbBlockBegin
  2
DAEMM
 70
     0
 10
0.0
 20
0.0
 30
0.0
  3
DAEMM
  1

  0
LWPOLYLINE
  5
1C6F
330
1C6E
100
AcDbEntity
  8
INSULATION
100
AcDbPolyline
 90
        6
 70
     0
 43
0.0
 10
0.0
 20
0.0
 42
0.5249926553343702
 10
1.869693845669928
 20
2.710102051443413
 10
0.1303061543300714
 20
7.289897948556586
 42
-1.449489742783175
 10
3.869693845669928
 20
7.289897948556586
 10
2.130306154330071
 20
2.710102051443413
 42
0.5249926553343702
 10
4.0
 20
0.0
  0
ENDBLK
  5
1C71
330
1C6E
100
AcDbEntity
  8
0
 48
5.0
100
AcDbBlockEnd
  0
BLOCK
  5
2D6C
330
2D4A
100
AcDbEntity
  8
0
100
AcDbBlockBegin
  2
PA140 Quer
 70
     0
 10
0.0
 20
0.0
 30
0.0
  3
PA140 Quer
  1

  0
LINE
  5
2D4B
330
2D4A
100
AcDbEntity
  8
0
100
AcDbLine
 10
1.761882177942034
 20
146.0000000000004
 30
0.0
 11
2.0
 21
29.0
 31
0.0
  0
LINE
  5
2D4C
330
2D4A
100
AcDbEntity
  8
0
100
AcDbLine
 10
-1.761882177942048
 20
146.0000000000001
 30
0.0
 11
-2.0
 21
29.0
 31
0.0
  0
LINE
  5
2D4D
330
2D4A
100
AcDbEntity
  8
0
100
AcDbLine
 10
1.761882177942034
 20
146.0000000000004
 30
0.0
 11
25.4873318024891
 21
11.0
 31
0.0
  0
LINE
  5
2D4E
330
2D4A
100
AcDbEntity
  8
0
100
AcDbLine
 10
-1.761882177942048
 20
146.0000000000001
 30
0.0
 11
-25.48733180248819
 21
11.0
 31
0.0
  0
LINE
  5
2D4F
330
2D4A
100
AcDbEntity
  8
0
100
AcDbLine
 10
32.50000000000091
 20
10.5
 30
0.0
 11
32.50000000000091
 21
0.0
 31
0.0
  0
LINE
  5
2D50
330
2D4A
100
AcDbEntity
  8
0
100
AcDbLine
 10
-32.5
 20
10.5
 30
0.0
 11
-32.5
 21
0.0
 31
0.0
  0
LINE
  5
2D51
330
2D4A
100
AcDbEntity
  8
0
100
AcDbLine
 10
0.0
 20
0.0
 30
0.0
 11
-32.5
 21
0.0
 31
0.0
  0
LINE
  5
2D52
330
2D4A
100
AcDbEntity
  8
0
100
AcDbLine
 10
0.0
 20
0.0
 30
0.0
 11
32.50000000000091
 21
0.0
 31
0.0
  0
LINE
  5
2D53
330
2D4A
100
AcDbEntity
  8
0
100
AcDbLine
 10
-6.684068191505222
 20
10.99999999999997
 30
0.0
 11
-32.0
 21
11.0
 31
0.0
  0
ARC
  5
2D54
330
2D4A
100
AcDbEntity
  8
0
100
AcDbCircle
 10
-32.0
 20
10.5
 30
0.0
 40
0.5
100
AcDbArc
 50
90.0
 51
180.0
  0
ARC
  5
2D55
330
2D4A
100
AcDbEntity
  8
0
100
AcDbCircle
 10
-6.684068191505222
 20
12.99999999999997
 30
0.0
 40
2.0
100
AcDbArc
 50
270.0
 51
351.5866003291716
  0
LINE
  5
2D56
330
2D4A
100
AcDbEntity
  8
0
100
AcDbLine
 10
-4.705591908087203
 20
12.70737123184409
 30
0.0
 11
-2.0
 21
29.0
 31
0.0
  0
LINE
  5
2D57
330
2D4A
100
AcDbEntity
  8
0
100
AcDbLine
 10
6.684068191506096
 20
10.99999999999997
 30
0.0
 11
32.00000000000091
 21
11.0
 31
0.0
  0
ARC
  5
2D58
330
2D4A
100
AcDbEntity
  8
0
100
AcDbCircle
 10
6.684068191506096
 20
12.99999999999997
 30
0.0
 40
2.0
100
AcDbArc
 50
188.4133996708317
 51
270.0
  0
LINE
  5
2D59
330
2D4A
100
AcDbEntity
  8
0
100
AcDbLine
 10
4.705591908088091
 20
12.70737123184401
 30
0.0
 11
2.0
 21
29.0
 31
0.0
  0
ARC
  5
2D5A
330
2D4A
100
AcDbEntity
  8
0
100
AcDbCircle
 10
32.00000000000091
 20
10.5
 30
0.0
 40
0.5
100
AcDbArc
 50
0.0
 51
90.0
  0
LINE
  5
2D5B
330
2D4A
100
AcDbEntity
  8
0
100
AcDbLine
 10
1.749919344384228
 20
189.1996768554512
 30
0.0
 11
1.761882177942034
 21
146.0000000000004
 31
0.0
  0
LINE
  5
2D5C
330
2D4A
100
AcDbEntity
  8
0
100
AcDbLine
 10
-1.749919344384224
 20
189.1996768554512
 30
0.0
 11
-1.761882177942048
 21
146.0000000000001
 31
0.0
  0
ARC
  5
2D5D
330
2D4A
100
AcDbEntity
  8
0
100
AcDbCircle
 10
0.0
 20
198.0
 30
0.0
 40
3.0
100
AcDbArc
 50
0.0
 51
180.0
  0
ARC
  5
2D5E
330
2D4A
100
AcDbEntity
  8
0
100
AcDbCircle
 10
-2.549919279120221
 20
189.2
 30
0.0
 40
0.8
100
AcDbArc
 50
359.9768564758476
 51
90.0
  0
LINE
  5
2D5F
330
2D4A
100
AcDbEntity
  8
0
100
AcDbLine
 10
-3.0
 20
197.1484321246121
 30
0.0
 11
-3.0
 21
198.0
 31
0.0
  0
ARC
  5
2D60
330
2D4A
100
AcDbEntity
  8
0
100
AcDbCircle
 10
-3.5
 20
197.1484321246121
 30
0.0
 40
0.5
100
AcDbArc
 50
322.9999999999953
 51
0.0000000000032569
  0
ARC
  5
2D61
330
2D4A
100
AcDbEntity
  8
0
100
AcDbCircle
 10
-3.999999999999996
 20
192.330809360996
 30
0.0
 40
2.0
100
AcDbArc
 50
142.9999999999953
 51
180.0
  0
LINE
  5
2D62
330
2D4A
100
AcDbEntity
  8
0
100
AcDbLine
 10
-6.0
 20
190.0
 30
0.0
 11
-5.999999999999996
 21
192.330809360996
 31
0.0
  0
LINE
  5
2D63
330
2D4A
100
AcDbEntity
  8
0
100
AcDbLine
 10
-5.597271020094499
 20
193.5344394073002
 30
0.0
 11
-3.100682244976269
 21
196.847524613036
 31
0.0
  0
LINE
  5
2D64
330
2D4A
100
AcDbEntity
  8
0
100
AcDbLine
 10
-2.549919279120221
 20
190.0
 30
0.0
 11
-6.0
 21
190.0
 31
0.0
  0
ARC
  5
2D65
330
2D4A
100
AcDbEntity
  8
0
100
AcDbCircle
 10
3.5
 20
197.1484321246121
 30
0.0
 40
0.5
100
AcDbArc
 50
179.9999999999967
 51
217.0000000000047
  0
LINE
  5
2D66
330
2D4A
100
AcDbEntity
  8
0
100
AcDbLine
 10
3.0
 20
197.1484321246121
 30
0.0
 11
3.0
 21
198.0
 31
0.0
  0
ARC
  5
2D67
330
2D4A
100
AcDbEntity
  8
0
100
AcDbCircle
 10
4.0
 20
192.330809360996
 30
0.0
 40
2.0
100
AcDbArc
 50
0.0
 51
37.00000000000466
  0
LINE
  5
2D68
330
2D4A
100
AcDbEntity
  8
0
100
AcDbLine
 10
6.0
 20
190.0
 30
0.0
 11
6.0
 21
192.330809360996
 31
0.0
  0
LINE
  5
2D69
330
2D4A
100
AcDbEntity
  8
0
100
AcDbLine
 10
2.549919279120224
 20
190.0
 30
0.0
 11
6.0
 21
190.0
 31
0.0
  0
ARC
  5
2D6A
330
2D4A
100
AcDbEntity
  8
0
100
AcDbCircle
 10
2.549919279120224
 20
189.2
 30
0.0
 40
0.8
100
AcDbArc
 50
90.0
 51
180.0231435241524
  0
LINE
  5
2D6B
330
2D4A
100
AcDbEntity
  8
0
100
AcDbLine
 10
5.597271020094503
 20
193.5344394073003
 30
0.0
 11
3.100682244976269
 21
196.847524613036
 31
0.0
  0
ENDBLK
  5
2D6D
330
2D4A
100
AcDbEntity
  8
0
100
AcDbBlockEnd
  0
BLOCK
  5
3D63
330
3D24
100
AcDbEntity
  8
0
 62
     1
 48
5.0
100
AcDbBlockBegin
  2
AluPers
 70
     0
 10
0.0
 20
0.0
 30
0.0
  3
AluPers
  1

  0
LINE
  5
3D25
330
3D24
100
AcDbEntity
  8
V35
100
AcDbLine
 10
-29.89554808916626
 20
25.04589002863531
 30
0.0
 11
-29.89554808916648
 21
95.39626789880129
 31
0.0
  0
LINE
  5
3D26
330
3D24
100
AcDbEntity
  8
V35
100
AcDbLine
 10
-33.18447226191722
 20
95.39626789881811
 30
0.0
 11
-33.18447226191722
 21
26.99863392913034
 31
0.0
  0
LINE
  5
3D27
330
3D24
100
AcDbEntity
  8
V35
100
AcDbLine
 10
31.38800736035182
 20
76.46889880355854
 30
0.0
 11
31.3880073603516
 21
146.8192766737187
 31
0.0
  0
LINE
  5
3D28
330
3D24
100
AcDbEntity
  8
V35
100
AcDbLine
 10
-29.89554808916626
 20
25.04589002863531
 30
0.0
 11
31.38800736035182
 21
76.46889880355854
 31
0.0
  0
LINE
  5
3D29
330
3D24
100
AcDbEntity
  8
V35
100
AcDbLine
 10
-27.92160851914321
 20
22.22681216627757
 30
0.0
 11
33.36194693037487
 21
73.64982094120074
 31
0.0
  0
LINE
  5
3D2A
330
3D24
100
AcDbEntity
  8
V35
100
AcDbLine
 10
-0.9999999999998863
 20
12.42814800674205
 30
0.0
 11
60.28355544951842
 21
63.85115678166505
 31
0.0
  0
LINE
  5
3D2B
330
3D24
100
AcDbEntity
  8
V35
100
AcDbLine
 10
-0.1464739196949267
 20
9.690403305361883
 30
0.0
 11
65.61652019934718
 21
64.87210741576387
 31
0.0
  0
LINE
  5
3D2C
330
3D24
100
AcDbEntity
  8
V35
100
AcDbLine
 10
0.0
 20
-0.0000000000000568
 30
0.0
 11
65.61652019934718
 21
55.05879789840879
 31
0.0
  0
LINE
  5
3D2D
330
3D24
100
AcDbEntity
  8
V35
100
AcDbLine
 10
-27.92160851914321
 20
22.22681216627757
 30
0.0
 11
-0.9999999999998863
 21
12.42814800674205
 31
0.0
  0
LINE
  5
3D2E
330
3D24
100
AcDbEntity
  8
V35
100
AcDbLine
 10
-67.11484273953193
 20
34.06489619314334
 30
0.0
 11
-0.1464739196949267
 21
9.690403305361883
 31
0.0
  0
LINE
  5
3D2F
330
3D24
100
AcDbEntity
  8
V35
100
AcDbLine
 10
-67.11484273953203
 20
24.42780503464684
 30
0.0
 11
0.0
 21
0.0
 31
0.0
  0
LINE
  5
3D30
330
3D24
100
AcDbEntity
  8
V35
100
AcDbLine
 10
-62.08002035108382
 20
34.65945732291044
 30
0.0
 11
-35.86851254856856
 21
25.11924868755853
 31
0.0
  0
LINE
  5
3D31
330
3D24
100
AcDbEntity
  8
V35
100
AcDbLine
 10
-67.11484273953193
 20
34.06489619314334
 30
0.0
 11
-67.11484273953203
 21
24.42780503464684
 31
0.0
  0
LINE
  5
3D32
330
3D24
100
AcDbEntity
  8
V35
100
AcDbLine
 10
-35.86851254856856
 20
25.11924868755853
 30
0.0
 11
-27.92160851914321
 21
22.22681216627757
 31
0.0
  0
ARC
  5
3D33
330
3D24
100
AcDbEntity
  8
V35
100
AcDbCircle
 10
-35.18447226191722
 20
26.99863392913034
 30
0.0
 40
2.0
100
AcDbArc
 50
250.0000000000035
 51
0.0
  0
ARC
  5
3D34
330
3D24
100
AcDbEntity
  8
V35
100
AcDbCircle
 10
-26.89554808916625
 20
25.04589002863531
 30
0.0
 40
3.0
100
AcDbArc
 50
180.0
 51
250.0000000000035
  0
LINE
  5
3D35
330
3D24
100
AcDbEntity
  8
V35
100
AcDbLine
 10
-62.08002035108382
 20
34.65945732291044
 30
0.0
 11
-34.20199861847334
 21
58.05189507669609
 31
0.0
  0
LINE
  5
3D36
330
3D24
100
AcDbEntity
  8
V35
100
AcDbLine
 10
-67.11484273953193
 20
34.06489619314334
 30
0.0
 11
-33.18447226191734
 21
62.53585754661816
 31
0.0
  0
ARC
  5
3D37
330
3D24
100
AcDbEntity
  8
V35
100
AcDbCircle
 10
-43.66265221110109
 20
34.94144441771295
 30
0.0
 40
5.587272100864986
100
AcDbArc
 50
66.91493608821812
 51
133.0850639117745
  0
ARC
  5
3D38
330
3D24
100
AcDbEntity
  8
V35
100
AcDbCircle
 10
-44.62229184647583
 20
40.38383123519821
 30
0.0
 40
5.32650415555179
100
AcDbArc
 50
245.0676949625394
 51
314.9323050374571
  0
ARC
  5
3D39
330
3D24
100
AcDbEntity
  8
V35
100
AcDbCircle
 10
-46.40075828556939
 20
37.42413426265926
 30
0.0
 40
1.927807214538352
100
AcDbArc
 50
124.0161584341247
 51
255.9838415658691
  0
ARC
  5
3D3A
330
3D24
100
AcDbEntity
  8
V35
100
AcDbCircle
 10
-41.89968360636669
 20
38.21779517078648
 30
0.0
 40
1.911984123920333
100
AcDbArc
 50
302.9287501961396
 51
77.07124980385343
  0
LINE
  5
3D3B
330
3D24
100
AcDbEntity
  8
V35
100
AcDbLine
 10
0.0000000000001137
 20
9.637091158496616
 30
0.0
 11
0.0
 21
0.0
 31
0.0
  0
ARC
  5
3D3C
330
3D24
100
AcDbEntity
  8
V35
100
AcDbCircle
 10
-3.275816531895884
 20
25.33494492886877
 30
0.0
 40
5.32650415555179
100
AcDbArc
 50
245.0676949625394
 51
314.9323050374571
  0
ARC
  5
3D3D
330
3D24
100
AcDbEntity
  8
V35
100
AcDbCircle
 10
-2.316176896521142
 20
19.89255811138349
 30
0.0
 40
5.587272100864986
100
AcDbArc
 50
66.91493608821812
 51
133.0850639117745
  0
ARC
  5
3D3E
330
3D24
100
AcDbEntity
  8
V35
100
AcDbCircle
 10
-5.054282970989447
 20
22.37524795632993
 30
0.0
 40
1.927807214538352
100
AcDbArc
 50
124.0161584341247
 51
255.9838415658691
  0
ARC
  5
3D3F
330
3D24
100
AcDbEntity
  8
V35
100
AcDbCircle
 10
-0.5532082917867456
 20
23.16890886445702
 30
0.0
 40
1.911984123920333
100
AcDbArc
 50
302.9287501961396
 51
77.07124980385343
  0
ARC
  5
3D40
330
3D24
100
AcDbEntity
  8
V35
100
AcDbCircle
 10
14.14091640935157
 20
46.74176639261526
 30
0.0
 40
6.391804986662148
100
AcDbArc
 50
245.0676949625394
 51
314.9323050374571
  0
ARC
  5
3D41
330
3D24
100
AcDbEntity
  8
V35
100
AcDbCircle
 10
15.29248397180129
 20
40.21090221163291
 30
0.0
 40
6.704726521037983
100
AcDbArc
 50
66.91493608821812
 51
133.0850639117745
  0
ARC
  5
3D42
330
3D24
100
AcDbEntity
  8
V35
100
AcDbCircle
 10
12.00675668243934
 20
43.19013002556864
 30
0.0
 40
2.313368657446023
100
AcDbArc
 50
124.0161584341247
 51
255.9838415658691
  0
ARC
  5
3D43
330
3D24
100
AcDbEntity
  8
V35
100
AcDbCircle
 10
17.40804629748254
 20
44.14252311532112
 30
0.0
 40
2.294380948704399
100
AcDbArc
 50
302.9287501961396
 51
77.07124980385343
  0
LINE
  5
3D44
330
3D24
100
AcDbEntity
  8
V35
100
AcDbLine
 10
33.36194693037487
 20
73.64982094120074
 30
0.0
 11
60.28355544951842
 21
63.85115678166505
 31
0.0
  0
LINE
  5
3D45
330
3D24
100
AcDbEntity
  8
V35
100
AcDbLine
 10
32.46440736352543
 20
76.93848969103743
 30
0.0
 11
65.61652019934718
 21
64.87210741576387
 31
0.0
  0
ARC
  5
3D46
330
3D24
100
AcDbEntity
  8
V35
100
AcDbCircle
 10
40.14233917303033
 20
60.29971692783573
 30
0.0
 40
1.927807214538352
100
AcDbArc
 50
124.0161584341247
 51
255.9838415658691
  0
ARC
  5
3D47
330
3D24
100
AcDbEntity
  8
V35
100
AcDbCircle
 10
41.9208056121239
 20
63.25941390037456
 30
0.0
 40
5.32650415555179
100
AcDbArc
 50
245.0676949625394
 51
314.9323050374571
  0
ARC
  5
3D48
330
3D24
100
AcDbEntity
  8
V35
100
AcDbCircle
 10
42.88044524749864
 20
57.81702708288929
 30
0.0
 40
5.587272100864986
100
AcDbArc
 50
66.91493608821812
 51
133.0850639117745
  0
ARC
  5
3D49
330
3D24
100
AcDbEntity
  8
V35
100
AcDbCircle
 10
34.38800736035182
 20
76.46889880355849
 30
0.0
 40
3.0
100
AcDbArc
 50
180.0
 51
250.0000000000035
  0
ARC
  5
3D4A
330
3D24
100
AcDbEntity
  8
V35
100
AcDbCircle
 10
44.64341385223304
 20
61.09337783596282
 30
0.0
 40
1.911984123920333
100
AcDbArc
 50
302.9287501961396
 51
77.07124980385343
  0
LINE
  5
3D4B
330
3D24
100
AcDbEntity
  8
V35
100
AcDbLine
 10
65.61652019934718
 20
64.87210741576382
 30
0.0
 11
65.61652019934718
 21
55.05879789840879
 31
0.0
  0
ARC
  5
3D4C
330
3D24
100
AcDbEntity
  8
V35
100
AcDbCircle
 10
29.57621969208992
 20
230.2859305362722
 30
0.0
 40
2.661261520716134
100
AcDbArc
 50
86.39517671061895
 51
130.0000000000047
  0
LINE
  5
3D4D
330
3D24
100
AcDbEntity
  8
V35
100
AcDbLine
 10
35.38170099869183
 20
222.8898057288926
 30
0.0
 11
-25.90185445082636
 21
171.4667969539694
 31
0.0
  0
LINE
  5
3D4E
330
3D24
100
AcDbEntity
  8
V35
100
AcDbLine
 10
-25.90185445082636
 20
168.4667969539694
 30
0.0
 11
35.38170099869183
 21
219.8898057288925
 31
0.0
  0
LINE
  5
3D4F
330
3D24
100
AcDbEntity
  8
V35
100
AcDbLine
 10
-28.72093231318411
 20
176.5860282948338
 30
0.0
 11
32.56262313633409
 21
228.0090370697569
 31
0.0
  0
LINE
  5
3D50
330
3D24
100
AcDbEntity
  8
V35
100
AcDbLine
 10
-33.41796168908024
 20
180.9015663609801
 30
0.0
 11
27.86559376043795
 21
232.3245751359032
 31
0.0
  0
LINE
  5
3D51
330
3D24
100
AcDbEntity
  8
V35
100
AcDbLine
 10
-30.22331497154198
 20
120.596676658276
 30
0.0
 11
-30.22331497154198
 21
170.0396799520664
 31
0.0
  0
LINE
  5
3D52
330
3D24
100
AcDbEntity
  8
V35
100
AcDbLine
 10
-32.85670537954172
 20
120.596676658276
 30
0.0
 11
-32.85670537954184
 21
170.9981556757805
 31
0.0
  0
LINE
  5
3D53
330
3D24
100
AcDbEntity
  8
V35
100
AcDbLine
 10
-29.89554808916648
 20
95.39626789880129
 30
0.0
 11
-30.22331497154198
 21
120.596676658276
 31
0.0
  0
LINE
  5
3D54
330
3D24
100
AcDbEntity
  8
V35
100
AcDbLine
 10
-33.18447226191722
 20
95.39626789881811
 30
0.0
 11
-32.85670537954172
 21
120.596676658276
 31
0.0
  0
LINE
  5
3D55
330
3D24
100
AcDbEntity
  8
V35
100
AcDbLine
 10
-37.17816590025734
 20
172.5710386738774
 30
0.0
 11
-37.17816590025734
 21
175.5710386738774
 31
0.0
  0
LINE
  5
3D56
330
3D24
100
AcDbEntity
  8
V35
100
AcDbLine
 10
-28.72093231318411
 20
176.5860282948338
 30
0.0
 11
-25.90185445082636
 21
171.4667969539694
 31
0.0
  0
LINE
  5
3D57
330
3D24
100
AcDbEntity
  8
V35
100
AcDbLine
 10
-37.17816590025734
 20
172.5710386738774
 30
0.0
 11
-32.85670537954184
 21
170.9981556757805
 31
0.0
  0
LINE
  5
3D58
330
3D24
100
AcDbEntity
  8
V35
100
AcDbLine
 10
-30.22331497154198
 20
170.0396799520664
 30
0.0
 11
-25.90185445082636
 21
168.4667969539694
 31
0.0
  0
LINE
  5
3D59
330
3D24
100
AcDbEntity
  8
V35
100
AcDbLine
 10
-25.90185445082636
 20
168.4667969539694
 30
0.0
 11
-25.90185445082636
 21
171.4667969539694
 31
0.0
  0
ARC
  5
3D5A
330
3D24
100
AcDbEntity
  8
V35
100
AcDbCircle
 10
-31.7073357574285
 20
178.8629217613491
 30
0.0
 40
2.661261520716134
100
AcDbArc
 50
86.39517671061895
 51
184.8450266065807
  0
LINE
  5
3D5B
330
3D24
100
AcDbEntity
  8
V35
100
AcDbLine
 10
-37.17816590025734
 20
175.5710386738774
 30
0.0
 11
-34.3590880378996
 21
178.6381491547877
 31
0.0
  0
ARC
  5
3D5C
330
3D24
100
AcDbEntity
  8
V35
100
AcDbCircle
 10
-31.54001017554276
 20
181.5189178139233
 30
0.0
 40
0.0000000000008962
100
AcDbArc
 50
3.632950739488309
 51
14.70830632344464
  0
ARC
  5
3D5D
330
3D24
100
AcDbEntity
  8
V35
100
AcDbCircle
 10
-32.79909271064673
 20
177.527392942712
 30
0.0
 40
4.185398383392873
100
AcDbArc
 50
347.0020390188705
 51
72.49269423793923
  0
LINE
  5
3D5E
330
3D24
100
AcDbEntity
  8
V35
100
AcDbLine
 10
31.06024047797609
 20
172.0196854331993
 30
0.0
 11
31.06024047797609
 21
216.2636697998127
 31
0.0
  0
LINE
  5
3D5F
330
3D24
100
AcDbEntity
  8
V35
100
AcDbLine
 10
31.3880073603516
 20
146.8192766737187
 30
0.0
 11
31.06024047797609
 21
172.0196854331993
 31
0.0
  0
LINE
  5
3D60
330
3D24
100
AcDbEntity
  8
V35
100
AcDbLine
 10
32.56262313633409
 20
228.009037069757
 30
0.0
 11
35.38170099869183
 21
222.8898057288926
 31
0.0
  0
LINE
  5
3D61
330
3D24
100
AcDbEntity
  8
V35
100
AcDbLine
 10
35.38170099869183
 20
219.8898057288925
 30
0.0
 11
35.38170099869183
 21
222.8898057288926
 31
0.0
  0
ARC
  5
3D62
330
3D24
100
AcDbEntity
  8
V35
100
AcDbCircle
 10
28.48446273887146
 20
228.9504017176351
 30
0.0
 40
4.185398383392873
100
AcDbArc
 50
347.0020390188705
 51
72.49269423793923
  0
ENDBLK
  5
3D64
330
3D24
100
AcDbEntity
  8
0
 62
     1
 48
5.0
100
AcDbBlockEnd
  0
ENDSEC
  0
SECTION
  2
ENTITIES
  0
LINE
  5
15D3
330
18
100
AcDbEntity
  8
V25
100
AcDbLine
 10
513.9009977110568
 20
550.9067264376223
 30
0.0
 11
-1039.306572426419
 21
415.0186719479465
 31
0.0
  0
LINE
  5
15D4
330
18
100
AcDbEntity
  8
V25
100
AcDbLine
 10
513.9009977110568
 20
554.9220057877956
 30
0.0
 11
-1039.306572426419
 21
419.0339512981195
 31
0.0
  0
LINE
  5
15D5
330
18
100
AcDbEntity
  8
V25
100
AcDbLine
 10
513.9009977110545
 20
430.076088702861
 30
0.0
 11
-1039.30657242642
 21
294.1880342131865
 31
0.0
  0
LINE
  5
15D6
330
18
100
AcDbEntity
  8
V25
100
AcDbLine
 10
513.9009977110545
 20
418.0302506523407
 30
0.0
 11
-1039.30657242642
 21
282.1421961626658
 31
0.0
  0
LWPOLYLINE
  5
15E5
330
18
100
AcDbEntity
  8
V35
100
AcDbPolyline
 90
        2
 70
     0
 43
0.0
 10
-1039.306572426419
 20
563.8084947518972
 10
513.9009977110547
 20
699.6965492415714
  0
TEXT
  5
15ED
330
18
100
AcDbEntity
  8
TXT-D
 62
     7
100
AcDbText
 10
-458.1186595625435
 20
867.6857144396553
 30
0.0
 40
28.0
  1
Kalzip
  7
ROMANS
100
AcDbText
  0
TEXT
  5
15F1
330
18
100
AcDbEntity
  8
TXT-D
 62
     0
100
AcDbText
 10
-458.3533116391756
 20
757.2326388213886
 30
0.0
 40
28.0
  1
parotěsná vrstva 
  7
ROMANS
100
AcDbText
  0
LINE
  5
15F3
330
18
100
AcDbEntity
  8
ACHS
 62
     6
 48
6.0
100
AcDbLine
 10
513.9009977110545
 20
794.3615603601812
 30
0.0
 11
513.9009977110545
 21
118.8919390644233
 31
0.0
  0
LINE
  5
160E
330
18
100
AcDbEntity
  8
TXT-D
 62
     1
100
AcDbLine
 10
-478.3550827678539
 20
879.3196940439178
 30
0.0
 11
-730.9768389168815
 21
879.31969404391
 31
0.0
  0
LINE
  5
160F
330
18
100
AcDbEntity
  8
TXT-D
 62
     1
100
AcDbLine
 10
-478.3550827678539
 20
822.7624815068679
 30
0.0
 11
-630.9768389168814
 21
822.7624815068686
 31
0.0
  0
LINE
  5
1753
330
18
100
AcDbEntity
  8
ACHS
 62
     6
 48
6.0
100
AcDbLine
 10
-1039.306572426419
 20
658.4735058705088
 30
0.0
 11
-1039.306572426419
 21
-16.99611542525108
 31
0.0
  0
LWPOLYLINE
  5
18A1
330
18
100
AcDbEntity
  8
V5
  6
GESTRICHELT
 48
5.0
100
AcDbPolyline
 90
        2
 70
     0
 43
4.0
 10
-1039.30657242642
 20
417.0263116230325
 10
513.9009977110561
 20
552.9143661127088
  0
LINE
  5
1981
330
18
100
AcDbEntity
  8
V35
100
AcDbLine
 10
-1037.196039290307
 20
609.4877227911913
 30
0.0
 11
513.9009977110545
 21
745.1911295574603
 31
0.0
  0
LINE
  5
1982
330
18
100
AcDbEntity
  8
V35
100
AcDbLine
 10
-1039.306572426419
 20
569.8314137771568
 30
0.0
 11
513.9009977110547
 21
705.7194682668322
 31
0.0
  0
LINE
  5
1983
330
18
100
AcDbEntity
  8
V35
100
AcDbLine
 10
-1039.306572426419
 20
629.3794718186545
 30
0.0
 11
513.9009977110547
 21
765.2675263083271
 31
0.0
  0
TEXT
  5
252C
330
18
100
AcDbEntity
  8
TXT-D
 62
     0
100
AcDbText
 10
-458.1186595625435
 20
813.6925047673377
 30
0.0
 40
28.0
  1
tepelná izolace - minerální vlna
  7
ROMANS
100
AcDbText
  0
LINE
  5
252D
330
18
100
AcDbEntity
  8
TXT-D
 62
     1
100
AcDbLine
 10
-478.3550827678539
 20
766.890556116351
 30
0.0
 11
-530.9768389168815
 21
766.8905561163491
 31
0.0
  0
LINE
  5
265F
330
18
100
AcDbEntity
  8
TXT-D
 62
     1
100
AcDbLine
 10
-478.3550827678539
 20
1029.310288768881
 30
0.0
 11
-830.9768389168812
 21
1029.310288768867
 31
0.0
  0
LINE
  5
2660
330
18
100
AcDbEntity
  8
TXT-D
 62
     1
100
AcDbLine
 10
-530.9768389168815
 20
766.8905561163491
 30
0.0
 11
-530.9768389168816
 21
463.5070403133583
 31
0.0
  0
LINE
  5
2665
330
18
100
AcDbEntity
  8
TXT-D
 62
     1
100
AcDbLine
 10
-630.9768389168814
 20
822.7624815068686
 30
0.0
 11
-630.9768389168814
 21
545.4963952187581
 31
0.0
  0
LINE
  5
2666
330
18
100
AcDbEntity
  8
TXT-D
 62
     1
100
AcDbLine
 10
-730.9768389168815
 20
879.31969404391
 30
0.0
 11
-730.9768389168815
 21
624.881506878949
 31
0.0
  0
LINE
  5
2668
330
18
100
AcDbEntity
  8
TXT-D
 62
     1
100
AcDbLine
 10
-830.9768389168812
 20
1029.310288768867
 30
0.0
 11
-830.9768389168812
 21
616.2336734535574
 31
0.0
  0
LINE
  5
2682
330
18
100
AcDbEntity
  8
TXT-D
 62
     1
100
AcDbLine
 10
-304.9540350276121
 20
198.3372910447685
 30
0.0
 11
-172.2994834200544
 21
198.3372910447629
 31
0.0
  0
LINE
  5
2683
330
18
100
AcDbEntity
  8
TXT-D
 62
     1
100
AcDbLine
 10
-144.6725004680568
 20
256.5483267568859
 30
0.0
 11
-85.3752866606047
 21
256.5483267568829
 31
0.0
  0
TEXT
  5
268A
330
18
100
AcDbEntity
  8
TXT-D
 62
     7
100
AcDbText
 10
-458.3533116391757
 20
186.703311440506
 30
0.0
 40
28.0
  1
vazník
  7
ROMANS
100
AcDbText
  0
TEXT
  5
268B
330
18
100
AcDbEntity
  8
TXT-D
 62
     7
100
AcDbText
 10
-458.353311639176
 20
243.260523977556
 30
0.0
 40
28.0
  1
trapézový plech
  7
ROMANS
100
AcDbText
  0
TEXT
  5
2698
330
18
100
AcDbEntity
  8
TXT-D
 62
     7
100
AcDbText
 10
-427.023836937907
 20
1133.418119685275
 30
0.0
 40
32.2
  1
PŘÍČNÝ ŘEZ
  7
ROMANS
100
AcDbText
  0
LINE
  5
2699
330
18
100
AcDbEntity
  8
TXT-D
 62
     7
100
AcDbLine
 10
-433.3858734398218
 20
1119.480647988816
 30
0.0
 11
-143.9879762012569
 21
1119.480647988816
 31
0.0
  0
LWPOLYLINE
  5
2BAD
330
18
100
AcDbEntity
  8
V25
  6
Continuous
100
AcDbPolyline
 90
        2
 70
   128
 43
0.0
 10
513.9009977110545
 20
-791.4206677042184
 10
-1039.306572426419
 20
-791.4206677042184
  0
LWPOLYLINE
  5
2BAE
330
18
100
AcDbEntity
  8
V25
  6
Continuous
100
AcDbPolyline
 90
        2
 70
   128
 43
0.0
 10
513.9009977110545
 20
-787.4206677042184
 10
-1039.306572426419
 20
-787.4206677042184
  0
LWPOLYLINE
  5
2BAF
330
18
100
AcDbEntity
  8
V5
  6
GESTRICHELT
 48
5.0
100
AcDbPolyline
 90
        2
 70
   128
 43
4.0
 10
513.9009977110545
 20
-789.4206677042184
 10
-1039.306572426419
 20
-789.4206677042189
  0
LWPOLYLINE
  5
2BB0
330
18
100
AcDbEntity
  8
V35
 62
     6
100
AcDbPolyline
 90
       33
 70
     0
 43
0.0
 10
30.75081058313902
 20
-599.9626930215415
 42
-0.8518717637873237
 10
37.47867353204402
 20
-579.6497702906115
 42
-0.3441842485073744
 10
40.82627688410354
 20
-583.2603288558914
 10
40.85598227395974
 20
-583.6157329762255
 42
0.3077507175483973
 10
43.70114424778648
 20
-587.0995652337293
 42
-0.3559174951861054
 10
46.54696710012456
 20
-591.2766782144911
 42
-0.2401758746392449
 10
41.34145050588631
 20
-599.6307826892254
 42
0.2629884054316376
 10
39.88934997683816
 20
-602.2006089922746
 10
39.88934997686852
 20
-633.9399933310549
 42
0.2931365125316157
 10
40.48364994554503
 20
-634.851669086341
 10
40.74789816689213
 20
-634.971929583185
 42
-0.2939859278524366
 10
43.96966237121865
 20
-639.9777902927776
 42
0.4142135623730951
 10
48.06966237121867
 20
-644.0777902927776
 10
127.8093441069418
 20
-644.0777902927777
 42
0.2446984432290329
 10
131.1678674885265
 20
-642.3294536818168
 10
133.8332764885265
 20
-638.5228546818167
 42
-0.5205670505517518
 10
142.8439489757053
 20
-638.5228534236896
 10
145.5093589757055
 20
-642.3294524236896
 42
0.2446984432290355
 10
148.8678815076241
 20
-644.077788666844
 10
229.8078815076242
 20
-644.077788666844
 42
0.2446984432290357
 10
233.1664040395426
 20
-642.3294524236896
 10
235.8318140395427
 20
-638.5228534236896
 42
-0.5205670505517466
 10
244.8424865267216
 20
-638.5228546818169
 10
247.5078955267215
 20
-642.3294536818168
 42
0.2446984432290353
 10
250.8664189083065
 20
-644.0777902927776
 10
328.4304428704272
 20
-644.0777902927776
 42
0.4142135623731031
 10
332.5303428704271
 20
-639.9778902927776
 42
-0.2939817751607098
 10
335.7521070759819
 20
-634.971929583185
 10
336.016355297329
 20
-634.851669086341
 42
0.2931365125316157
 10
336.6106552660056
 20
-633.9399933310549
 10
336.6106552660341
 20
-606.884424148919
 42
0.2992947414849744
 10
334.7997601908901
 20
-604.130149384539
 42
-3.892127811935753
 10
349.2065162359896
 20
-602.7512585871318
  0
LWPOLYLINE
  5
2C4A
330
18
100
AcDbEntity
  8
V35
 62
     6
100
AcDbPolyline
 90
       20
 70
     0
 43
0.0
 10
335.750810583139
 20
-599.9626930215415
 42
-0.8518717637873296
 10
342.478673532044
 20
-579.6497702906115
 42
-0.3441842485073744
 10
345.8262768841037
 20
-583.2603288558914
 10
345.8559822739598
 20
-583.6157329762255
 42
0.3077507175483973
 10
348.7011442477865
 20
-587.0995652337293
 42
-0.3559174951861054
 10
351.5469671001247
 20
-591.2766782144911
 42
-0.2401758746392449
 10
346.3414505058863
 20
-599.6307826892254
 42
0.2629884054316376
 10
344.8893499768382
 20
-602.2006089922746
 10
344.8893499768685
 20
-633.9399933310549
 42
0.2931365125316157
 10
345.4836499455451
 20
-634.851669086341
 10
345.7478981668921
 20
-634.971929583185
 42
-0.2939859278524366
 10
348.9696623712187
 20
-639.9777902927776
 42
0.4142135623730951
 10
353.0696623712188
 20
-644.0777902927776
 10
432.8093441069418
 20
-644.0777902927777
 42
0.2446984432290329
 10
436.1678674885265
 20
-642.3294536818168
 10
438.8332764885265
 20
-638.5228546818167
 42
-0.5205670505517518
 10
447.8439489757053
 20
-638.5228534236896
 10
450.5093589757055
 20
-642.3294524236896
 42
0.2446984432290355
 10
453.8678815076241
 20
-644.077788666844
 10
513.9009977110545
 20
-644.077788666844
  0
LINE
  5
2C71
330
18
100
AcDbEntity
  8
V25
100
AcDbLine
 10
-345.359573483929
 20
-889.2083344911778
 30
0.0
 11
-345.359573483929
 21
-938.1397457323988
 31
0.0
  0
LINE
  5
2D29
330
18
100
AcDbEntity
  8
ACHS
 62
     6
 48
6.0
100
AcDbLine
 10
513.9009977110545
 20
-609.827630018432
 30
0.0
 11
513.9009977110545
 21
-946.4570339901701
 31
0.0
  0
LINE
  5
2DE0
330
18
100
AcDbEntity
  8
ACHS
 62
     6
 48
6.0
100
AcDbLine
 10
-1039.306572426419
 20
-622.8276300184318
 30
0.0
 11
-1039.306572426419
 21
-946.4570339901696
 31
0.0
  0
LINE
  5
2E3E
330
18
100
AcDbEntity
  8
V25
100
AcDbLine
 10
513.9009977110544
 20
169.0829309415907
 30
0.0
 11
-1039.30657242642
 21
33.19487645191623
 31
0.0
  0
LINE
  5
2E3F
330
18
100
AcDbEntity
  8
V25
100
AcDbLine
 10
513.9009977110543
 20
181.1287689921108
 30
0.0
 11
-1039.30657242642
 21
45.24071450243638
 31
0.0
  0
LWPOLYLINE
  5
2F36
330
18
100
AcDbEntity
  8
V35
 62
     6
100
AcDbPolyline
 90
       33
 70
     0
 43
0.0
 10
-274.249189416861
 20
-599.9626930215415
 42
-0.8518717637873237
 10
-267.521326467956
 20
-579.6497702906115
 42
-0.3441842485073744
 10
-264.1737231158964
 20
-583.2603288558914
 10
-264.1440177260403
 20
-583.6157329762255
 42
0.3077507175483973
 10
-261.2988557522135
 20
-587.0995652337293
 42
-0.3559174951861054
 10
-258.4530328998754
 20
-591.2766782144911
 42
-0.2401758746392449
 10
-263.6585494941137
 20
-599.6307826892254
 42
0.2629884054316376
 10
-265.1106500231618
 20
-602.2006089922746
 10
-265.1106500231315
 20
-633.9399933310549
 42
0.2931365125316157
 10
-264.5163500544549
 20
-634.851669086341
 10
-264.2521018331079
 20
-634.971929583185
 42
-0.2939859278524366
 10
-261.0303376287813
 20
-639.9777902927776
 42
0.4142135623730951
 10
-256.9303376287813
 20
-644.0777902927776
 10
-177.1906558930582
 20
-644.0777902927777
 42
0.2446984432290329
 10
-173.8321325114734
 20
-642.3294536818168
 10
-171.1667235114735
 20
-638.5228546818167
 42
-0.5205670505517518
 10
-162.1560510242947
 20
-638.5228534236896
 10
-159.4906410242945
 20
-642.3294524236896
 42
0.2446984432290355
 10
-156.1321184923758
 20
-644.077788666844
 10
-75.19211849237581
 20
-644.077788666844
 42
0.2446984432290357
 10
-71.83359596045739
 20
-642.3294524236896
 10
-69.16818596045732
 20
-638.5228534236896
 42
-0.5205670505517466
 10
-60.15751347327841
 20
-638.5228546818169
 10
-57.49210447327846
 20
-642.3294536818168
 42
0.2446984432290353
 10
-54.13358109169348
 20
-644.0777902927776
 10
23.43044287042721
 20
-644.0777902927776
 42
0.4142135623731031
 10
27.53034287042715
 20
-639.9778902927776
 42
-0.2939817751607098
 10
30.75210707598194
 20
-634.971929583185
 10
31.01635529732903
 20
-634.851669086341
 42
0.2931365125316157
 10
31.61065526600555
 20
-633.9399933310549
 10
31.61065526603409
 20
-606.884424148919
 42
0.2992947414849744
 10
29.79976019089008
 20
-604.130149384539
 42
-3.892127811935753
 10
44.20651623598963
 20
-602.7512585871318
  0
LWPOLYLINE
  5
2F3A
330
18
100
AcDbEntity
  8
V35
 62
     6
100
AcDbPolyline
 90
       33
 70
     0
 43
0.0
 10
-579.249189416861
 20
-599.9626930215415
 42
-0.8518717637873237
 10
-572.521326467956
 20
-579.6497702906115
 42
-0.3441842485073744
 10
-569.1737231158964
 20
-583.2603288558914
 10
-569.1440177260402
 20
-583.6157329762255
 42
0.3077507175483973
 10
-566.2988557522135
 20
-587.0995652337293
 42
-0.3559174951861054
 10
-563.4530328998754
 20
-591.2766782144911
 42
-0.2401758746392449
 10
-568.6585494941136
 20
-599.6307826892254
 42
0.2629884054316376
 10
-570.1106500231618
 20
-602.2006089922746
 10
-570.1106500231315
 20
-633.9399933310549
 42
0.2931365125316157
 10
-569.5163500544549
 20
-634.851669086341
 10
-569.2521018331079
 20
-634.971929583185
 42
-0.2939859278524366
 10
-566.0303376287813
 20
-639.9777902927776
 42
0.4142135623730951
 10
-561.9303376287813
 20
-644.0777902927776
 10
-482.1906558930582
 20
-644.0777902927777
 42
0.2446984432290329
 10
-478.8321325114734
 20
-642.3294536818168
 10
-476.1667235114734
 20
-638.5228546818167
 42
-0.5205670505517518
 10
-467.1560510242946
 20
-638.5228534236896
 10
-464.4906410242945
 20
-642.3294524236896
 42
0.2446984432290355
 10
-461.1321184923759
 20
-644.077788666844
 10
-380.1921184923758
 20
-644.077788666844
 42
0.2446984432290357
 10
-376.8335959604574
 20
-642.3294524236896
 10
-374.1681859604573
 20
-638.5228534236896
 42
-0.5205670505517466
 10
-365.1575134732784
 20
-638.5228546818169
 10
-362.4921044732785
 20
-642.3294536818168
 42
0.2446984432290353
 10
-359.1335810916935
 20
-644.0777902927776
 10
-281.5695571295728
 20
-644.0777902927776
 42
0.4142135623731031
 10
-277.4696571295728
 20
-639.9778902927776
 42
-0.2939817751607098
 10
-274.247892924018
 20
-634.971929583185
 10
-273.983644702671
 20
-634.851669086341
 42
0.2931365125316157
 10
-273.3893447339944
 20
-633.9399933310549
 10
-273.3893447339659
 20
-606.884424148919
 42
0.2992947414849744
 10
-275.2002398091099
 20
-604.130149384539
 42
-3.892127811935753
 10
-260.7934837640104
 20
-602.7512585871318
  0
LWPOLYLINE
  5
2F3E
330
18
100
AcDbEntity
  8
V35
 62
     6
100
AcDbPolyline
 90
       33
 70
     0
 43
0.0
 10
-884.249189416861
 20
-599.9626930215415
 42
-0.8518717637873237
 10
-877.521326467956
 20
-579.6497702906115
 42
-0.3441842485073744
 10
-874.1737231158964
 20
-583.2603288558914
 10
-874.1440177260402
 20
-583.6157329762255
 42
0.3077507175483973
 10
-871.2988557522136
 20
-587.0995652337293
 42
-0.3559174951861054
 10
-868.4530328998754
 20
-591.2766782144911
 42
-0.2401758746392449
 10
-873.6585494941136
 20
-599.6307826892254
 42
0.2629884054316376
 10
-875.1106500231617
 20
-602.2006089922746
 10
-875.1106500231314
 20
-633.9399933310549
 42
0.2931365125316157
 10
-874.5163500544549
 20
-634.851669086341
 10
-874.2521018331078
 20
-634.971929583185
 42
-0.2939859278524366
 10
-871.0303376287813
 20
-639.9777902927776
 42
0.4142135623730951
 10
-866.9303376287812
 20
-644.0777902927776
 10
-787.1906558930581
 20
-644.0777902927777
 42
0.2446984432290329
 10
-783.8321325114734
 20
-642.3294536818168
 10
-781.1667235114734
 20
-638.5228546818167
 42
-0.5205670505517518
 10
-772.1560510242946
 20
-638.5228534236896
 10
-769.4906410242944
 20
-642.3294524236896
 42
0.2446984432290355
 10
-766.1321184923759
 20
-644.077788666844
 10
-685.1921184923758
 20
-644.077788666844
 42
0.2446984432290357
 10
-681.8335959604573
 20
-642.3294524236896
 10
-679.1681859604572
 20
-638.5228534236896
 42
-0.5205670505517466
 10
-670.1575134732784
 20
-638.5228546818169
 10
-667.4921044732784
 20
-642.3294536818168
 42
0.2446984432290353
 10
-664.1335810916935
 20
-644.0777902927776
 10
-586.5695571295727
 20
-644.0777902927776
 42
0.4142135623731031
 10
-582.4696571295728
 20
-639.9778902927776
 42
-0.2939817751607098
 10
-579.247892924018
 20
-634.971929583185
 10
-578.983644702671
 20
-634.851669086341
 42
0.2931365125316157
 10
-578.3893447339944
 20
-633.9399933310549
 10
-578.3893447339659
 20
-606.884424148919
 42
0.2992947414849744
 10
-580.2002398091099
 20
-604.130149384539
 42
-3.892127811935753
 10
-565.7934837640103
 20
-602.7512585871318
  0
LWPOLYLINE
  5
2F42
330
18
100
AcDbEntity
  8
V35
 62
     6
100
AcDbPolyline
 90
       15
 70
     0
 43
0.0
 10
-1039.306572426419
 20
-644.077788666844
 10
-990.1921184923757
 20
-644.077788666844
 42
0.2446984432290357
 10
-986.8335959604573
 20
-642.3294524236896
 10
-984.1681859604573
 20
-638.5228534236896
 42
-0.5205670505517466
 10
-975.1575134732783
 20
-638.5228546818169
 10
-972.4921044732784
 20
-642.3294536818168
 42
0.2446984432290353
 10
-969.1335810916935
 20
-644.0777902927776
 10
-891.5695571295728
 20
-644.0777902927776
 42
0.4142135623731031
 10
-887.4696571295729
 20
-639.9778902927776
 42
-0.2939817751607098
 10
-884.2478929240181
 20
-634.971929583185
 10
-883.983644702671
 20
-634.851669086341
 42
0.2931365125316157
 10
-883.3893447339944
 20
-633.9399933310549
 10
-883.389344733966
 20
-606.884424148919
 42
0.2992947414849744
 10
-885.20023980911
 20
-604.130149384539
 42
-3.892127811935753
 10
-870.7934837640104
 20
-602.7512585871318
  0
LINE
  5
2F5B
330
18
100
AcDbEntity
  8
TXT-D
 62
     7
100
AcDbLine
 10
-433.385873439822
 20
-178.180567312902
 30
0.0
 11
-105.6960613652409
 21
-178.180567312902
 31
0.0
  0
TEXT
  5
2F5C
330
18
100
AcDbEntity
  8
TXT-D
 62
     7
100
AcDbText
 10
-427.0238369379073
 20
-164.2430956164428
 30
0.0
 40
32.2
  1
PODÉLNÝ ŘEZ
  7
ROMANS
100
AcDbText
  0
MTEXT
  5
3269
102
{ACAD_XDICTIONARY
360
4082
102
}
330
18
100
AcDbEntity
  8
TXT-D
100
AcDbMText
 10
-458.1186595625435
 20
1046.412492036733
 30
0.0
 40
28.0
 41
915.6684999999999
 71
     1
 72
     5
  1
{\C7;poplastovan\U+00E1 klipsa*\P(diagon\U+00E1ln\U+011B kladen\U+00E1)\Palternativn\U+011B: hlin\U+00EDkov\U+00E1 klipsa s termopodlo\U+017Ekou}
  7
ROMANS
 73
     1
 44
1.0
  0
LINE
  5
326E
330
18
100
AcDbEntity
  8
TXT-D
 62
     1
100
AcDbLine
 10
-512.8708087672639
 20
-991.5876901267553
 30
0.0
 11
-438.1109954878802
 21
-991.5876901267562
 31
0.0
  0
LINE
  5
326F
330
18
100
AcDbEntity
  8
TXT-D
 62
     1
100
AcDbLine
 10
-655.0219599242463
 20
-1060.847093014543
 30
0.0
 11
-359.4726651646342
 21
-1060.847093014551
 31
0.0
  0
LWPOLYLINE
  5
33A8
330
18
100
AcDbEntity
  8
0
 62
     6
100
AcDbPolyline
 90
       16
 70
     1
 43
0.0
 10
-267.7027873576825
 20
-1129.542118189376
 10
-267.7027873576824
 20
-952.5421181893767
 42
0.4142135623730951
 10
-291.7027873576824
 20
-928.5421181893767
 10
-392.7027873576825
 20
-928.5421181893767
 10
-392.7027873576825
 20
-911.0421181893768
 10
-132.7027873576825
 20
-911.0421181893768
 10
-132.7027873576825
 20
-928.5421181893767
 10
-233.7027873576825
 20
-928.5421181893767
 42
0.4142135623730951
 10
-257.7027873576825
 20
-952.5421181893767
 10
-257.7027873576824
 20
-1129.542118189376
 42
0.4142135623730951
 10
-233.7027873576825
 20
-1153.542118189377
 10
-132.7027873576825
 20
-1153.542118189377
 10
-132.7027873576825
 20
-1171.042118189376
 10
-392.7027873576825
 20
-1171.042118189376
 10
-392.7027873576825
 20
-1153.542118189377
 10
-291.7027873576824
 20
-1153.542118189377
 42
0.4142135623730951
  0
LWPOLYLINE
  5
354D
330
18
100
AcDbEntity
  8
V5
100
AcDbPolyline
 90
       95
 70
     0
 43
2.5
 10
513.9009977110545
 20
545.5362368134398
 10
480.6979043513729
 20
542.6313425504747
 10
476.3687386546949
 20
525.2487474239703
 10
469.0411005851861
 20
516.5160084294034
 10
456.0224939945251
 20
464.2433112558231
 10
448.6948559250163
 20
455.5105722612564
 10
442.305561150029
 20
429.8560854619358
 10
425.4452249349041
 20
428.3809971798767
 10
408.5848887197788
 20
426.9059088978177
 10
397.8378068074086
 20
451.0611570030844
 10
389.1050678128416
 20
458.3887950725928
 10
367.2071845030151
 20
507.6066952097632
 10
358.4744455084482
 20
514.9343332792716
 10
351.1925935994459
 20
531.3010959932792
 10
286.304631643091
 20
525.6241349227966
 10
279.6103082665168
 20
517.6461509887769
 10
271.6323243324973
 20
524.3404743653512
 10
206.7443623761428
 20
518.6635132948686
 10
202.4151966794648
 20
501.2809181683642
 10
195.087558609956
 20
492.5481791737973
 10
182.068952019295
 20
440.2754820002169
 10
174.7413139497862
 20
431.5427430056502
 10
168.3520191747989
 20
405.8882562063296
 10
151.491682959674
 20
404.4131679242705
 10
134.6313467445487
 20
402.9380796422115
 10
123.8842648321784
 20
427.0933277474783
 10
115.1515258376115
 20
434.4209658169866
 10
93.25364252778502
 20
483.6388659541571
 10
84.52090353321807
 20
490.9665040236654
 10
77.23905162421579
 20
507.333266737673
 10
12.35108966786083
 20
501.6563056671905
 10
5.656766291286658
 20
493.6783217331707
 10
-2.32121764273279
 20
500.3726451097449
 10
-67.20917959908729
 20
494.6956840392624
 10
-71.53834529576534
 20
477.313088912758
 10
-78.86598336527413
 20
468.5803499181911
 10
-91.8845899559351
 20
416.3076527446108
 10
-99.2122280254439
 20
407.5749137500441
 10
-105.6015228004312
 20
381.9204269507235
 10
-122.4618590155563
 20
380.4453386686644
 10
-139.3221952306816
 20
378.9702503866054
 10
-150.0692771430518
 20
403.1254984918722
 10
-158.8020161376188
 20
410.4531365613805
 10
-180.6998994474453
 20
459.6710366985509
 10
-189.4326384420122
 20
466.9986747680592
 10
-196.7144903510145
 20
483.3654374820668
 10
-261.6024523073695
 20
477.6884764115843
 10
-268.2967756839437
 20
469.7104924775646
 10
-276.2747596179631
 20
476.4048158541387
 10
-341.1627215743176
 20
470.7278547836564
 10
-345.4918872709957
 20
453.3452596571518
 10
-352.8195253405045
 20
444.612520662585
 10
-365.8381319311654
 20
392.3398234890047
 10
-373.1657700006743
 20
383.607084494438
 10
-379.5550647756615
 20
357.9525976951174
 10
-396.4154009907866
 20
356.4775094130583
 10
-413.2757372059118
 20
355.0024211309993
 10
-424.022819118282
 20
379.1576692362661
 10
-432.755558112849
 20
386.4853073057744
 10
-454.6534414226755
 20
435.7032074429447
 10
-463.3861804172425
 20
443.0308455124531
 10
-470.6680323262447
 20
459.3976082264607
 10
-535.5559942825997
 20
453.7206471559781
 10
-542.2503176591739
 20
445.7426632219585
 10
-550.2283015931933
 20
452.4369865985327
 10
-615.1162635495478
 20
446.7600255280502
 10
-619.4454292462259
 20
429.3774304015457
 10
-626.7730673157346
 20
420.6446914069789
 10
-639.7916739063957
 20
368.3719942333985
 10
-647.1193119759044
 20
359.6392552388318
 10
-653.5086067508918
 20
333.9847684395112
 10
-670.3689429660167
 20
332.5096801574521
 10
-687.229279181142
 20
331.0345918753931
 10
-697.9763610935123
 20
355.1898399806599
 10
-706.7091000880792
 20
362.5174780501682
 10
-728.6069833979057
 20
411.7353781873386
 10
-737.3397223924727
 20
419.063016256847
 10
-744.6215743014751
 20
435.4297789708545
 10
-809.5095362578298
 20
429.752817900372
 10
-816.2038596344039
 20
421.7748339663523
 10
-824.1818435684237
 20
428.4691573429265
 10
-889.0698055247781
 20
422.792196272444
 10
-893.3989712214563
 20
405.4096011459395
 10
-900.7266092909647
 20
396.6768621513728
 10
-913.7452158816259
 20
344.4041649777924
 10
-921.0728539511345
 20
335.6714259832257
 10
-927.4621487261221
 20
310.0169391839051
 10
-944.3224849412469
 20
308.541850901846
 10
-961.1828211563718
 20
307.0667626197868
 10
-971.9299030687423
 20
331.2220107250537
 10
-980.6626420633094
 20
338.5496487945623
 10
-1002.560525373136
 20
387.7675489317325
 10
-1011.293264367703
 20
395.0951870012411
 10
-1018.575116276705
 20
411.4619497152483
 10
-1039.306572426419
 20
409.6481823237636
  0
LINE
  5
3958
330
18
100
AcDbEntity
  8
V5
100
AcDbLine
 10
-1039.306572426419
 20
-796.0421181893771
 30
0.0
 11
513.9009977110547
 21
-796.0421181893771
 31
0.0
  0
LINE
  5
3959
330
18
100
AcDbEntity
  8
V5
 62
     4
100
AcDbLine
 10
-1039.306572426419
 20
-906.0421181893763
 30
0.0
 11
513.9009977110547
 21
-906.042118189377
 31
0.0
  0
LINE
  5
3A03
330
18
100
AcDbEntity
  8
TXT-D
  6
AUSGEZOGEN
 62
     1
 48
5.0
100
AcDbLine
 10
-85.37528666060461
 20
442.444001331401
 30
0.0
 11
-85.3752866606047
 21
256.5483267568829
 31
0.0
  0
LINE
  5
3A04
330
18
100
AcDbEntity
  8
TXT-D
  6
AUSGEZOGEN
 62
     1
 48
5.0
100
AcDbLine
 10
-172.2994834200544
 20
198.3372910447629
 30
0.0
 11
-172.2994834200544
 21
155.433624856747
 31
0.0
  0
LWPOLYLINE
  5
3A05
330
18
100
AcDbEntity
  8
V35
100
AcDbPolyline
 90
        2
 70
     1
 43
6.032
 10
-834.2008389168814
 20
616.2336734535574
 42
1.0
 10
-827.7528389168811
 20
616.2336734535574
 42
1.0
  0
LINE
  5
3A0D
330
18
100
AcDbEntity
  8
TXT-D
 62
     1
100
AcDbLine
 10
-478.3550827678541
 20
-465.2993343645706
 30
0.0
 11
-630.9768389168816
 21
-465.2993343645699
 31
0.0
  0
LINE
  5
3A0E
330
18
100
AcDbEntity
  8
TXT-D
 62
     1
100
AcDbLine
 10
-478.3550827678541
 20
-408.7421218275206
 30
0.0
 11
-730.9768389168818
 21
-408.7421218275286
 31
0.0
  0
LINE
  5
3A0F
330
18
100
AcDbEntity
  8
TXT-D
 62
     1
100
AcDbLine
 10
-478.3550827678541
 20
-521.1712597550875
 30
0.0
 11
-520.1600442331779
 21
-521.171259755089
 31
0.0
  0
LINE
  5
3A10
330
18
100
AcDbEntity
  8
TXT-D
 62
     1
100
AcDbLine
 10
-877.1940342607621
 20
-258.7515271025737
 30
0.0
 11
-877.1940342607626
 21
-593.1311555956702
 31
0.0
  0
LINE
  5
3A11
330
18
100
AcDbEntity
  8
TXT-D
 62
     1
100
AcDbLine
 10
-730.9768389168818
 20
-408.7421218275286
 30
0.0
 11
-730.9768389168818
 21
-644.077788666844
 31
0.0
  0
LINE
  5
3A12
330
18
100
AcDbEntity
  8
TXT-D
 62
     1
100
AcDbLine
 10
-630.9768389168816
 20
-465.2993343645699
 30
0.0
 11
-630.9768389168816
 21
-709.7807580957633
 31
0.0
  0
LINE
  5
3A13
330
18
100
AcDbEntity
  8
TXT-D
 62
     1
100
AcDbLine
 10
-520.1600442331779
 20
-521.171259755089
 30
0.0
 11
-520.160044233178
 21
-787.4206677042184
 31
0.0
  0
LINE
  5
3A59
330
18
100
AcDbEntity
  8
TXT-D
  6
AUSGEZOGEN
 62
     1
 48
5.0
100
AcDbLine
 10
-438.1109954878802
 20
-855.0869964616332
 30
0.0
 11
-438.1109954878802
 21
-991.5876901267562
 31
0.0
  0
LINE
  5
3A5A
330
18
100
AcDbEntity
  8
TXT-D
  6
AUSGEZOGEN
 62
     1
 48
5.0
100
AcDbLine
 10
-359.4726651646342
 20
-1060.847093014551
 30
0.0
 11
-359.4726651646342
 21
-1153.542118189377
 31
0.0
  0
LWPOLYLINE
  5
3AE1
330
18
100
AcDbEntity
  8
V35
100
AcDbPolyline
 90
        2
 70
     1
 43
6.032
 10
-634.2008389168816
 20
545.4963952187581
 42
1.0
 10
-627.7528389168812
 20
545.4963952187581
 42
1.0
  0
LWPOLYLINE
  5
3AE2
330
18
100
AcDbEntity
  8
V35
100
AcDbPolyline
 90
        2
 70
     1
 43
6.032
 10
-534.2008389168817
 20
463.5070403133583
 42
1.0
 10
-527.7528389168814
 20
463.5070403133583
 42
1.0
  0
LWPOLYLINE
  5
3AE3
330
18
100
AcDbEntity
  8
V35
100
AcDbPolyline
 90
        2
 70
     1
 43
6.032
 10
-88.59928666060477
 20
442.444001331401
 42
1.0
 10
-82.15128666060445
 20
442.444001331401
 42
1.0
  0
LWPOLYLINE
  5
3AE4
330
18
100
AcDbEntity
  8
V35
100
AcDbPolyline
 90
        2
 70
     1
 43
6.032
 10
-175.5234834200546
 20
155.433624856747
 42
1.0
 10
-169.0754834200543
 20
155.433624856747
 42
1.0
  0
LWPOLYLINE
  5
3AE5
330
18
100
AcDbEntity
  8
V35
100
AcDbPolyline
 90
        2
 70
     1
 43
6.032
 10
-880.4180342607628
 20
-589.90715559567
 42
1.0
 10
-873.9700342607624
 20
-589.90715559567
 42
1.0
  0
LWPOLYLINE
  5
3AE6
330
18
100
AcDbEntity
  8
V35
100
AcDbPolyline
 90
        2
 70
     1
 43
6.032
 10
-734.2008389168819
 20
-643.2760898102162
 42
1.0
 10
-727.7528389168816
 20
-643.2760898102162
 42
1.0
  0
LWPOLYLINE
  5
3AE7
330
18
100
AcDbEntity
  8
V35
100
AcDbPolyline
 90
        2
 70
     1
 43
6.032
 10
-634.2008389168817
 20
-709.7807580957633
 42
1.0
 10
-627.7528389168814
 20
-709.7807580957633
 42
1.0
  0
LWPOLYLINE
  5
3AE8
330
18
100
AcDbEntity
  8
V35
100
AcDbPolyline
 90
        2
 70
     1
 43
6.032
 10
-523.3840442331779
 20
-787.4206677042184
 42
1.0
 10
-516.9360442331776
 20
-787.4206677042184
 42
1.0
  0
LWPOLYLINE
  5
3AE9
330
18
100
AcDbEntity
  8
V35
100
AcDbPolyline
 90
        2
 70
     1
 43
6.032
 10
-441.3349954878803
 20
-855.0869964616332
 42
1.0
 10
-434.88699548788
 20
-855.0869964616332
 42
1.0
  0
LWPOLYLINE
  5
3AEA
330
18
100
AcDbEntity
  8
V35
100
AcDbPolyline
 90
        2
 70
     1
 43
6.032
 10
-362.6966651646344
 20
-1153.542118189377
 42
1.0
 10
-356.2486651646341
 20
-1153.542118189377
 42
1.0
  0
LINE
  5
3B01
330
18
100
AcDbEntity
  8
TXT-D
 62
     1
100
AcDbLine
 10
-478.3550827678541
 20
-258.7515271025572
 30
0.0
 11
-877.1940342607621
 21
-258.7515271025737
 31
0.0
  0
HATCH
  5
3CB6
330
18
100
AcDbEntity
  8
0
 62
     1
100
AcDbHatch
 10
0.0
 20
0.0
 30
0.0
210
0.0
220
0.0
230
1.0
  2
ANSI31
 70
     0
 71
     0
 91
        3
 92
        7
 72
     1
 73
     1
 93
       18
 10
-132.7027873576825
 20
-1171.042118189377
 42
0.0
 10
-132.7027873576825
 20
-1153.542118189377
 42
0.0
 10
-233.7027873576825
 20
-1153.542118189377
 42
-0.4142135623730958
 10
-257.7027873576824
 20
-1129.542118189376
 42
0.0
 10
-257.7027873576825
 20
-952.5421181893767
 42
-0.4142135623730951
 10
-233.7027873576825
 20
-928.5421181893767
 42
0.0
 10
-180.046001231436
 20
-928.5421181893767
 42
0.0
 10
-180.046001231436
 20
-911.0421181893766
 42
0.0
 10
-345.359573483929
 20
-911.0421181893768
 42
0.0
 10
-345.3595734839291
 20
-928.542118189377
 42
0.0
 10
-291.7027873576826
 20
-928.5421181893767
 42
-0.4142135623730965
 10
-267.7027873576824
 20
-952.5421181893767
 42
0.0
 10
-267.7027873576825
 20
-1129.542118189376
 42
-0.4142135623730958
 10
-291.7027873576825
 20
-1153.542118189377
 42
0.0
 10
-356.2486651646341
 20
-1153.542118189377
 42
-1.0
 10
-362.6966651646344
 20
-1153.542118189377
 42
0.0
 10
-392.7027873576826
 20
-1153.542118189377
 42
0.0
 10
-392.7027873576826
 20
-1171.042118189376
 42
0.0
 97
        0
 92
        7
 72
     0
 73
     1
 93
        4
 10
-132.7027873576825
 20
-928.5421181893767
 10
-132.7027873576824
 20
-911.0421181893766
 10
-180.046001231436
 20
-911.0421181893766
 10
-180.046001231436
 20
-928.5421181893768
 97
        0
 92
       23
 72
     0
 73
     1
 93
        4
 10
-392.7027873576826
 20
-911.0421181893768
 10
-392.7027873576825
 20
-928.5421181893768
 10
-345.3595734839291
 20
-928.5421181893768
 10
-345.3595734839291
 20
-911.0421181893768
 97
        0
 75
     0
 76
     1
 52
0.0
 41
5.0
 77
     0
 78
     1
 53
45.0
 43
0.0
 44
0.0
 45
-11.22532015133644
 46
11.22532015133644
 79
     0
 47
0.6568772832492673
 98
        3
 10
-275.8921695345343
 20
-1161.379236708346
 10
-174.0247898279158
 20
-923.5896578272678
 10
-379.7311830311082
 20
-919.6483959474662
  0
LINE
  5
3CC6
330
18
100
AcDbEntity
  8
V5
 62
     4
100
AcDbLine
 10
513.9009977110545
 20
-831.0421181893765
 30
0.0
 11
-1039.306572426419
 21
-831.0421181893765
 31
0.0
  0
LINE
  5
3CC7
330
18
100
AcDbEntity
  8
V5
 62
     4
100
AcDbLine
 10
513.9009977110545
 20
-870.9812556417031
 30
0.0
 11
-1039.306572426419
 21
-870.9812556417039
 31
0.0
  0
LINE
  5
3CC9
330
18
100
AcDbEntity
  8
V25
 62
     4
100
AcDbLine
 10
-940.4726193572297
 20
258.7872527197857
 30
0.0
 11
-946.0612578260136
 21
321.7835329397874
 31
0.0
  0
LINE
  5
3CCA
330
18
100
AcDbEntity
  8
V25
 62
     4
100
AcDbLine
 10
-392.0058264110262
 20
306.771879422999
 30
0.0
 11
-397.6536096130294
 21
370.4348512188188
 31
0.0
  0
LINE
  5
3CCB
330
18
100
AcDbEntity
  8
V25
 62
     4
100
AcDbLine
 10
155.9012575394343
 20
354.7075379342112
 30
0.0
 11
150.1943899612644
 21
419.0365209487571
 31
0.0
  0
LINE
  5
3CF2
330
18
100
AcDbEntity
  8
V25
 62
     4
100
AcDbLine
 10
-851.3194336845359
 20
400.1786513490017
 30
0.0
 11
-857.9714833767352
 21
475.161921207637
 31
0.0
  0
LINE
  5
3CF4
330
18
100
AcDbEntity
  8
V25
 62
     4
100
AcDbLine
 10
-792.5439464971222
 20
405.3208401711136
 30
0.0
 11
-799.1959961893216
 21
480.3041100297489
 31
0.0
  0
LINE
  5
3CF5
330
18
100
AcDbEntity
  8
V35
100
AcDbLine
 10
-865.202348452585
 20
438.3871438277755
 30
0.0
 11
-785.5067726052454
 21
445.3596032475882
 31
0.0
  0
LINE
  5
3CF6
330
18
100
AcDbEntity
  8
V35
100
AcDbLine
 10
-866.1610616228093
 20
449.3452855067847
 30
0.0
 11
-786.4654857754697
 21
456.3177449265974
 31
0.0
  0
LINE
  5
3CF7
330
18
100
AcDbEntity
  8
V35
100
AcDbLine
 10
-815.9277406914963
 20
471.8088886953144
 30
0.0
 11
-788.0342891449275
 21
474.2492494922488
 31
0.0
  0
LINE
  5
3CF8
330
18
100
AcDbEntity
  8
SV35
 48
3.0
100
AcDbLine
 10
-877.9270868937432
 20
583.8315697491707
 30
0.0
 11
-798.2315110464037
 21
590.804029168984
 31
0.0
  0
LINE
  5
3CF9
330
18
100
AcDbEntity
  8
SV35
 48
3.0
100
AcDbLine
 10
-881.7619395746403
 20
627.664136465207
 30
0.0
 11
-802.0663637273004
 21
634.6365958850199
 31
0.0
  0
LINE
  5
3CFA
330
18
100
AcDbEntity
  8
SV35
 48
3.0
100
AcDbLine
 10
-882.7206527448645
 20
638.6222781442163
 30
0.0
 11
-803.0250768975248
 21
645.594737564029
 31
0.0
  0
LINE
  5
3CFB
330
18
100
AcDbEntity
  8
SV35
 48
3.0
100
AcDbLine
 10
-877.5652078177245
 20
579.6952729830008
 30
0.0
 11
-882.7206527448645
 21
638.6222781442163
 31
0.0
  0
LINE
  5
3CFC
330
18
100
AcDbEntity
  8
SV35
 48
3.0
100
AcDbLine
 10
-846.6831721768803
 20
582.3971010081783
 30
0.0
 11
-847.0450512528991
 21
586.5333977743482
 31
0.0
  0
LINE
  5
3CFD
330
18
100
AcDbEntity
  8
SV35
 48
3.0
100
AcDbLine
 10
-849.6717562711555
 20
582.1356337799353
 30
0.0
 11
-850.0336353471743
 21
586.2719305461053
 31
0.0
  0
LINE
  5
3CFE
330
18
100
AcDbEntity
  8
SV35
 48
3.0
100
AcDbLine
 10
-825.7630835169537
 20
584.2273716058791
 30
0.0
 11
-826.1249625929725
 21
588.363668372049
 31
0.0
  0
LINE
  5
3CFF
330
18
100
AcDbEntity
  8
SV35
 48
3.0
100
AcDbLine
 10
-828.7516676112289
 20
583.9659043776362
 30
0.0
 11
-829.1135466872477
 21
588.102201143806
 31
0.0
  0
LINE
  5
3D00
330
18
100
AcDbEntity
  8
V35
100
AcDbLine
 10
-817.3475214163138
 20
453.61591690142
 30
0.0
 11
-828.7516676112289
 21
583.9659043776361
 31
0.0
  0
LINE
  5
3D01
330
18
100
AcDbEntity
  8
V35
100
AcDbLine
 10
-814.3589373220384
 20
453.8773841296629
 30
0.0
 11
-825.7630835169535
 21
584.2273716058791
 31
0.0
  0
LINE
  5
3D02
330
18
100
AcDbEntity
  8
V35
100
AcDbLine
 10
-838.2676100762404
 20
451.7856463037191
 30
0.0
 11
-849.6717562711555
 21
582.1356337799352
 31
0.0
  0
LINE
  5
3D03
330
18
100
AcDbEntity
  8
V35
100
AcDbLine
 10
-835.2790259819652
 20
452.047113531962
 30
0.0
 11
-846.6831721768803
 21
582.3971010081783
 31
0.0
  0
LINE
  5
3D04
330
18
100
AcDbEntity
  8
V35
100
AcDbLine
 10
-865.202348452585
 20
438.3871438277755
 30
0.0
 11
-877.5652078177245
 21
579.6952729830008
 31
0.0
  0
LINE
  5
3D05
330
18
100
AcDbEntity
  8
V35
100
AcDbLine
 10
-867.7298649922672
 20
467.2767900724361
 30
0.0
 11
-839.8364134456983
 21
469.7171508693705
 31
0.0
  0
LINE
  5
3D06
330
18
100
AcDbEntity
  8
V35
100
AcDbLine
 10
-836.8478293514231
 20
469.9786180976135
 30
0.0
 11
-818.9163247857717
 21
471.5474214670714
 31
0.0
  0
LINE
  5
3D07
330
18
100
AcDbEntity
  8
SV35
 48
3.0
100
AcDbLine
 10
-797.8696319703848
 20
586.6677324028136
 30
0.0
 11
-803.0250768975248
 21
645.594737564029
 31
0.0
  0
LINE
  5
3D08
330
18
100
AcDbEntity
  8
V35
100
AcDbLine
 10
-785.5067726052454
 20
445.3596032475882
 30
0.0
 11
-797.8696319703848
 21
586.6677324028135
 31
0.0
  0
LWPOLYLINE
  5
3D0B
330
18
100
AcDbEntity
  8
V35
100
AcDbPolyline
 90
        2
 70
     1
 43
6.032
 10
-734.2008389168817
 20
624.8815068789491
 42
1.0
 10
-727.7528389168814
 20
624.8815068789491
 42
1.0
  0
LINE
  5
3D0C
330
18
100
AcDbEntity
  8
SV35
 48
3.0
100
AcDbLine
 10
213.0935151560569
 20
734.4935951666411
 30
0.0
 11
292.7890910033965
 21
741.4660545864538
 31
0.0
  0
LINE
  5
3D0D
330
18
100
AcDbEntity
  8
SV35
 48
3.0
100
AcDbLine
 10
214.0522283262811
 20
723.5354534876318
 30
0.0
 11
293.7478041736208
 21
730.5079129074446
 31
0.0
  0
LINE
  5
3D0E
330
18
100
AcDbEntity
  8
SV35
 48
3.0
100
AcDbLine
 10
217.8870810071781
 20
679.7028867715954
 30
0.0
 11
297.5826568545176
 21
686.6753461914087
 31
0.0
  0
LINE
  5
3D0F
330
18
100
AcDbEntity
  8
V35
100
AcDbLine
 10
230.6118194483363
 20
534.2584608502002
 30
0.0
 11
218.2489600831968
 21
675.5665900054256
 31
0.0
  0
LINE
  5
3D10
330
18
100
AcDbEntity
  8
SV35
 48
3.0
100
AcDbLine
 10
218.2489600831968
 20
675.5665900054256
 30
0.0
 11
213.0935151560569
 21
734.4935951666411
 31
0.0
  0
LINE
  5
3D11
330
18
100
AcDbEntity
  8
V35
 62
     6
100
AcDbLine
 10
260.5351419189561
 20
547.9184305543867
 30
0.0
 11
249.130995724041
 21
678.268418030603
 31
0.0
  0
LINE
  5
3D12
330
18
100
AcDbEntity
  8
V35
 62
     6
100
AcDbLine
 10
257.5465578246809
 20
547.6569633261438
 30
0.0
 11
246.1424116297658
 21
678.0069508023599
 31
0.0
  0
LINE
  5
3D13
330
18
100
AcDbEntity
  8
V35
 62
     6
100
AcDbLine
 10
281.4552305788828
 20
549.7487011520877
 30
0.0
 11
270.0510843839677
 21
680.0986886283038
 31
0.0
  0
LINE
  5
3D14
330
18
100
AcDbEntity
  8
V35
 62
     6
100
AcDbLine
 10
278.4666464846075
 20
549.4872339238447
 30
0.0
 11
267.0625002896924
 21
679.8372214000607
 31
0.0
  0
LINE
  5
3D15
330
18
100
AcDbEntity
  8
V35
100
AcDbLine
 10
310.3073952956759
 20
541.2309202700129
 30
0.0
 11
297.9445359305365
 21
682.5390494252381
 31
0.0
  0
LINE
  5
3D16
330
18
100
AcDbEntity
  8
V35
 62
     6
100
AcDbLine
 10
279.8864272094249
 20
567.6802057177391
 30
0.0
 11
307.7798787559938
 21
570.1205665146735
 31
0.0
  0
LINE
  5
3D17
330
18
100
AcDbEntity
  8
V35
100
AcDbLine
 10
229.653106278112
 20
545.2166025292094
 30
0.0
 11
309.3486821254517
 21
552.189061949022
 31
0.0
  0
LINE
  5
3D18
330
18
100
AcDbEntity
  8
V35
100
AcDbLine
 10
230.6118194483363
 20
534.2584608502002
 30
0.0
 11
310.3073952956759
 21
541.2309202700129
 31
0.0
  0
LINE
  5
3D19
330
18
100
AcDbEntity
  8
V25
 62
     4
100
AcDbLine
 10
244.4947342163855
 20
496.0499683714265
 30
0.0
 11
237.8426845241861
 21
571.0332382300617
 31
0.0
  0
LINE
  5
3D1A
330
18
100
AcDbEntity
  8
V35
 62
     6
100
AcDbLine
 10
228.0843029086542
 20
563.1481070948608
 30
0.0
 11
255.977754455223
 21
565.5884678917953
 31
0.0
  0
LINE
  5
3D1B
330
18
100
AcDbEntity
  8
V35
 62
     6
100
AcDbLine
 10
258.9663385494982
 20
565.8499351200382
 30
0.0
 11
276.8978431151497
 21
567.4187384894961
 31
0.0
  0
LINE
  5
3D1C
330
18
100
AcDbEntity
  8
V25
 62
     4
100
AcDbLine
 10
303.2702214037992
 20
501.1921571935384
 30
0.0
 11
296.6181717115997
 21
576.1754270521737
 31
0.0
  0
LINE
  5
3D1D
330
18
100
AcDbEntity
  8
SV35
 48
3.0
100
AcDbLine
 10
246.1424116297658
 20
678.0069508023601
 30
0.0
 11
245.780532553747
 21
682.1432475685299
 31
0.0
  0
LINE
  5
3D1E
330
18
100
AcDbEntity
  8
SV35
 48
3.0
100
AcDbLine
 10
249.130995724041
 20
678.268418030603
 30
0.0
 11
248.7691166480222
 21
682.4047147967729
 31
0.0
  0
LINE
  5
3D1F
330
18
100
AcDbEntity
  8
SV35
 48
3.0
100
AcDbLine
 10
267.0625002896924
 20
679.8372214000608
 30
0.0
 11
266.7006212136736
 21
683.9735181662307
 31
0.0
  0
LINE
  5
3D20
330
18
100
AcDbEntity
  8
SV35
 48
3.0
100
AcDbLine
 10
270.0510843839676
 20
680.0986886283038
 30
0.0
 11
269.6892053079488
 21
684.2349853944737
 31
0.0
  0
LINE
  5
3D22
330
18
100
AcDbEntity
  8
SV35
 48
3.0
100
AcDbLine
 10
297.9445359305365
 20
682.5390494252383
 30
0.0
 11
292.7890910033965
 21
741.4660545864538
 31
0.0
  0
INSERT
  5
3D65
330
18
100
AcDbEntity
  8
TXT-D
  6
AUSGEZOGEN
 62
     1
 48
5.0
100
AcDbBlockReference
  2
AluPers
 10
415.3215495189386
 20
858.6836790909822
 30
0.0
 41
0.7
 42
0.7
 43
0.7
 50
4.999999999999969
  0
INSERT
  5
3D68
330
18
100
AcDbEntity
  8
INSULATION
  6
AUSGEZOGEN
 62
     1
 48
5.0
100
AcDbBlockReference
  2
DAEMM
 10
-979.6635201975863
 20
427.5688498892331
 30
0.0
 41
14.07714177202878
 42
13.78037536610853
 43
14.07714177202878
 50
4.999999999999972
  0
INSERT
  5
3D69
330
18
100
AcDbEntity
  8
INSULATION
  6
AUSGEZOGEN
 62
     1
 48
5.0
100
AcDbBlockReference
  2
DAEMM
 10
-923.5692242072628
 20
432.4764648768542
 30
0.0
 41
14.07714177202878
 42
13.78037536610853
 43
14.07714177202878
 50
4.999999999999972
  0
INSERT
  5
3D6C
330
18
100
AcDbEntity
  8
INSULATION
  6
AUSGEZOGEN
 62
     1
 48
5.0
100
AcDbBlockReference
  2
DAEMM
 10
-755.2863362362915
 20
447.1993098397171
 30
0.0
 41
14.07714177202878
 42
13.78037536610853
 43
14.07714177202878
 50
4.999999999999972
  0
INSERT
  5
3D6D
330
18
100
AcDbEntity
  8
INSULATION
  6
AUSGEZOGEN
 62
     1
 48
5.0
100
AcDbBlockReference
  2
DAEMM
 10
-699.1920402459681
 20
452.1069248273382
 30
0.0
 41
14.07714177202878
 42
13.78037536610853
 43
14.07714177202878
 50
4.999999999999972
  0
INSERT
  5
3D6E
330
18
100
AcDbEntity
  8
INSULATION
  6
AUSGEZOGEN
 62
     1
 48
5.0
100
AcDbBlockReference
  2
DAEMM
 10
-643.0977442556443
 20
457.014539814959
 30
0.0
 41
14.07714177202878
 42
13.78037536610853
 43
14.07714177202878
 50
4.999999999999972
  0
INSERT
  5
3D6F
330
18
100
AcDbEntity
  8
INSULATION
  6
AUSGEZOGEN
 62
     1
 48
5.0
100
AcDbBlockReference
  2
DAEMM
 10
-587.0034482653206
 20
461.9221548025801
 30
0.0
 41
14.07714177202878
 42
13.78037536610853
 43
14.07714177202878
 50
4.999999999999972
  0
INSERT
  5
3D70
330
18
100
AcDbEntity
  8
INSULATION
  6
AUSGEZOGEN
 62
     1
 48
5.0
100
AcDbBlockReference
  2
DAEMM
 10
-530.9091522749969
 20
466.8297697902011
 30
0.0
 41
14.07714177202878
 42
13.78037536610853
 43
14.07714177202878
 50
4.999999999999972
  0
INSERT
  5
3D71
330
18
100
AcDbEntity
  8
INSULATION
  6
AUSGEZOGEN
 62
     1
 48
5.0
100
AcDbBlockReference
  2
DAEMM
 10
-474.8148562846735
 20
471.737384777822
 30
0.0
 41
14.07714177202878
 42
13.78037536610853
 43
14.07714177202878
 50
4.999999999999972
  0
INSERT
  5
3D72
330
18
100
AcDbEntity
  8
INSULATION
  6
AUSGEZOGEN
 62
     1
 48
5.0
100
AcDbBlockReference
  2
DAEMM
 10
-418.7205602943498
 20
476.644999765443
 30
0.0
 41
14.07714177202878
 42
13.78037536610853
 43
14.07714177202878
 50
4.999999999999972
  0
INSERT
  5
3D73
330
18
100
AcDbEntity
  8
INSULATION
  6
AUSGEZOGEN
 62
     1
 48
5.0
100
AcDbBlockReference
  2
DAEMM
 10
-362.6262643040263
 20
481.5526147530639
 30
0.0
 41
14.07714177202878
 42
13.78037536610853
 43
14.07714177202878
 50
4.999999999999972
  0
INSERT
  5
3D74
330
18
100
AcDbEntity
  8
INSULATION
  6
AUSGEZOGEN
 62
     1
 48
5.0
100
AcDbBlockReference
  2
DAEMM
 10
-306.5319683137027
 20
486.4602297406849
 30
0.0
 41
14.07714177202878
 42
13.78037536610853
 43
14.07714177202878
 50
4.999999999999972
  0
INSERT
  5
3D75
330
18
100
AcDbEntity
  8
INSULATION
  6
AUSGEZOGEN
 62
     1
 48
5.0
100
AcDbBlockReference
  2
DAEMM
 10
-250.4376723233788
 20
491.3678447283059
 30
0.0
 41
14.07714177202878
 42
13.78037536610853
 43
14.07714177202878
 50
4.999999999999972
  0
INSERT
  5
3D76
330
18
100
AcDbEntity
  8
INSULATION
  6
AUSGEZOGEN
 62
     1
 48
5.0
100
AcDbBlockReference
  2
DAEMM
 10
-194.3433763330554
 20
496.2754597159269
 30
0.0
 41
14.07714177202878
 42
13.78037536610853
 43
14.07714177202878
 50
4.999999999999972
  0
INSERT
  5
3D77
330
18
100
AcDbEntity
  8
INSULATION
  6
AUSGEZOGEN
 62
     1
 48
5.0
100
AcDbBlockReference
  2
DAEMM
 10
-138.2490803427316
 20
501.1830747035479
 30
0.0
 41
14.07714177202878
 42
13.78037536610853
 43
14.07714177202878
 50
4.999999999999972
  0
INSERT
  5
3D78
330
18
100
AcDbEntity
  8
INSULATION
  6
AUSGEZOGEN
 62
     1
 48
5.0
100
AcDbBlockReference
  2
DAEMM
 10
-82.154784352408
 20
506.0906896911689
 30
0.0
 41
14.07714177202878
 42
13.78037536610853
 43
14.07714177202878
 50
4.999999999999972
  0
INSERT
  5
3D79
330
18
100
AcDbEntity
  8
INSULATION
  6
AUSGEZOGEN
 62
     1
 48
5.0
100
AcDbBlockReference
  2
DAEMM
 10
-26.06048836208447
 20
510.9983046787899
 30
0.0
 41
14.07714177202878
 42
13.78037536610853
 43
14.07714177202878
 50
4.999999999999972
  0
INSERT
  5
3D7A
330
18
100
AcDbEntity
  8
INSULATION
  6
AUSGEZOGEN
 62
     1
 48
5.0
100
AcDbBlockReference
  2
DAEMM
 10
30.0338076282394
 20
515.9059196664109
 30
0.0
 41
14.07714177202878
 42
13.78037536610853
 43
14.07714177202878
 50
4.999999999999972
  0
INSERT
  5
3D7B
330
18
100
AcDbEntity
  8
INSULATION
  6
AUSGEZOGEN
 62
     1
 48
5.0
100
AcDbBlockReference
  2
DAEMM
 10
86.12810361856304
 20
520.8135346540318
 30
0.0
 41
14.07714177202878
 42
13.78037536610853
 43
14.07714177202878
 50
4.999999999999972
  0
INSERT
  5
3D7C
330
18
100
AcDbEntity
  8
INSULATION
  6
AUSGEZOGEN
 62
     1
 48
5.0
100
AcDbBlockReference
  2
DAEMM
 10
142.2223996088867
 20
525.7211496416528
 30
0.0
 41
14.07714177202878
 42
13.78037536610853
 43
14.07714177202878
 50
4.999999999999972
  0
INSERT
  5
3D7F
330
18
100
AcDbEntity
  8
INSULATION
  6
AUSGEZOGEN
 62
     1
 48
5.0
100
AcDbBlockReference
  2
DAEMM
 10
310.5052875798574
 20
540.4439946045157
 30
0.0
 41
14.07714177202878
 42
13.78037536610853
 43
14.07714177202878
 50
4.999999999999972
  0
INSERT
  5
3D80
330
18
100
AcDbEntity
  8
INSULATION
  6
AUSGEZOGEN
 62
     1
 48
5.0
100
AcDbBlockReference
  2
DAEMM
 10
366.599583570181
 20
545.3516095921368
 30
0.0
 41
14.07714177202878
 42
13.78037536610853
 43
14.07714177202878
 50
4.999999999999972
  0
INSERT
  5
3D81
330
18
100
AcDbEntity
  8
INSULATION
  6
AUSGEZOGEN
 62
     1
 48
5.0
100
AcDbBlockReference
  2
DAEMM
 10
422.6938795605049
 20
550.2592245797577
 30
0.0
 41
14.07714177202878
 42
13.78037536610853
 43
14.07714177202878
 50
4.999999999999972
  0
ELLIPSE
  5
3D83
330
18
100
AcDbEntity
  8
INSULATION
100
AcDbEllipse
 10
476.3860978500789
 20
582.6227133222421
 30
0.0
 11
28.04714799516229
 21
2.453807493810967
 31
0.0
210
0.0
220
0.0
230
1.0
 40
0.9789185609745068
 41
4.712388980384679
 42
6.646153955785212
  0
LINE
  5
3D84
330
18
100
AcDbEntity
  8
INSULATION
100
AcDbLine
 10
501.7530276961386
 20
594.6648838458095
 30
0.0
 11
471.8600828969331
 21
655.4019715570728
 31
0.0
  0
ELLIPSE
  5
3D85
330
18
100
AcDbEntity
  8
INSULATION
100
AcDbEllipse
 10
497.2270127429927
 20
667.4441420806399
 30
0.0
 11
28.04714799516219
 21
2.453807493809351
 31
0.0
210
0.0
220
0.0
230
1.0
 40
0.9789185609745107
 41
0.8514128079045402
 42
3.50456130219547
  0
LINE
  5
3D86
330
18
100
AcDbEntity
  8
INSULATION
100
AcDbLine
 10
513.9009977110545
 20
624.2090702862121
 30
0.0
 11
505.4077436913146
 21
594.9846300637942
 31
0.0
  0
ELLIPSE
  5
3D87
330
18
100
AcDbEntity
  8
INSULATION
100
AcDbEllipse
 10
532.4803938404028
 20
587.530328309863
 30
0.0
 11
28.04714799516228
 21
2.453807493810583
 31
0.0
210
0.0
220
0.0
230
1.0
 40
0.9789185609745075
 41
2.778624004984147
 42
3.906110143230865
  0
ELLIPSE
  5
3D88
330
18
100
AcDbEntity
  8
INSULATION
100
AcDbEllipse
 10
-1038.159893888659
 20
450.1171086564755
 30
0.0
 11
28.04714799516203
 21
2.453807493812744
 31
0.0
210
0.0
220
0.0
230
1.0
 40
0.9789185609745082
 41
4.712388980384613
 42
6.64615395578515
  0
LINE
  5
3D89
330
18
100
AcDbEntity
  8
INSULATION
100
AcDbLine
 10
-1012.7929640426
 20
462.159279180043
 30
0.0
 11
-1039.306572426419
 21
516.0301630547206
 31
0.0
  0
ELLIPSE
  5
3D8A
330
18
100
AcDbEntity
  8
INSULATION
100
AcDbEllipse
 10
-1017.318978995746
 20
534.9385374148734
 30
0.0
 11
28.04714799516252
 21
2.453807493805627
 31
0.0
210
0.0
220
0.0
230
1.0
 40
0.9789185609745107
 41
-0.3629686486054582
 42
2.381772851005914
  0
LINE
  5
3D8B
330
18
100
AcDbEntity
  8
INSULATION
100
AcDbLine
 10
-990.2463288466577
 20
527.4842356609424
 30
0.0
 11
-1009.138248047424
 21
462.4790253980277
 31
0.0
  0
ELLIPSE
  5
3D8C
330
18
100
AcDbEntity
  8
INSULATION
100
AcDbEllipse
 10
-982.0655978983358
 20
455.0247236440965
 30
0.0
 11
28.0471479951625
 21
2.45380749380843
 31
0.0
210
0.0
220
0.0
230
0.9999999999999998
 40
0.9789185609745041
 41
2.778624004984225
 42
4.712388980384759
  0
INSERT
  5
3D8F
330
18
100
AcDbEntity
  8
TXT-D
  6
AUSGEZOGEN
 62
     1
 48
5.0
100
AcDbBlockReference
  2
AluPers
 10
402.4196997611057
 20
-429.3781367804564
 30
0.0
 41
0.7
 42
0.7
 43
0.7
 50
4.999999999999969
  0
INSERT
  5
3DA0
330
18
100
AcDbEntity
  8
V35
100
AcDbBlockReference
  2
PA140 Quer
 10
-879.322666615309
 20
-783.9678196333911
 30
0.0
  0
LINE
  5
3DA1
330
18
100
AcDbEntity
  8
0
 62
     4
100
AcDbLine
 10
-857.3226666153091
 20
-765.5150898273376
 30
0.0
 11
-857.3226666153091
 21
-808.6340002923083
 31
0.0
  0
LINE
  5
3DA2
330
18
100
AcDbEntity
  8
0
 62
     4
100
AcDbLine
 10
-901.3226666153073
 20
-765.5150898273354
 30
0.0
 11
-901.3226666153084
 21
-808.6340002923082
 31
0.0
  0
INSERT
  5
3DC6
330
18
100
AcDbEntity
  8
V35
100
AcDbBlockReference
  2
PA140 Quer
 10
-574.322666615309
 20
-783.9678196333911
 30
0.0
  0
LINE
  5
3DC7
330
18
100
AcDbEntity
  8
0
 62
     4
100
AcDbLine
 10
-552.3226666153091
 20
-765.5150898273376
 30
0.0
 11
-552.3226666153091
 21
-808.6340002923083
 31
0.0
  0
LINE
  5
3DC8
330
18
100
AcDbEntity
  8
0
 62
     4
100
AcDbLine
 10
-596.3226666153072
 20
-765.5150898273354
 30
0.0
 11
-596.3226666153083
 21
-808.6340002923082
 31
0.0
  0
INSERT
  5
3DC9
330
18
100
AcDbEntity
  8
V35
100
AcDbBlockReference
  2
PA140 Quer
 10
-269.3226666153091
 20
-783.9678196333911
 30
0.0
  0
LINE
  5
3DCA
330
18
100
AcDbEntity
  8
0
 62
     4
100
AcDbLine
 10
-247.3226666153091
 20
-765.5150898273376
 30
0.0
 11
-247.3226666153091
 21
-808.6340002923083
 31
0.0
  0
LINE
  5
3DCB
330
18
100
AcDbEntity
  8
0
 62
     4
100
AcDbLine
 10
-291.3226666153073
 20
-765.5150898273354
 30
0.0
 11
-291.3226666153083
 21
-808.6340002923082
 31
0.0
  0
INSERT
  5
3DCC
330
18
100
AcDbEntity
  8
V35
100
AcDbBlockReference
  2
PA140 Quer
 10
35.67733338469088
 20
-783.9678196333911
 30
0.0
  0
LINE
  5
3DCD
330
18
100
AcDbEntity
  8
0
 62
     4
100
AcDbLine
 10
57.67733338469088
 20
-765.5150898273376
 30
0.0
 11
57.67733338469088
 21
-808.6340002923083
 31
0.0
  0
LINE
  5
3DCE
330
18
100
AcDbEntity
  8
0
 62
     4
100
AcDbLine
 10
13.6773333846927
 20
-765.5150898273354
 30
0.0
 11
13.67733338469168
 21
-808.6340002923082
 31
0.0
  0
INSERT
  5
3DCF
330
18
100
AcDbEntity
  8
V35
100
AcDbBlockReference
  2
PA140 Quer
 10
340.6773333846909
 20
-783.9678196333911
 30
0.0
  0
LINE
  5
3DD0
330
18
100
AcDbEntity
  8
0
 62
     4
100
AcDbLine
 10
362.6773333846909
 20
-765.5150898273376
 30
0.0
 11
362.6773333846909
 21
-808.6340002923083
 31
0.0
  0
LINE
  5
3DD1
330
18
100
AcDbEntity
  8
0
 62
     4
100
AcDbLine
 10
318.6773333846927
 20
-765.5150898273354
 30
0.0
 11
318.6773333846917
 21
-808.6340002923082
 31
0.0
  0
INSERT
  5
3E0E
330
18
100
AcDbEntity
  8
INSULATION
  6
AUSGEZOGEN
 62
     1
 48
5.0
100
AcDbBlockReference
  2
DAEMM
 10
-991.8154138678586
 20
-784.507171983092
 30
0.0
 41
13.62702137481795
 42
13.61182916826246
 43
13.62702137481795
  0
INSERT
  5
3E11
330
18
100
AcDbEntity
  8
INSULATION
  6
AUSGEZOGEN
 62
     1
 48
5.0
100
AcDbBlockReference
  2
DAEMM
 10
-828.2911573700429
 20
-784.507171983092
 30
0.0
 41
13.62702137481795
 42
13.61182916826246
 43
13.62702137481795
  0
INSERT
  5
3E12
330
18
100
AcDbEntity
  8
INSULATION
  6
AUSGEZOGEN
 62
     1
 48
5.0
100
AcDbBlockReference
  2
DAEMM
 10
-773.7830718707712
 20
-784.507171983092
 30
0.0
 41
13.62702137481795
 42
13.61182916826246
 43
13.62702137481795
  0
INSERT
  5
3E13
330
18
100
AcDbEntity
  8
INSULATION
  6
AUSGEZOGEN
 62
     1
 48
5.0
100
AcDbBlockReference
  2
DAEMM
 10
-719.2749863714993
 20
-784.507171983092
 30
0.0
 41
13.62702137481795
 42
13.61182916826246
 43
13.62702137481795
  0
INSERT
  5
3E16
330
18
100
AcDbEntity
  8
INSULATION
  6
AUSGEZOGEN
 62
     1
 48
5.0
100
AcDbBlockReference
  2
DAEMM
 10
-555.7507298736839
 20
-784.507171983092
 30
0.0
 41
13.62702137481795
 42
13.61182916826246
 43
13.62702137481795
  0
INSERT
  5
3E17
330
18
100
AcDbEntity
  8
INSULATION
  6
AUSGEZOGEN
 62
     1
 48
5.0
100
AcDbBlockReference
  2
DAEMM
 10
-501.2426443744121
 20
-784.507171983092
 30
0.0
 41
13.62702137481795
 42
13.61182916826246
 43
13.62702137481795
  0
INSERT
  5
3E18
330
18
100
AcDbEntity
  8
INSULATION
  6
AUSGEZOGEN
 62
     1
 48
5.0
100
AcDbBlockReference
  2
DAEMM
 10
-446.7345588751402
 20
-784.507171983092
 30
0.0
 41
13.62702137481795
 42
13.61182916826246
 43
13.62702137481795
  0
INSERT
  5
3E19
330
18
100
AcDbEntity
  8
INSULATION
  6
AUSGEZOGEN
 62
     1
 48
5.0
100
AcDbBlockReference
  2
DAEMM
 10
-392.2264733758684
 20
-784.507171983092
 30
0.0
 41
13.62702137481795
 42
13.61182916826246
 43
13.62702137481795
  0
INSERT
  5
3E1A
330
18
100
AcDbEntity
  8
INSULATION
  6
AUSGEZOGEN
 62
     1
 48
5.0
100
AcDbBlockReference
  2
DAEMM
 10
-337.7183878765966
 20
-784.507171983092
 30
0.0
 41
13.62702137481795
 42
13.61182916826246
 43
13.62702137481795
  0
INSERT
  5
3E1C
330
18
100
AcDbEntity
  8
INSULATION
  6
AUSGEZOGEN
 62
     1
 48
5.0
100
AcDbBlockReference
  2
DAEMM
 10
-228.7022168780529
 20
-784.507171983092
 30
0.0
 41
13.62702137481795
 42
13.61182916826246
 43
13.62702137481795
  0
INSERT
  5
3E1D
330
18
100
AcDbEntity
  8
INSULATION
  6
AUSGEZOGEN
 62
     1
 48
5.0
100
AcDbBlockReference
  2
DAEMM
 10
-174.1941313787811
 20
-784.507171983092
 30
0.0
 41
13.62702137481795
 42
13.61182916826246
 43
13.62702137481795
  0
INSERT
  5
3E1E
330
18
100
AcDbEntity
  8
INSULATION
  6
AUSGEZOGEN
 62
     1
 48
5.0
100
AcDbBlockReference
  2
DAEMM
 10
-119.6860458795093
 20
-784.507171983092
 30
0.0
 41
13.62702137481795
 42
13.61182916826246
 43
13.62702137481795
  0
INSERT
  5
3E1F
330
18
100
AcDbEntity
  8
INSULATION
  6
AUSGEZOGEN
 62
     1
 48
5.0
100
AcDbBlockReference
  2
DAEMM
 10
-65.17796038023755
 20
-784.507171983092
 30
0.0
 41
13.62702137481795
 42
13.61182916826246
 43
13.62702137481795
  0
INSERT
  5
3E22
330
18
100
AcDbEntity
  8
INSULATION
  6
AUSGEZOGEN
 62
     1
 48
5.0
100
AcDbBlockReference
  2
DAEMM
 10
98.34629611757788
 20
-784.507171983092
 30
0.0
 41
13.62702137481795
 42
13.61182916826246
 43
13.62702137481795
  0
INSERT
  5
3E23
330
18
100
AcDbEntity
  8
INSULATION
  6
AUSGEZOGEN
 62
     1
 48
5.0
100
AcDbBlockReference
  2
DAEMM
 10
152.8543816168497
 20
-784.507171983092
 30
0.0
 41
13.62702137481795
 42
13.61182916826246
 43
13.62702137481795
  0
INSERT
  5
3E24
330
18
100
AcDbEntity
  8
INSULATION
  6
AUSGEZOGEN
 62
     1
 48
5.0
100
AcDbBlockReference
  2
DAEMM
 10
207.3624671161215
 20
-784.507171983092
 30
0.0
 41
13.62702137481795
 42
13.61182916826246
 43
13.62702137481795
  0
INSERT
  5
3E25
330
18
100
AcDbEntity
  8
INSULATION
  6
AUSGEZOGEN
 62
     1
 48
5.0
100
AcDbBlockReference
  2
DAEMM
 10
261.8705526153933
 20
-784.507171983092
 30
0.0
 41
13.62702137481795
 42
13.61182916826246
 43
13.62702137481795
  0
INSERT
  5
3E27
330
18
100
AcDbEntity
  8
INSULATION
  6
AUSGEZOGEN
 62
     1
 48
5.0
100
AcDbBlockReference
  2
DAEMM
 10
370.8867236139369
 20
-784.507171983092
 30
0.0
 41
13.62702137481795
 42
13.61182916826246
 43
13.62702137481795
  0
INSERT
  5
3E28
330
18
100
AcDbEntity
  8
INSULATION
  6
AUSGEZOGEN
 62
     1
 48
5.0
100
AcDbBlockReference
  2
DAEMM
 10
425.3948091132087
 20
-784.507171983092
 30
0.0
 41
13.62702137481795
 42
13.61182916826246
 43
13.62702137481795
  0
ELLIPSE
  5
3E2A
330
18
100
AcDbEntity
  8
INSULATION
100
AcDbEllipse
 10
479.9028946124805
 20
-757.2835136465666
 30
0.0
 11
27.25404274963634
 21
0.0000000000043346
 31
0.0
210
0.0
220
0.0
230
1.0
 40
0.998885141063657
 41
4.712388980384535
 42
6.646153955785065
  0
LINE
  5
3E2B
330
18
100
AcDbEntity
  8
INSULATION
100
AcDbLine
 10
505.3812526117903
 20
-747.6177258302867
 30
0.0
 11
481.6785793628068
 21
-685.2783264532729
 31
0.0
  0
ELLIPSE
  5
3E2C
330
18
100
AcDbEntity
  8
INSULATION
100
AcDbEllipse
 10
507.1569373621165
 20
-675.612538636993
 30
0.0
 11
27.25404274963622
 21
0.0000000000352281
 31
0.0
210
0.0
220
0.0
230
1.0
 40
0.9988851410636531
 41
1.320747010854359
 42
3.50456130219414
  0
LINE
  5
3E2D
330
18
100
AcDbEntity
  8
INSULATION
100
AcDbLine
 10
513.9009977110545
 20
-734.5506111026199
 30
0.0
 11
508.9326221124427
 21
-747.6177258302867
 31
0.0
  0
ELLIPSE
  5
3E2E
330
18
100
AcDbEntity
  8
INSULATION
100
AcDbEllipse
 10
534.4109801117525
 20
-757.2835136465666
 30
0.0
 11
27.25404274963636
 21
0.0000000000219267
 31
0.0
210
0.0
220
0.0
230
1.0
 40
0.9988851410636563
 41
2.778624004983348
 42
3.860465835573596
  0
ELLIPSE
  5
3E30
330
18
100
AcDbEntity
  8
INSULATION
100
AcDbEllipse
 10
-1046.32349936713
 20
-757.2835136465666
 30
0.0
 11
-27.25404274963616
 21
0.0000000000140777
 31
0.0
210
0.0
220
0.0
230
1.0
 40
0.9988851410636636
 41
1.831192830971398
 42
3.504561302195948
  0
LINE
  5
3E31
330
18
100
AcDbEntity
  8
INSULATION
100
AcDbLine
 10
-1020.845141367821
 20
-747.6177258302867
 30
0.0
 11
-1044.547814616804
 21
-685.2783264532729
 31
0.0
  0
ELLIPSE
  5
3E32
330
18
100
AcDbEntity
  8
INSULATION
100
AcDbEllipse
 10
-1019.069456617494
 20
-675.612538636993
 30
0.0
 11
27.25404274963619
 21
0.0000000000006916
 31
0.0
210
0.0
220
0.0
230
1.0
 40
0.9988851410636542
 41
-0.362968648605668
 42
2.407645385440369
  0
LINE
  5
3E33
330
18
100
AcDbEntity
  8
INSULATION
100
AcDbLine
 10
-993.5910986181848
 20
-685.2783264532729
 30
0.0
 11
-1017.293771867168
 21
-747.6177258302867
 31
0.0
  0
ELLIPSE
  5
3E34
330
18
100
AcDbEntity
  8
INSULATION
100
AcDbEllipse
 10
-991.8154138678584
 20
-757.2835136465666
 30
0.0
 11
27.25404274963642
 21
0.0000000000259873
 31
0.0
210
0.0
220
0.0
230
1.0
 40
0.9988851410636538
 41
2.778624004983199
 42
4.712388980383733
  0
ELLIPSE
  5
3E38
330
18
100
AcDbEntity
  8
SV35
 62
     4
 48
3.0
100
AcDbEllipse
 10
-813.782709927365
 20
469.7475686069593
 30
0.0
 11
28.04714799516225
 21
2.453807493811414
 31
0.0
210
0.0
220
0.0
230
1.0
 40
0.9789185609745048
 41
4.712388980384663
 42
6.646153955785196
  0
LINE
  5
3E39
330
18
100
AcDbEntity
  8
SV35
 62
     4
 48
3.0
100
AcDbLine
 10
-788.4157800813053
 20
481.7897391305267
 30
0.0
 11
-818.3087248805108
 21
542.52682684179
 31
0.0
  0
ELLIPSE
  5
3E3A
330
18
100
AcDbEntity
  8
INSULATION
  6
AUSGEZOGEN
 48
5.0
100
AcDbEllipse
 10
-792.9417950344514
 20
554.5689973653573
 30
0.0
 11
28.04714799516252
 21
2.453807493806243
 31
0.0
210
0.0
220
0.0
230
0.9999999999999998
 40
0.9789185609745089
 41
-0.3629686486054859
 42
1.66079288883352
  0
LINE
  5
3E3B
330
18
100
AcDbEntity
  8
INSULATION
100
AcDbLine
 10
-765.8691448853631
 20
547.1146956114262
 30
0.0
 11
-784.7610640861294
 21
482.1094853485115
 31
0.0
  0
ELLIPSE
  5
3E3C
330
18
100
AcDbEntity
  8
INSULATION
100
AcDbEllipse
 10
-757.6884139370412
 20
474.6551835945803
 30
0.0
 11
28.0471479951625
 21
2.45380749380843
 31
0.0
210
0.0
220
0.0
230
0.9999999999999998
 40
0.9789185609745041
 41
2.778624004984225
 42
4.712388980384759
  0
ELLIPSE
  5
3E3D
330
18
100
AcDbEntity
  8
SV35
 62
     4
 48
3.0
100
AcDbEllipse
 10
-869.8770059176887
 20
464.8399536193385
 30
0.0
 11
28.04714799516221
 21
2.45380749381207
 31
0.0
210
0.0
220
0.0
230
1.0
 40
0.9789185609745041
 41
4.71238898038464
 42
6.646153955785175
  0
LINE
  5
3E3E
330
18
100
AcDbEntity
  8
SV35
 62
     4
 48
3.0
100
AcDbLine
 10
-844.510076071629
 20
476.8821241429058
 30
0.0
 11
-874.4030208708345
 21
537.6192118541691
 31
0.0
  0
ELLIPSE
  5
3E3F
330
18
100
AcDbEntity
  8
SV35
 62
     4
 48
3.0
100
AcDbEllipse
 10
-849.0360910247749
 20
549.6613823777363
 30
0.0
 11
28.04714799516252
 21
2.453807493805627
 31
0.0
210
0.0
220
0.0
230
1.0
 40
0.9789185609745107
 41
-0.3629686486054582
 42
3.504561302195606
  0
LINE
  5
3E40
330
18
100
AcDbEntity
  8
SV35
 62
     4
 48
3.0
100
AcDbLine
 10
-821.9634408756869
 20
542.2070806238053
 30
0.0
 11
-840.855360076453
 21
477.2018703608906
 31
0.0
  0
ELLIPSE
  5
3E41
330
18
100
AcDbEntity
  8
SV35
 62
     4
 48
3.0
100
AcDbEllipse
 10
-813.7827099273648
 20
469.7475686069594
 30
0.0
 11
28.0471479951625
 21
2.45380749380843
 31
0.0
210
0.0
220
0.0
230
0.9999999999999998
 40
0.9789185609745041
 41
2.778624004984225
 42
4.712388980384759
  0
ELLIPSE
  5
3E49
330
18
100
AcDbEntity
  8
SV35
 62
     4
 48
3.0
100
AcDbEllipse
 10
-792.9417950344514
 20
554.5689973653573
 30
0.0
 11
28.04714799516252
 21
2.453807493806243
 31
0.0
210
0.0
220
0.0
230
0.9999999999999998
 40
0.9789185609745089
 41
1.769794253349715
 42
3.504561302195588
  0
ELLIPSE
  5
3E4A
330
18
100
AcDbEntity
  8
INSULATION
100
AcDbEllipse
 10
195.9146178984603
 20
558.0846383841372
 30
0.0
 11
28.04714799516228
 21
2.453807493810457
 31
0.0
210
0.0
220
0.0
230
0.9999999999999998
 40
0.9789185609745084
 41
-1.570796326794891
 42
0.3629686486056447
  0
LINE
  5
3E4B
330
18
100
AcDbEntity
  8
INSULATION
100
AcDbLine
 10
221.28154774452
 20
570.1268089077045
 30
0.0
 11
191.3886029453144
 21
630.8638966189678
 31
0.0
  0
ELLIPSE
  5
3E4C
330
18
100
AcDbEntity
  8
SV35
 62
     4
 48
3.0
100
AcDbEllipse
 10
216.755532791374
 20
642.9060671425349
 30
0.0
 11
28.04714799516212
 21
2.453807493810299
 31
0.0
210
0.0
220
0.0
230
0.9999999999999998
 40
0.9789185609745107
 41
-0.3629686486056289
 42
1.323283397451637
  0
LINE
  5
3E4D
330
18
100
AcDbEntity
  8
SV35
 62
     4
 48
3.0
100
AcDbLine
 10
243.8281829404622
 20
635.451765388604
 30
0.0
 11
224.9362637396959
 21
570.4465551256893
 31
0.0
  0
ELLIPSE
  5
3E4E
330
18
100
AcDbEntity
  8
SV35
 62
     4
 48
3.0
100
AcDbEllipse
 10
252.0089138887842
 20
562.9922533717581
 30
0.0
 11
28.04714799516228
 21
2.453807493810583
 31
0.0
210
0.0
220
0.0
230
1.0
 40
0.9789185609745075
 41
2.778624004984147
 42
4.712388980384684
  0
ELLIPSE
  5
3E4F
330
18
100
AcDbEntity
  8
SV35
 62
     4
 48
3.0
100
AcDbEllipse
 10
252.0089138887839
 20
562.9922533717581
 30
0.0
 11
28.04714799516224
 21
2.45380749381112
 31
0.0
210
0.0
220
0.0
230
1.0
 40
0.9789185609745077
 41
4.712388980384671
 42
6.646153955785207
  0
LINE
  5
3E50
330
18
100
AcDbEntity
  8
SV35
 62
     4
 48
3.0
100
AcDbLine
 10
277.3758437348436
 20
575.0344238953255
 30
0.0
 11
247.4828989356381
 21
635.7715116065888
 31
0.0
  0
ELLIPSE
  5
3E51
330
18
100
AcDbEntity
  8
SV35
 62
     4
 48
3.0
100
AcDbEllipse
 10
272.8498287816977
 20
647.8136821301559
 30
0.0
 11
28.04714799516213
 21
2.453807493810155
 31
0.0
210
0.0
220
0.0
230
1.0
 40
0.9789185609745103
 41
-0.3629686486056236
 42
3.50456130219544
  0
LINE
  5
3E52
330
18
100
AcDbEntity
  8
SV35
 62
     4
 48
3.0
100
AcDbLine
 10
299.9224789307858
 20
640.3593803762249
 30
0.0
 11
281.0305597300196
 21
575.3541701133102
 31
0.0
  0
ELLIPSE
  5
3E53
330
18
100
AcDbEntity
  8
SV35
 62
     4
 48
3.0
100
AcDbEllipse
 10
308.1032098791078
 20
567.899868359379
 30
0.0
 11
28.04714799516228
 21
2.453807493810583
 31
0.0
210
0.0
220
0.0
230
1.0
 40
0.9789185609745075
 41
2.778624004984147
 42
4.712388980384684
  0
ELLIPSE
  5
3E54
330
18
100
AcDbEntity
  8
SV35
  6
Continuous
 62
     4
 48
3.0
100
AcDbEllipse
 10
216.755532791374
 20
642.9060671425349
 30
0.0
 11
28.04714799516212
 21
2.453807493810299
 31
0.0
210
0.0
220
0.0
230
0.9999999999999998
 40
0.9789185609745107
 41
1.493646620086363
 42
3.504561302195435
  0
ELLIPSE
  5
3E64
330
18
100
AcDbEntity
  8
INSULATION
100
AcDbEllipse
 10
-937.3073283685867
 20
-757.2835136465666
 30
0.0
 11
-27.25404274963629
 21
0.0000000000194939
 31
0.0
210
0.0
220
0.0
230
1.0
 40
0.9988851410636584
 41
1.570796326795615
 42
3.504561302196147
  0
LINE
  5
3E65
330
18
100
AcDbEntity
  8
INSULATION
100
AcDbLine
 10
-911.828970369277
 20
-747.6177258302867
 30
0.0
 11
-935.5316436182604
 21
-685.2783264532729
 31
0.0
  0
ELLIPSE
  5
3E66
330
18
100
AcDbEntity
  8
INSULATION
100
AcDbEllipse
 10
-910.0532856189508
 20
-675.612538636993
 30
0.0
 11
27.25404274963619
 21
0.0000000000006916
 31
0.0
210
0.0
220
0.0
230
1.0
 40
0.9988851410636542
 41
-0.362968648605668
 42
3.504561302195408
  0
LINE
  5
3E67
330
18
100
AcDbEntity
  8
SV35
 62
     4
 48
3.0
100
AcDbLine
 10
-884.5749276196411
 20
-685.2783264532729
 30
0.0
 11
-891.6505235126169
 21
-703.8875522384486
 31
0.0
  0
ELLIPSE
  5
3E68
330
18
100
AcDbEntity
  8
SV35
 62
     4
 48
3.0
100
AcDbEllipse
 10
-882.7992428693148
 20
-757.2835136465666
 30
0.0
 11
27.25404274963642
 21
0.0000000000259873
 31
0.0
210
0.0
220
0.0
230
1.0
 40
0.9988851410636538
 41
2.778624004983199
 42
4.712388980383733
  0
ELLIPSE
  5
3E69
330
18
100
AcDbEntity
  8
SV35
 62
     4
 48
3.0
100
AcDbEllipse
 10
-882.799242869315
 20
-757.2835136465666
 30
0.0
 11
-27.25404274963629
 21
0.0000000000194939
 31
0.0
210
0.0
220
0.0
230
1.0
 40
0.9988851410636584
 41
1.570796326795615
 42
3.504561302196147
  0
LINE
  5
3E6A
330
18
100
AcDbEntity
  8
SV35
 62
     4
 48
3.0
100
AcDbLine
 10
-857.3208848700051
 20
-747.6177258302867
 30
0.0
 11
-881.0235581189886
 21
-685.2783264532729
 31
0.0
  0
ELLIPSE
  5
3E6B
330
18
100
AcDbEntity
  8
INSULATION
100
AcDbEllipse
 10
-855.5452001196789
 20
-675.612538636993
 30
0.0
 11
27.25404274963619
 21
0.0000000000006916
 31
0.0
210
0.0
220
0.0
230
1.0
 40
0.9988851410636542
 41
-0.362968648605668
 42
3.504561302195408
  0
LINE
  5
3E6C
330
18
100
AcDbEntity
  8
INSULATION
100
AcDbLine
 10
-830.0668421203692
 20
-685.2783264532729
 30
0.0
 11
-853.7695153693528
 21
-747.6177258302867
 31
0.0
  0
ELLIPSE
  5
3E6D
330
18
100
AcDbEntity
  8
INSULATION
100
AcDbEllipse
 10
-828.2911573700429
 20
-757.2835136465666
 30
0.0
 11
27.25404274963642
 21
0.0000000000259873
 31
0.0
210
0.0
220
0.0
230
1.0
 40
0.9988851410636538
 41
2.778624004983199
 42
4.712388980383733
  0
ELLIPSE
  5
3E6E
330
18
100
AcDbEntity
  8
SV35
 62
     4
 48
3.0
100
AcDbEllipse
 10
-610.2588153729558
 20
-757.2835136465666
 30
0.0
 11
-27.25404274963629
 21
0.0000000000194939
 31
0.0
210
0.0
220
0.0
230
1.0
 40
0.9988851410636584
 41
1.570796326795615
 42
3.504561302196147
  0
LINE
  5
3E6F
330
18
100
AcDbEntity
  8
SV35
 62
     4
 48
3.0
100
AcDbLine
 10
-584.7804573736461
 20
-747.6177258302867
 30
0.0
 11
-589.4533858880134
 21
-735.3276539950403
 31
0.0
  0
ELLIPSE
  5
3E70
330
18
100
AcDbEntity
  8
INSULATION
100
AcDbEllipse
 10
-583.0047726233198
 20
-675.612538636993
 30
0.0
 11
27.25404274963619
 21
0.0000000000006916
 31
0.0
210
0.0
220
0.0
230
1.0
 40
0.9988851410636542
 41
-0.362968648605668
 42
3.504561302195408
  0
LINE
  5
3E71
330
18
100
AcDbEntity
  8
SV35
 62
     4
 48
3.0
100
AcDbLine
 10
-557.5264146240101
 20
-685.2783264532729
 30
0.0
 11
-581.2290878729936
 21
-747.6177258302867
 31
0.0
  0
ELLIPSE
  5
3E72
330
18
100
AcDbEntity
  8
SV35
 62
     4
 48
3.0
100
AcDbEllipse
 10
-555.7507298736838
 20
-757.2835136465666
 30
0.0
 11
27.25404274963642
 21
0.0000000000259873
 31
0.0
210
0.0
220
0.0
230
1.0
 40
0.9988851410636538
 41
2.778624004983199
 42
4.712388980383733
  0
ELLIPSE
  5
3E73
330
18
100
AcDbEntity
  8
SV35
 62
     4
 48
3.0
100
AcDbEllipse
 10
-283.2103023773249
 20
-757.2835136465666
 30
0.0
 11
27.25404274963634
 21
0.0000000000043346
 31
0.0
210
0.0
220
0.0
230
1.0
 40
0.998885141063657
 41
4.712388980384535
 42
6.646153955785065
  0
LINE
  5
3E74
330
18
100
AcDbEntity
  8
SV35
 62
     4
 48
3.0
100
AcDbLine
 10
-257.731944378015
 20
-747.6177258302867
 30
0.0
 11
-281.4346176269985
 21
-685.2783264532729
 31
0.0
  0
ELLIPSE
  5
3E75
330
18
100
AcDbEntity
  8
INSULATION
100
AcDbEllipse
 10
-255.9562596276889
 20
-675.612538636993
 30
0.0
 11
-27.25404274963624
 21
0.0000000000193366
 31
0.0
210
0.0
220
0.0
230
1.0
 40
0.9988851410636526
 41
2.778624004984861
 42
6.646153955785939
  0
LINE
  5
3E76
330
18
100
AcDbEntity
  8
INSULATION
100
AcDbLine
 10
-230.4779016283792
 20
-685.2783264532729
 30
0.0
 11
-251.0194563665511
 21
-739.3038016052208
 31
0.0
  0
ELLIPSE
  5
3E77
330
18
100
AcDbEntity
  8
INSULATION
100
AcDbEllipse
 10
-228.7022168780528
 20
-757.2835136465666
 30
0.0
 11
27.25404274963628
 21
0.0000000000181384
 31
0.0
210
0.0
220
0.0
230
1.0
 40
0.9988851410636591
 41
2.778624004983488
 42
3.688196125059591
  0
ELLIPSE
  5
3E78
330
18
100
AcDbEntity
  8
INSULATION
100
AcDbEllipse
 10
-10.66987488096585
 20
-757.2835136465666
 30
0.0
 11
-27.25404274963634
 21
0.0000000000075783
 31
0.0
210
0.0
220
0.0
230
1.0
 40
0.998885141063657
 41
1.570796326795177
 42
3.50456130219571
  0
LINE
  5
3E79
330
18
100
AcDbEntity
  8
INSULATION
100
AcDbLine
 10
14.80848311834394
 20
-747.6177258302867
 30
0.0
 11
-8.894190130639533
 21
-685.2783264532729
 31
0.0
  0
ELLIPSE
  5
3E7A
330
18
100
AcDbEntity
  8
INSULATION
100
AcDbEllipse
 10
16.58416786867015
 20
-675.612538636993
 30
0.0
 11
-27.25404274963623
 21
0.0000000000020713
 31
0.0
210
0.0
220
0.0
230
1.0
 40
0.9988851410636526
 41
2.778624004984227
 42
3.640011101314167
  0
LINE
  5
3E7B
330
18
100
AcDbEntity
  8
SV35
 62
     4
 48
3.0
100
AcDbLine
 10
41.16449986700567
 20
-687.6401866931542
 30
0.0
 11
18.35985261899636
 21
-747.6177258302867
 31
0.0
  0
ELLIPSE
  5
3E7C
330
18
100
AcDbEntity
  8
SV35
 62
     4
 48
3.0
100
AcDbEllipse
 10
43.83821061830615
 20
-757.2835136465666
 30
0.0
 11
27.25404274963632
 21
0.0000000000129945
 31
0.0
210
0.0
220
0.0
230
1.0
 40
0.9988851410636579
 41
2.778624004983676
 42
4.712388980384209
  0
ELLIPSE
  5
3E7D
330
18
100
AcDbEntity
  8
SV35
 62
     4
 48
3.0
100
AcDbEllipse
 10
316.378638114665
 20
-757.2835136465666
 30
0.0
 11
27.25404274963634
 21
0.0000000000043346
 31
0.0
210
0.0
220
0.0
230
1.0
 40
0.998885141063657
 41
4.712388980384535
 42
6.646153955785065
  0
LINE
  5
3E7E
330
18
100
AcDbEntity
  8
SV35
 62
     4
 48
3.0
100
AcDbLine
 10
341.8569961139748
 20
-747.6177258302867
 30
0.0
 11
328.0235693137532
 21
-711.23501452203
 31
0.0
  0
ELLIPSE
  5
3E7F
330
18
100
AcDbEntity
  8
INSULATION
100
AcDbEllipse
 10
343.632680864301
 20
-675.612538636993
 30
0.0
 11
27.25404274963622
 21
0.0000000000352281
 31
0.0
210
0.0
220
0.0
230
1.0
 40
0.9988851410636531
 41
-0.3629686486069359
 42
3.50456130219414
  0
LINE
  5
3E80
330
18
100
AcDbEntity
  8
INSULATION
100
AcDbLine
 10
369.1110388636107
 20
-685.2783264532729
 30
0.0
 11
356.1389435927188
 21
-719.3956861010287
 31
0.0
  0
ELLIPSE
  5
3E81
330
18
100
AcDbEntity
  8
SV35
 62
     4
 48
3.0
100
AcDbEllipse
 10
370.886723613937
 20
-757.2835136465666
 30
0.0
 11
27.25404274963628
 21
0.0000000000181384
 31
0.0
210
0.0
220
0.0
230
1.0
 40
0.9988851410636591
 41
2.778624004983488
 42
4.712388980384023
  0
LINE
  5
3E82
330
18
100
AcDbEntity
  8
INSULATION
100
AcDbLine
 10
326.1292189288365
 20
-706.2527636187322
 30
0.0
 11
318.1543228649914
 21
-685.2783264532729
 31
0.0
  0
LINE
  5
3E83
330
18
100
AcDbEntity
  8
SV35
 62
     4
 48
3.0
100
AcDbLine
 10
354.6312895544172
 20
-723.3609032826004
 30
0.0
 11
345.4083656146273
 21
-747.6177258302867
 31
0.0
  0
ELLIPSE
  5
3E84
330
18
100
AcDbEntity
  8
INSULATION
100
AcDbEllipse
 10
43.83821061830595
 20
-757.2835136465666
 30
0.0
 11
-27.25404274963633
 21
0.0000000000140777
 31
0.0
210
0.0
220
0.0
230
1.0
 40
0.9988851410636574
 41
1.570796326795415
 42
2.23500474998085
  0
LINE
  5
3E85
330
18
100
AcDbEntity
  8
INSULATION
100
AcDbLine
 10
69.31656861761576
 20
-747.6177258302867
 30
0.0
 11
45.61389536863226
 21
-685.2783264532729
 31
0.0
  0
ELLIPSE
  5
3E86
330
18
100
AcDbEntity
  8
INSULATION
100
AcDbEllipse
 10
71.09225336794196
 20
-675.612538636993
 30
0.0
 11
27.25404274963624
 21
0.0000000000082863
 31
0.0
210
0.0
220
0.0
230
1.0
 40
0.9988851410636526
 41
-0.3629686486059467
 42
3.50456130219513
  0
LINE
  5
3E87
330
18
100
AcDbEntity
  8
INSULATION
100
AcDbLine
 10
96.57061136725165
 20
-685.2783264532729
 30
0.0
 11
72.86793811826817
 21
-747.6177258302867
 31
0.0
  0
ELLIPSE
  5
3E88
330
18
100
AcDbEntity
  8
INSULATION
100
AcDbEllipse
 10
98.34629611757797
 20
-757.2835136465666
 30
0.0
 11
27.25404274963632
 21
0.0000000000129945
 31
0.0
210
0.0
220
0.0
230
1.0
 40
0.9988851410636579
 41
2.778624004983676
 42
4.712388980384209
  0
ELLIPSE
  5
3E89
330
18
100
AcDbEntity
  8
INSULATION
100
AcDbEllipse
 10
43.83821061830595
 20
-757.2835136465666
 30
0.0
 11
-27.25404274963633
 21
0.0000000000140777
 31
0.0
210
0.0
220
0.0
230
1.0
 40
0.9988851410636574
 41
2.387869936494288
 42
3.504561302195948
  0
ELLIPSE
  5
3E8A
330
18
100
AcDbEntity
  8
INSULATION
100
AcDbEllipse
 10
16.58416786867015
 20
-675.612538636993
 30
0.0
 11
-27.25404274963623
 21
0.0000000000020713
 31
0.0
210
0.0
220
0.0
230
1.0
 40
0.9988851410636526
 41
3.921029428946081
 42
6.646153955785303
  0
LINE
  5
3E8B
330
18
100
AcDbEntity
  8
INSULATION
100
AcDbLine
 10
-252.527110404853
 20
-743.2690187867931
 30
0.0
 11
-254.1805748773626
 21
-747.6177258302867
 31
0.0
  0
ELLIPSE
  5
3E8C
330
18
100
AcDbEntity
  8
INSULATION
100
AcDbEllipse
 10
-228.7022168780528
 20
-757.2835136465666
 30
0.0
 11
27.25404274963628
 21
0.0000000000181384
 31
0.0
210
0.0
220
0.0
230
1.0
 40
0.9988851410636591
 41
4.447266854159265
 42
4.712388980384021
  0
ELLIPSE
  5
3E8D
330
18
100
AcDbEntity
  8
INSULATION
100
AcDbEllipse
 10
-228.7022168780528
 20
-757.2835136465666
 30
0.0
 11
27.25404274963628
 21
0.0000000000181384
 31
0.0
210
0.0
220
0.0
230
1.0
 40
0.9988851410636591
 41
3.847105394087435
 42
4.259805117233686
  0
LINE
  5
3E8E
330
18
100
AcDbEntity
  8
INSULATION
100
AcDbLine
 10
-591.4738927952754
 20
-730.0136041529523
 30
0.0
 11
-608.4831306226294
 21
-685.2783264532729
 31
0.0
  0
ELLIPSE
  5
3E96
330
18
100
AcDbEntity
  8
INSULATION
100
AcDbEllipse
 10
-664.7669008722276
 20
-757.2835136465666
 30
0.0
 11
-27.25404274963629
 21
0.0000000000194939
 31
0.0
210
0.0
220
0.0
230
1.0
 40
0.9988851410636584
 41
1.570796326795615
 42
3.504561302196147
  0
LINE
  5
3E97
330
18
100
AcDbEntity
  8
INSULATION
100
AcDbLine
 10
-639.2885428729178
 20
-747.6177258302867
 30
0.0
 11
-662.9912161219013
 21
-685.2783264532729
 31
0.0
  0
ELLIPSE
  5
3E98
330
18
100
AcDbEntity
  8
INSULATION
100
AcDbEllipse
 10
-637.5128581225916
 20
-675.612538636993
 30
0.0
 11
27.25404274963619
 21
0.0000000000006916
 31
0.0
210
0.0
220
0.0
230
1.0
 40
0.9988851410636542
 41
-0.362968648605668
 42
3.504561302195408
  0
LINE
  5
3E99
330
18
100
AcDbEntity
  8
INSULATION
100
AcDbLine
 10
-612.034500123282
 20
-685.2783264532729
 30
0.0
 11
-635.7371733722654
 21
-747.6177258302867
 31
0.0
  0
ELLIPSE
  5
3E9A
330
18
100
AcDbEntity
  8
INSULATION
100
AcDbEllipse
 10
-610.2588153729556
 20
-757.2835136465666
 30
0.0
 11
27.25404274963642
 21
0.0000000000259873
 31
0.0
210
0.0
220
0.0
230
1.0
 40
0.9988851410636538
 41
2.778624004983199
 42
4.712388980383733
  0
LINE
  5
3E9B
330
18
100
AcDbEntity
  8
INSULATION
100
AcDbLine
 10
-893.110599848087
 20
-707.7276373141561
 30
0.0
 11
-908.2776008686247
 21
-747.6177258302867
 31
0.0
  0
MTEXT
  5
3F9F
102
{ACAD_XDICTIONARY
360
40BD
102
}
330
18
100
AcDbEntity
  8
TXT-D
100
AcDbMText
 10
-458.1186595625438
 20
-241.6493238347057
 30
0.0
 40
28.0
 41
915.6684999999999
 71
     1
 72
     5
  1
{\C7;poplastovan\U+00E1 klipsa*\P(diagon\U+00E1ln\U+011B kladen\U+00E1)\Palternativn\U+011B: hlin\U+00EDkov\U+00E1 klipsa s termopodlo\U+017Ekou}
  7
ROMANS
 73
     1
 44
1.0
  0
TEXT
  5
3FA9
330
18
100
AcDbEntity
  8
TXT-D
 62
     7
100
AcDbText
 10
-458.1186595625438
 20
-420.3761014317833
 30
0.0
 40
28.0
  1
Kalzip
  7
ROMANS
100
AcDbText
  0
TEXT
  5
3FAA
330
18
100
AcDbEntity
  8
TXT-D
 62
     0
100
AcDbText
 10
-458.3533116391759
 20
-530.8291770500501
 30
0.0
 40
28.0
  1
parotěsná vrstva 
  7
ROMANS
100
AcDbText
  0
TEXT
  5
3FAB
330
18
100
AcDbEntity
  8
TXT-D
 62
     0
100
AcDbText
 10
-458.1186595625438
 20
-474.3693111041009
 30
0.0
 40
28.0
  1
tepelná izolace - minerální vlna
  7
ROMANS
100
AcDbText
  0
TEXT
  5
3FAC
330
18
100
AcDbEntity
  8
TXT-D
 62
     7
100
AcDbText
 10
-808.42123653581
 20
-1072.481072618805
 30
0.0
 40
28.0
  1
vazník
  7
ROMANS
100
AcDbText
  0
TEXT
  5
3FAD
330
18
100
AcDbEntity
  8
TXT-D
 62
     7
100
AcDbText
 10
-808.4212365358103
 20
-1015.923860081755
 30
0.0
 40
28.0
  1
trapézový plech
  7
ROMANS
100
AcDbText
  0
VIEWPORT
  5
27F
330
15
100
AcDbEntity
 67
     1
  8
0
100
AcDbViewport
 10
188.5279527878785
 20
127.9564553720943
 30
0.0
 40
1007.249611709106
 41
391.232860764232
 68
     1
 69
     1
 12
188.5279527878785
 22
127.9564553720943
 13
0.0
 23
0.0
 14
10.0
 24
10.0
 15
10.0
 25
10.0
 16
0.0
 26
0.0
 36
1.0
 17
0.0
 27
0.0
 37
0.0
 42
50.0
 43
0.0
 44
0.0
 45
391.232860764232
 50
0.0
 51
0.0
 72
   100
 90
    32800
  1

281
     0
 71
     1
 74
     0
110
0.0
120
0.0
130
0.0
111
1.0
121
0.0
131
0.0
112
0.0
122
1.0
132
0.0
 79
     0
146
0.0
170
     0
  0
VIEWPORT
  5
8F2
330
15
100
AcDbEntity
 67
     1
  8
Mansfen
100
AcDbViewport
 10
99.78701697551121
 20
144.7422240100861
 30
0.0
 40
190.6716324303378
 41
248.0286715940809
 68
     2
 69
     2
 12
-312.3061177947718
 22
17.52249129500755
 13
0.0
 23
0.0
 14
10.0
 24
10.0
 15
10.0
 25
10.0
 16
0.0
 26
0.0
 36
1.0
 17
0.0
 27
0.0
 37
0.0
 42
50.0
 43
0.0
 44
0.0
 45
2497.291380760973
 50
0.0
 51
0.0
 72
 20000
 90
    32768
  1

281
     0
 71
     1
 74
     0
110
0.0
120
0.0
130
0.0
111
1.0
121
0.0
131
0.0
112
0.0
122
1.0
132
0.0
 79
     0
146
0.0
170
     0
  0
LINE
  5
902
330
15
100
AcDbEntity
 67
     1
  8
V5
 62
     1
100
AcDbLine
 10
6.469724308131532
 20
20.72788821304567
 30
0.0
 11
195.12283319068
 21
20.72788821304566
 31
0.0
  0
LINE
  5
922
330
15
100
AcDbEntity
 67
     1
  8
V5
 62
     1
100
AcDbLine
 10
6.469724308131532
 20
268.7565598071266
 30
0.0
 11
195.1228331906801
 21
268.7565598071266
 31
0.0
  0
TEXT
  5
927
330
15
100
AcDbEntity
 67
     1
  8
0
 62
     7
100
AcDbText
 10
6.469724308131532
 20
278.3329563937706
 30
0.0
 40
2.872918975993215
  1
Detail skladby
  7
Stil1
100
AcDbText
  0
TEXT
  5
92B
330
15
100
AcDbEntity
 67
     1
  8
0
 62
     7
100
AcDbText
 10
178.733262931059
 20
278.3329563937706
 30
0.0
 40
2.872918975993215
  1
střecha
  7
Stil1
100
AcDbText
  0
TEXT
  5
92C
330
15
100
AcDbEntity
 67
     1
  8
0
 62
     7
100
AcDbText
 10
184.6718029461385
 20
273.7178648600298
 30
0.0
 40
2.872918975993215
  1
101
  7
Stil1
100
AcDbText
  0
TEXT
  5
92D
330
15
100
AcDbEntity
 67
     1
  8
0
 62
     7
100
AcDbText
 10
108.9352639108836
 20
278.3329563937706
 30
0.0
 40
2.872918975993215
  1
01.02.04
  7
Stil1
100
AcDbText
  0
TEXT
  5
92E
330
15
100
AcDbEntity
 67
     1
  8
0
 62
     7
100
AcDbText
 10
108.9352639108836
 20
273.7178648600298
 30
0.0
 40
2.872918975993215
  1
měř. 1:10
  7
Stil1
100
AcDbText
  0
TEXT
  5
1C35
330
15
100
AcDbEntity
 67
     1
  8
0
 62
     7
100
AcDbText
 10
6.469724308131532
 20
273.7178648600298
 30
0.0
 40
2.872918975993215
  1
Skladba střechy - vazníková střecha 
  7
Stil1
100
AcDbText
  0
LWPOLYLINE
  5
1F24
102
{ACAD_REACTORS
330
1F26
102
}
330
15
100
AcDbEntity
 67
     1
  8
0
 62
     1
100
AcDbPolyline
 90
       13
 70
     0
 43
0.0
 10
159.800270527511
 20
9.681936927861048
 10
159.800270527511
 20
13.10916637931167
 10
158.7717139959943
 20
13.10916637931167
 10
158.7717139959943
 20
6.397601519139872
 10
159.800270527511
 20
6.397601519139872
 10
159.800270527511
 20
8.297275043807779
 10
160.6043103944736
 20
9.368527505018757
 10
162.5514591954673
 20
6.397601519139875
 10
163.68894251971
 20
6.397601519139868
 10
161.2367860939421
 20
10.21119859329614
 10
163.4118864717706
 20
13.10916637931167
 10
162.2624627404482
 20
13.10916637931166
 10
159.7889932951965
 20
9.666239671360923
  0
LWPOLYLINE
  5
1F25
102
{ACAD_REACTORS
330
1F26
102
}
330
15
100
AcDbEntity
 67
     1
  8
0
 62
     1
100
AcDbPolyline
 90
       12
 70
     1
 43
0.0
 10
156.6059009001253
 20
3.332852861880724
 42
-0.4142135623730951
 10
155.6309009001253
 20
4.307852861880723
 10
155.6309009001253
 20
14.74638103057962
 42
-0.2659775848638765
 10
156.1121980820292
 20
15.58714409316263
 42
-0.2516648824931137
 10
171.0717253714799
 20
16.15394049631373
 10
170.8716803322094
 20
15.74527561861652
 42
0.2516648824931138
 10
156.3425927304741
 20
15.19478799729055
 42
0.2659775848638775
 10
156.0859009001253
 20
14.74638103057962
 10
156.0859009001253
 20
4.307852861880723
 42
0.4142135623730951
 10
156.6059009001253
 20
3.787852861880722
 10
170.9709009001253
 20
3.787852861880722
 10
170.9709009001253
 20
3.332852861880724
  0
HATCH
  5
1F26
330
15
100
AcDbEntity
 67
     1
  8
0
 62
     1
100
AcDbHatch
 10
0.0
 20
0.0
 30
0.0
210
0.0
220
0.0
230
1.0
  2
SOLID
 70
     1
 71
     1
 91
        5
 92
        7
 72
     1
 73
     1
 93
       12
 10
156.1121980820292
 20
15.58714409316263
 42
0.2659775848638745
 10
155.6309009001253
 20
14.74638103057961
 42
0.0
 10
155.6309009001253
 20
4.307852861880718
 42
0.4142135623730935
 10
156.6059009001253
 20
3.332852861880724
 42
0.0
 10
170.9709009001253
 20
3.332852861880724
 42
0.0
 10
170.9709009001253
 20
3.787852861880722
 42
0.0
 10
156.6059009001253
 20
3.787852861880722
 42
-0.4142135623730977
 10
156.0859009001253
 20
4.307852861880728
 42
0.0
 10
156.0859009001253
 20
14.74638103057959
 42
-0.2659775848638737
 10
156.3425927304741
 20
15.19478799729053
 42
-0.2516648824931143
 10
170.8716803322094
 20
15.74527561861652
 42
0.0
 10
171.0717253714799
 20
16.15394049631373
 42
0.2516648824931142
 97
        1
330
1F25
 92
       23
 72
     0
 73
     1
 93
       12
 10
159.800270527511
 20
13.10916637931167
 10
158.7717139959943
 20
13.10916637931167
 10
158.7717139959943
 20
6.397601519139872
 10
159.800270527511
 20
6.397601519139872
 10
159.800270527511
 20
8.297275043807767
 10
160.6043103944736
 20
9.368527505018757
 10
162.5514591954673
 20
6.397601519139874
 10
163.6889425197101
 20
6.397601519139868
 10
161.2367860939421
 20
10.21119859329613
 10
163.4118864717706
 20
13.10916637931167
 10
162.2624627404482
 20
13.10916637931166
 10
159.800270527511
 20
9.681936927860977
 97
        1
330
1F24
 92
       23
 72
     1
 73
     1
 93
       18
 10
164.2357678011491
 20
10.9298119326245
 42
0.0
 10
164.6193868421995
 20
10.23129501474021
 42
-0.1250890829061343
 10
165.9421619880012
 20
10.58651032233054
 42
-0.267836782250909
 10
166.7427656016719
 20
10.17948987530909
 42
-0.1602289575786653
 10
166.8664398433066
 20
9.647233194325794
 42
-0.4569276421982639
 10
166.7650033977182
 20
9.567270835411239
 42
0.0541248642832679
 10
165.9458514784635
 20
9.56484797252334
 42
0.1876748474912564
 10
164.3130414001024
 20
8.743789479199088
 42
0.1827818212654466
 10
164.0212098541297
 20
7.552121447224819
 42
0.3920539506815952
 10
165.1837010925265
 20
6.400511511813203
 42
0.0
 10
165.9069601693343
 20
6.400511511813203
 42
0.1547524270167747
 10
166.860817039998
 20
6.705871362279764
 42
-0.4453775332542486
 10
167.1777324120071
 20
6.707902747891824
 42
0.2086188919813899
 10
168.2397335095971
 20
6.39099655292931
 42
0.6162695522437575
 10
168.3273093671905
 20
6.678878812685704
 42
-0.2171983840448881
 10
167.878304282279
 20
7.697570109513664
 42
0.0
 10
167.878304282279
 20
9.763139770918213
 42
0.2771818233458192
 10
166.8867338209572
 20
11.2952873101664
 42
0.2393084470231889
 97
        1
330
1F2D
 92
       22
 72
     1
 73
     1
 93
        8
 10
165.9696416474329
 20
8.871761725605654
 42
0.0
 10
166.7316423859384
 20
8.871761725605654
 42
-0.4387538430829209
 10
166.9477028506931
 20
8.641908428641748
 42
0.0
 10
166.9477028506932
 20
7.89413730713677
 42
-0.231573802586463
 10
166.6898348265009
 20
7.336328670691965
 42
-0.2231591289142601
 10
165.4932119945864
 20
7.018046205390217
 42
-0.2451258193607781
 10
164.9592335867487
 20
7.419694483119318
 42
-0.1420187448229963
 10
164.973171918897
 20
8.240812834025424
 42
-0.2899718709829691
 97
        1
330
1F2C
 92
        7
 72
     1
 73
     1
 93
        7
 10
170.2334762911231
 20
13.3279556756151
 42
0.0
 10
169.2962929527657
 20
13.3279556756151
 42
0.0
 10
169.2962929527658
 20
7.424553143931052
 42
0.3265321329225785
 10
170.4401003281734
 20
6.39749803761409
 42
0.0
 10
171.1151549750925
 20
6.397502940925601
 42
0.0
 10
171.1151549750925
 20
7.135108027573085
 42
-0.4142135623730958
 10
170.2334762911231
 20
8.016786711542453
 42
0.0
 97
        1
330
1F2B
 75
     0
 76
     1
 47
0.2105755737740495
 98
        5
 10
168.3773645375047
 20
16.99551798079831
 10
159.336920468475
 20
11.90380063952413
 10
165.9117889385844
 20
11.02780624226045
 10
165.9117889385844
 20
11.02780624226045
 10
169.8841052672569
 20
9.029444049286276
450
        0
451
        0
460
0.0
461
0.0
452
        0
462
0.0
453
        0
470

  0
LWPOLYLINE
  5
1F27
330
15
100
AcDbEntity
 67
     1
  8
0
 62
     1
100
AcDbPolyline
 90
        2
 70
     1
 43
0.5199938194713205
 10
177.2597643428304
 20
12.78981999898152
 42
1.0
 10
177.7797581623017
 20
12.78981999898152
 42
1.0
  0
LWPOLYLINE
  5
1F28
102
{ACAD_REACTORS
330
1F2A
102
}
330
15
100
AcDbEntity
 67
     1
  8
0
 62
     1
100
AcDbPolyline
 90
        6
 70
     1
 43
0.0
 10
176.3339198933266
 20
10.52831057896668
 10
176.3339198933266
 20
11.45689393172322
 10
178.0578746904481
 20
11.45689393172322
 10
178.0578746904482
 20
6.397553369905914
 10
176.9816350228952
 20
6.397545552556053
 10
176.9816350228952
 20
10.52831057896669
  0
LWPOLYLINE
  5
1F29
102
{ACAD_REACTORS
330
1F2A
102
}
330
15
100
AcDbEntity
 67
     1
  8
0
 62
     1
100
AcDbPolyline
 90
       15
 70
     0
 43
0.0
 10
185.8559009001253
 20
13.99286026440449
 42
-0.4142135623730951
 10
186.8309009001253
 20
13.01786026440449
 10
186.8309009001253
 20
4.307852861880723
 42
-0.4142135623730951
 10
185.8559009001253
 20
3.332852861880724
 10
171.6209009001253
 20
3.332852861880724
 10
171.6209009001253
 20
3.787852861880722
 10
185.8559009001253
 20
3.787852861880722
 42
0.4142135623730951
 10
186.3759009001253
 20
4.307852861880723
 10
186.3759009001253
 20
13.01786026440449
 42
0.4142135623730951
 10
185.8559009001253
 20
13.53786026440449
 10
183.1934963272279
 20
13.53786026440449
 42
-0.0829624126767354
 10
171.5518778510457
 20
15.41468457223837
 10
171.6973302762558
 20
15.84580937087617
 42
0.0829624126767356
 10
183.1909009001253
 20
13.9928528618807
 10
185.859700224612
 20
13.99285286188072
  0
HATCH
  5
1F2A
330
15
100
AcDbEntity
 67
     1
  8
0
 62
     1
100
AcDbHatch
 10
0.0
 20
0.0
 30
0.0
210
0.0
220
0.0
230
1.0
  2
SOLID
 70
     1
 71
     1
 91
        9
 92
       23
 72
     1
 73
     1
 93
       12
 10
171.6566164756959
 20
11.46510224392836
 42
0.0
 10
171.6566164756959
 20
10.50549580339317
 42
0.0
 10
174.1785510282606
 20
10.50549580339317
 42
-0.7299518516203806
 10
174.2530565739012
 20
10.3662631794759
 42
0.0
 10
171.5827228827775
 20
6.710463853297164
 42
0.5071802274159938
 10
171.735479095974
 20
6.397507446697961
 42
0.0
 10
175.8912963853736
 20
6.397537632797238
 42
0.0
 10
175.8912963853736
 20
7.360761630117271
 42
0.0
 10
173.3094950398309
 20
7.360761630117272
 42
-0.6989832493954995
 10
173.2740442461577
 20
7.437414292741833
 42
0.0
 10
175.845015543192
 20
10.99107983431605
 42
0.0
 10
175.845015543192
 20
11.46510224392835
 42
0.0
 97
        1
330
1F2E
 92
       23
 72
     0
 73
     1
 93
        6
 10
178.0578746904481
 20
11.45689393172322
 10
176.3339198933266
 20
11.45689393172322
 10
176.3339198933265
 20
10.52831057896668
 10
176.9816350228952
 20
10.52831057896669
 10
176.9816350228952
 20
6.397545552556052
 10
178.0578746904482
 20
6.397553369905914
 97
        1
330
1F28
 92
       23
 72
     1
 73
     1
 93
       12
 10
179.2834680859738
 20
4.489950259380134
 42
0.0
 10
180.4404845671969
 20
4.489950259380133
 42
0.0
 10
180.4404845671969
 20
6.407937422321626
 42
-0.564020014537643
 10
180.5553931356037
 20
6.494477403964591
 42
0.1631429899312781
 10
182.2777324741337
 20
6.396145546546192
 42
0.2143211476370291
 10
183.6230359173123
 20
7.808355241465149
 42
0.1454787830754401
 10
183.6584362625791
 20
10.14304763188928
 42
0.2090289609908675
 10
182.5092601646716
 20
11.40610558416121
 42
0.2333951007178159
 10
180.5453982137755
 20
11.33094833984734
 42
0.0
 10
180.4181879234111
 20
11.33094833984733
 42
0.0
 10
180.4181879234111
 20
11.46845534982765
 42
0.0
 10
179.2834680859739
 20
11.46845534982765
 42
0.0
 97
        1
330
1F30
 92
       22
 72
     1
 73
     1
 93
        7
 10
180.4181879234111
 20
10.33949870462521
 42
-0.2989352106795097
 10
182.1296529870908
 20
10.50388986460632
 42
-0.1898212309735409
 10
182.7034918692828
 20
9.623322110476919
 42
-0.0659282931228754
 10
182.7040000793262
 20
8.256350388311652
 42
-0.1241286129053254
 10
182.3570315341902
 20
7.656488866884544
 42
-0.0600684322456203
 10
181.9666021695323
 20
7.356657677220885
 42
-0.2741033349168366
 10
180.4181879234111
 20
7.427606589800799
 42
0.0
 97
        1
330
1F2F
 92
        7
 72
     1
 73
     1
 93
       14
 10
185.859700224612
 20
13.99285286188072
 42
0.0
 10
183.1909009001232
 20
13.9928528618807
 42
-0.0829624126767202
 10
171.6973302762558
 20
15.84580937087617
 42
0.0
 10
171.5518778510457
 20
15.41468457223837
 42
0.0829624126767251
 10
183.1934963272264
 20
13.53786026440449
 42
0.0
 10
185.8559009001253
 20
13.53786026440449
 42
-0.4142135623730971
 10
186.3759009001253
 20
13.01786026440449
 42
0.0
 10
186.3759009001253
 20
4.307852861880728
 42
-0.4142135623730977
 10
185.8559009001253
 20
3.787852861880722
 42
0.0
 10
171.6209009001253
 20
3.787852861880722
 42
0.0
 10
171.6209009001253
 20
3.332852861880724
 42
0.0
 10
185.8559009001253
 20
3.332852861880724
 42
0.4142135623730997
 10
186.8309009001253
 20
4.307852861880738
 42
0.0
 10
186.8309009001253
 20
13.0178602644045
 42
0.4130726898721487
 97
        1
330
1F29
 92
        7
 72
     1
 73
     1
 93
        2
 10
188.3219768383339
 20
15.1722238261813
 42
1.0
 10
186.6580166356861
 20
15.1722238261813
 42
1.0
 97
        1
330
1F35
 92
       22
 72
     1
 73
     1
 93
        2
 10
186.7969744944294
 20
15.1722238261813
 42
-1.0
 10
188.1830189795906
 20
15.1722238261813
 42
-1.0
 97
        1
330
1F33
 92
        6
 72
     1
 73
     1
 93
       16
 10
187.1804467670766
 20
14.73363756634286
 42
0.0
 10
187.1804467670766
 20
15.56704569263319
 42
-0.4302925980981736
 10
187.251491054191
 20
15.64081864758153
 42
0.0
 10
187.5174229819317
 20
15.64081864758153
 42
-0.1568897140508004
 10
187.7919458453604
 20
15.57364674733607
 42
-0.3153417755023655
 10
187.8665388171578
 20
15.42795869313449
 42
0.0
 10
187.8665388171578
 20
15.2348040671175
 42
-0.1080222927165122
 10
187.8124776296571
 20
15.11431035938574
 42
-0.0878146924641181
 10
187.8665388171578
 20
14.98204746107886
 42
0.0
 10
187.8665388171577
 20
14.73363756634299
 42
0.0
 10
187.7256242795365
 20
14.73363756634299
 42
0.0
 10
187.7256242795365
 20
14.89765507736412
 42
0.3344300509710908
 10
187.5729470687523
 20
15.03141457194853
 42
0.0
 10
187.4422685868056
 20
15.03141457194853
 42
0.3320036502385211
 10
187.3398419427228
 20
14.91110551755848
 42
0.0
 10
187.3398419427228
 20
14.73363756634299
 42
0.0
 97
        1
330
1F32
 92
        6
 72
     1
 73
     1
 93
       10
 10
187.3643254856119
 20
15.2959411051848
 42
0.0
 10
187.3643254856118
 20
15.39654977484802
 42
-0.4700313181867731
 10
187.4421640999598
 20
15.478830631982
 42
0.0
 10
187.5255132518958
 20
15.478830631982
 42
-0.3239396334643629
 10
187.6662543992564
 20
15.41939596272205
 42
-0.1629090778550143
 10
187.684426266594
 20
15.35278313970706
 42
0.0
 10
187.684426266594
 20
15.26639117219038
 42
-0.2807969914256643
 10
187.6632495853466
 20
15.23111454898903
 42
-0.1413133624006426
 10
187.5828640428672
 20
15.20947334041117
 42
0.0
 10
187.4543382446402
 20
15.20947334041117
 42
-0.4644547038390189
 97
        1
330
1F31
 75
     0
 76
     1
 47
0.2105755736759934
 98
        9
 10
174.7366290675943
 20
10.97026192174259
 10
177.5857387070268
 20
10.39539060369501
 10
179.8595473630617
 20
10.53226475061325
 10
179.8595473630617
 20
10.53226475061325
 10
186.5166016658363
 20
13.48874580700005
 10
187.1466932043438
 20
14.47423945579229
 10
187.1466932043438
 20
14.47423945579229
 10
187.1466932043438
 20
14.47423945579229
 10
187.1466932043438
 20
14.47423945579229
450
        0
451
        0
460
0.0
461
0.0
452
        0
462
0.0
453
        0
470

  0
LWPOLYLINE
  5
1F2B
102
{ACAD_REACTORS
330
1F26
102
}
330
15
100
AcDbEntity
 67
     1
  8
0
 62
     1
100
AcDbPolyline
 90
        7
 70
     1
 43
0.0
 10
170.2334762911231
 20
13.3279556756151
 10
169.2962929527657
 20
13.32795567561509
 10
169.2962929527658
 20
7.424553143931023
 42
0.3265321329225733
 10
170.4401003281734
 20
6.39749803761409
 10
171.1151549750925
 20
6.397502940925601
 10
171.1151549750925
 20
7.135108027573085
 42
-0.4142135623730951
 10
170.2334762911231
 20
8.016786711542451
  0
LWPOLYLINE
  5
1F2C
102
{ACAD_REACTORS
330
1F26
102
}
330
15
100
AcDbEntity
 67
     1
  8
0
 62
     1
100
AcDbPolyline
 90
        8
 70
     1
 43
0.0
 10
165.4932119945859
 20
7.018046205390295
 42
-0.2451258193606399
 10
164.9592335867486
 20
7.419694483119407
 42
-0.1420187448230164
 10
164.9731719188971
 20
8.240812834025623
 42
-0.2899718709829171
 10
165.9696416474329
 20
8.871761725605654
 10
166.7361885745907
 20
8.871761725605654
 42
-0.3900918559591556
 10
166.9477028506931
 20
8.672939810059801
 10
166.9477028506932
 20
7.863243807331706
 42
-0.2034436104283782
 10
166.7232255026607
 20
7.365277278823075
 42
-0.2311376311759479
  0
LWPOLYLINE
  5
1F2D
102
{ACAD_REACTORS
330
1F26
102
}
330
15
100
AcDbEntity
 67
     1
  8
0
 62
     1
100
AcDbPolyline
 90
       18
 70
     1
 43
0.0
 10
166.8664398433066
 20
9.647233194325998
 42
0.1602289575782981
 10
166.7427656016724
 20
10.1794898753082
 42
0.2678367822512051
 10
165.9421619880012
 20
10.58651032233054
 42
0.1250890829061368
 10
164.6193868421995
 20
10.23129501474021
 10
164.2357678011491
 20
10.9298119326245
 42
-0.2393084470231862
 10
166.8867338209572
 20
11.29528731016641
 42
-0.2771818233458632
 10
167.878304282279
 20
9.763139770917941
 10
167.878304282279
 20
7.6637461954118
 42
0.2106080285028759
 10
168.3273093671902
 20
6.678878812685951
 42
-0.655875337136226
 10
168.2208706145264
 20
6.388827352266204
 42
-0.2140955845208337
 10
167.1415677997452
 20
6.739536304055427
 42
0.3793030021024653
 10
166.860817039998
 20
6.705871362279697
 42
-0.1547524270167758
 10
165.9069601693342
 20
6.400511511813203
 10
165.1837010925265
 20
6.400511511813203
 42
-0.3920539506815679
 10
164.0212098541297
 20
7.552121447224729
 42
-0.1827818212654531
 10
164.3130414001024
 20
8.743789479199055
 42
-0.1876748474912757
 10
165.9458514784637
 20
9.564847972523356
 42
-0.0541248642832585
 10
166.7650033977182
 20
9.567270835411239
 42
0.4569276421989473
  0
LWPOLYLINE
  5
1F2E
102
{ACAD_REACTORS
330
1F2A
102
}
330
15
100
AcDbEntity
 67
     1
  8
0
 62
     1
100
AcDbPolyline
 90
       13
 70
     0
 43
0.0
 10
173.3020863273005
 20
7.360761630117272
 10
175.8912963853736
 20
7.360761630117272
 10
175.8912963853736
 20
6.397537632797238
 10
171.735479095974
 20
6.397507446697961
 42
-0.5071802274160878
 10
171.5827228827775
 20
6.710463853297234
 10
174.2665955523432
 20
10.38479861136958
 42
0.5083225216873333
 10
174.2085020284546
 20
10.50549580339317
 10
171.6566164756959
 20
10.50549580339317
 10
171.6566164756959
 20
11.46510224392836
 10
175.845015543192
 20
11.46510224392835
 10
175.845015543192
 20
10.99107983431609
 10
173.2656155016102
 20
7.425763855768082
 42
0.5855768765223777
 10
173.3094950398309
 20
7.360761630117272
  0
LWPOLYLINE
  5
1F2F
102
{ACAD_REACTORS
330
1F2A
102
}
330
15
100
AcDbEntity
 67
     1
  8
0
 62
     1
100
AcDbPolyline
 90
        7
 70
     1
 43
0.0
 10
182.7034918692828
 20
9.623322110476962
 42
0.1898212309735227
 10
182.1296529870909
 20
10.50388986460628
 42
0.2989352106795207
 10
180.4181879234111
 20
10.33949870462521
 10
180.4181879234111
 20
7.427606589800797
 42
0.2741033349168594
 10
181.9666021695324
 20
7.35665767722094
 42
0.0600684322456349
 10
182.3570315341904
 20
7.656488866884719
 42
0.1241286129052769
 10
182.7040000793262
 20
8.256350388311624
 42
0.0659282931228788
  0
LWPOLYLINE
  5
1F30
102
{ACAD_REACTORS
330
1F2A
102
}
330
15
100
AcDbEntity
 67
     1
  8
0
 62
     1
100
AcDbPolyline
 90
       12
 70
     1
 43
0.0
 10
180.4181879234111
 20
11.33094833984733
 10
180.4181879234111
 20
11.46845534982765
 10
179.2834680859739
 20
11.46845534982765
 10
179.2834680859739
 20
4.489950259380133
 10
180.4404845671969
 20
4.489950259380133
 10
180.4404845671969
 20
6.425017086827082
 42
-0.4980732597277929
 10
180.5552228457295
 20
6.494545518751699
 42
0.1631603344019285
 10
182.2777324741337
 20
6.39614554654619
 42
0.2143211476370474
 10
183.6230359173124
 20
7.808355241465303
 42
0.1454787830754339
 10
183.6584362625791
 20
10.14304763188934
 42
0.209028960994081
 10
182.5092601646476
 20
11.40610558417194
 42
0.2333951007146881
 10
180.5453982137755
 20
11.33094833984734
  0
LWPOLYLINE
  5
1F31
102
{ACAD_REACTORS
330
1F2A
330
1F34
102
}
330
15
100
AcDbEntity
 67
     1
  8
0
 62
     1
100
AcDbPolyline
 90
       10
 70
     1
 43
0.0
 10
187.6662543992565
 20
15.41939596272184
 42
0.2024912017590097
 10
187.5841437609705
 20
15.478830631982
 10
187.4325151901677
 20
15.478830631982
 42
0.3605152320615398
 10
187.3643254856118
 20
15.41432240612822
 10
187.3643254856119
 20
15.28547146317518
 42
0.3656960469701174
 10
187.4373305559301
 20
15.20947334041117
 10
187.5882069820494
 20
15.20947334041117
 42
0.143350963341212
 10
187.6687736308472
 20
15.23462054730057
 42
0.2365834905846161
 10
187.684426266594
 20
15.2663911721883
 10
187.684426266594
 20
15.36510310899481
 42
0.133951748517549
  0
LWPOLYLINE
  5
1F32
102
{ACAD_REACTORS
330
1F2A
330
1F34
102
}
330
15
100
AcDbEntity
 67
     1
  8
0
 62
     1
100
AcDbPolyline
 90
       17
 70
     0
 43
0.0
 10
187.1804467670766
 20
15.57355010122799
 10
187.1804467670766
 20
14.73363756634298
 10
187.3398419427228
 20
14.73363756634299
 10
187.3398419427228
 20
14.91110551755867
 42
-0.3320036502381971
 10
187.4422685868056
 20
15.03141457194853
 10
187.5729470687523
 20
15.03141457194853
 42
-0.3344300509710546
 10
187.7256242795365
 20
14.89765507736415
 10
187.7256242795365
 20
14.73363756634299
 10
187.8665388171578
 20
14.73363756634298
 10
187.8665388171578
 20
14.98204746107884
 42
0.0878146924641325
 10
187.8124776296571
 20
15.11431035938575
 42
0.1080222927165679
 10
187.8665388171578
 20
15.23480406711759
 10
187.8665388171578
 20
15.46713467151183
 42
0.2411188226969047
 10
187.7919458453605
 20
15.57364674733602
 42
0.1568897140508559
 10
187.5174229819317
 20
15.64081864758153
 10
187.2502989626727
 20
15.64081864758153
 42
0.4252932903388871
 10
187.1804467670766
 20
15.5670456926342
  0
CIRCLE
  5
1F33
102
{ACAD_REACTORS
330
1F2A
102
}
330
15
100
AcDbEntity
 67
     1
  8
0
 62
     1
100
AcDbCircle
 10
187.48999673701
 20
15.1722238261813
 30
0.0
 40
0.6930222425806165
  0
HATCH
  5
1F34
330
15
100
AcDbEntity
 67
     1
  8
0
 62
     1
100
AcDbHatch
 10
0.0
 20
0.0
 30
0.0
210
0.0
220
0.0
230
1.0
  2
SOLID
 70
     1
 71
     1
 91
        2
 92
        7
 72
     1
 73
     1
 93
       16
 10
187.7256242795365
 20
14.89765507736412
 42
0.0
 10
187.7256242795365
 20
14.73363756634299
 42
0.0
 10
187.8665388171578
 20
14.73363756634299
 42
0.0
 10
187.8665388171578
 20
14.98204746107887
 42
0.0878146924641104
 10
187.8124776296571
 20
15.11431035938575
 42
0.1080222927165595
 10
187.8665388171578
 20
15.23480406711759
 42
0.0
 10
187.8665388171578
 20
15.4671346715119
 42
0.192215680109946
 10
187.8142052820495
 20
15.55906135573319
 42
0.171699417140815
 10
187.5174229819317
 20
15.64081864758153
 42
0.0
 10
187.2502989626727
 20
15.64081864758153
 42
0.3983152836414639
 10
187.1804467670766
 20
15.57355010122913
 42
0.0
 10
187.1804467670766
 20
14.73363756634298
 42
0.0
 10
187.3398419427228
 20
14.73363756634299
 42
0.0
 10
187.3398419427228
 20
14.89416228369594
 42
-0.5014973867698699
 10
187.5010567629519
 20
15.03141457194853
 42
0.0
 10
187.5480096039234
 20
15.03141457194853
 42
-0.3760883100637777
 97
        1
330
1F32
 92
       22
 72
     1
 73
     1
 93
        2
 10
187.5828640428672
 20
15.20947334041117
 42
0.008892798644809
 10
187.5882069820493
 20
15.20947334041117
 42
0.0
 97
        1
330
1F31
 75
     0
 76
     1
 47
0.025620434889365
 98
        2
 10
187.6662846229588
 20
15.13317548685421
 10
187.6662846229588
 20
15.13317548685421
450
        0
451
        0
460
0.0
461
0.0
452
        0
462
0.0
453
        0
470

  0
CIRCLE
  5
1F35
102
{ACAD_REACTORS
330
1F2A
102
}
330
15
100
AcDbEntity
 67
     1
  8
0
 62
     1
100
AcDbCircle
 10
187.48999673701
 20
15.1722238261813
 30
0.0
 40
0.8319801013239141
  0
MTEXT
  5
3AF8
102
{ACAD_XDICTIONARY
360
4084
102
}
330
15
100
AcDbEntity
 67
     1
  8
TXT-D
100
AcDbMText
 10
6.469724308131485
 20
18.38492919084655
 30
0.0
 40
2.8
 41
106.1716
 71
     1
 72
     5
  1
{\C7;* Poplastovan\U+00E9 klipsy nejsou vyr\U+00E1b\U+011Bny ve v\U+0161ech rozm\U+011Brech}
  7
ROMANS
 73
     1
 44
1.0
  0
ENDSEC
  0
SECTION
  2
OBJECTS
  0
DICTIONARY
  5
C
330
0
100
AcDbDictionary
281
     1
  3
ACAD_CIP_PREVIOUS_PRODUCT_INFO
350
3F75
  3
ACAD_COLOR
350
3F55
  3
ACAD_DETAILVIEWSTYLE
350
3F6F
  3
ACAD_GROUP
350
D
  3
ACAD_IMAGE_DICT
350
6C4
  3
ACAD_IMAGE_VARS
350
6C5
  3
ACAD_LAYOUT
350
5E9
  3
ACAD_MATERIAL
350
3F23
  3
ACAD_MLEADERSTYLE
350
3F6A
  3
ACAD_MLINESTYLE
350
1B
  3
ACAD_PLOTSETTINGS
350
5EA
  3
ACAD_PLOTSTYLENAME
350
5E7
  3
ACAD_SCALELIST
350
3F58
  3
ACAD_SECTIONVIEWSTYLE
350
3F6C
  3
ACAD_TABLESTYLE
350
3F56
  3
ACAD_VISUALSTYLE
350
3F3C
  3
ACDB_RECOMPOSE_DATA
350
4079
  3
AcDbVariableDictionary
350
7F0
  3
AcDsDecomposeData
350
407F
  3
ASE_INDEX_DICTIONARY
350
3B44
  0
DICTIONARY
  5
3F7A
330
2
100
AcDbDictionary
280
     1
281
     1
  3
ACAD_LAYERSTATES
360
3F7B
  0
DICTIONARY
  5
3F7F
330
E
100
AcDbDictionary
280
     1
281
     1
  3
ADSK_XREC_LAYER_RECONCILED
360
3F80
  0
DICTIONARY
  5
3F81
330
B7
100
AcDbDictionary
280
     1
281
     1
  3
ADSK_XREC_LAYER_RECONCILED
360
3F82
  0
DICTIONARY
  5
3F83
330
8F4
100
AcDbDictionary
280
     1
281
     1
  3
ADSK_XREC_LAYER_RECONCILED
360
3F84
  0
DICTIONARY
  5
3F85
330
11FF
100
AcDbDictionary
280
     1
281
     1
  3
ADSK_XREC_LAYER_RECONCILED
360
3F86
  0
DICTIONARY
  5
3F87
330
1200
100
AcDbDictionary
280
     1
281
     1
  3
ADSK_XREC_LAYER_RECONCILED
360
3F88
  0
DICTIONARY
  5
3F89
330
1201
100
AcDbDictionary
280
     1
281
     1
  3
ADSK_XREC_LAYER_RECONCILED
360
3F8A
  0
DICTIONARY
  5
3F8B
330
1202
100
AcDbDictionary
280
     1
281
     1
  3
ADSK_XREC_LAYER_RECONCILED
360
3F8C
  0
DICTIONARY
  5
3F8D
330
1207
100
AcDbDictionary
280
     1
281
     1
  3
ADSK_XREC_LAYER_RECONCILED
360
3F8E
  0
DICTIONARY
  5
3F8F
330
1C60
100
AcDbDictionary
280
     1
281
     1
  3
ADSK_XREC_LAYER_RECONCILED
360
3F90
  0
DICTIONARY
  5
81C
330
18
100
AcDbDictionary
280
     1
281
     1
  3
ACAD_LAYOUTSELFREF
360
19BA
  0
DICTIONARY
  5
81A
330
15
100
AcDbDictionary
280
     1
281
     1
  3
ACAD_LAYOUTSELFREF
360
19B9
  0
DICTIONARY
  5
4082
330
3269
100
AcDbDictionary
280
     1
281
     1
  3
ACAD_MTEXT_2008_RT
360
4083
  0
DICTIONARY
  5
40BD
330
3F9F
100
AcDbDictionary
280
     1
281
     1
  3
ACAD_MTEXT_2008_RT
360
40BE
  0
DICTIONARY
  5
4084
330
3AF8
100
AcDbDictionary
280
     1
281
     1
  3
ACAD_MTEXT_2008_RT
360
4085
  0
XRECORD
  5
3F75
102
{ACAD_REACTORS
330
C
102
}
330
C
100
AcDbXrecord
280
     1
300
ACD
300
2013
300
ACD_F_S
  0
DICTIONARY
  5
3F55
102
{ACAD_REACTORS
330
C
102
}
330
C
100
AcDbDictionary
281
     1
  0
DICTIONARY
  5
3F6F
102
{ACAD_REACTORS
330
C
102
}
330
C
100
AcDbDictionary
281
     1
  3
Imperial24
350
3F70
  0
DICTIONARY
  5
D
102
{ACAD_REACTORS
330
C
102
}
330
C
100
AcDbDictionary
281
     1
  0
DICTIONARY
  5
6C4
102
{ACAD_REACTORS
330
C
102
}
330
C
100
AcDbDictionary
281
     1
  3
Kalzip
350
6C6
  0
RASTERVARIABLES
  5
6C5
102
{ACAD_REACTORS
330
C
102
}
330
C
100
AcDbRasterVariables
 90
        0
 70
     1
 71
     1
 72
     0
  0
DICTIONARY
  5
5E9
102
{ACAD_REACTORS
330
C
102
}
330
C
100
AcDbDictionary
281
     1
  3
Layout A4
350
5EC
  3
Model
350
5EB
  0
DICTIONARY
  5
3F23
102
{ACAD_REACTORS
330
C
102
}
330
C
100
AcDbDictionary
281
     1
  3
ByBlock
350
3F2C
  3
ByLayer
350
3F24
  3
Global
350
3F34
  0
DICTIONARY
  5
3F6A
102
{ACAD_REACTORS
330
C
102
}
330
C
100
AcDbDictionary
281
     1
  3
Standard
350
3F6B
  0
DICTIONARY
  5
1B
102
{ACAD_REACTORS
330
C
102
}
330
C
100
AcDbDictionary
281
     1
  3
STANDARD
350
1C
  0
DICTIONARY
  5
5EA
102
{ACAD_REACTORS
330
C
102
}
330
C
100
AcDbDictionary
281
     1
  0
ACDBDICTIONARYWDFLT
  5
5E7
102
{ACAD_REACTORS
330
C
102
}
330
C
100
AcDbDictionary
281
     1
  3
Normal
350
5E8
100
AcDbDictionaryWithDefault
340
5E8
  0
DICTIONARY
  5
3F58
102
{ACAD_REACTORS
330
C
102
}
330
C
100
AcDbDictionary
281
     1
  3
A0
350
3F59
  3
A1
350
3F5A
  3
A2
350
3F5B
  3
A3
350
3F5C
  3
A4
350
3F5D
  3
A5
350
3F5E
  3
A6
350
3F5F
  3
A7
350
3F60
  3
A8
350
3F61
  3
A9
350
3F62
  3
B0
350
3F63
  3
B1
350
3F64
  3
B2
350
3F65
  3
B3
350
3F66
  3
B4
350
3F67
  3
B5
350
3F68
  3
B6
350
3F69
  0
DICTIONARY
  5
3F6C
102
{ACAD_REACTORS
330
C
102
}
330
C
100
AcDbDictionary
281
     1
  3
Imperial24
350
3F6E
  0
DICTIONARY
  5
3F56
102
{ACAD_REACTORS
330
C
102
}
330
C
100
AcDbDictionary
281
     1
  3
Standard
350
3F57
  0
DICTIONARY
  5
3F3C
102
{ACAD_REACTORS
330
C
102
}
330
C
100
AcDbDictionary
281
     1
  3
2dWireframe
350
3F42
  3
Basic
350
3F41
  3
Brighten
350
3F48
  3
ColorChange
350
3F4C
  3
Conceptual
350
3F45
  3
Dim
350
3F47
  3
EdgeColorOff
350
3F54
  3
Facepattern
350
3F4B
  3
Flat
350
3F3D
  3
FlatWithEdges
350
3F3E
  3
Gouraud
350
3F3F
  3
GouraudWithEdges
350
3F40
  3
Hidden
350
3F44
  3
JitterOff
350
3F52
  3
Linepattern
350
3F4A
  3
OverhangOff
350
3F53
  3
Realistic
350
3F46
  3
Shaded
350
3F51
  3
Shaded with edges
350
3F50
  3
Shades of Gray
350
3F4D
  3
Sketchy
350
3F4E
  3
Thicken
350
3F49
  3
Wireframe
350
3F43
  3
X-Ray
350
3F4F
  0
XRECORD
  5
4079
102
{ACAD_REACTORS
330
C
102
}
330
C
100
AcDbXrecord
280
     1
 90
        1
330
3F57
  0
DICTIONARY
  5
7F0
102
{ACAD_REACTORS
330
C
102
}
330
C
100
AcDbDictionary
281
     1
  3
CANNOSCALE
350
3FDA
  3
CMLEADERSTYLE
350
3FD6
  3
CTABLESTYLE
350
3FD5
  3
CVIEWDETAILSTYLE
350
3FD7
  3
CVIEWSECTIONSTYLE
350
3FD8
  3
DIMASSOC
350
1C46
  3
LAYEREVAL
350
3FDC
  3
LAYERNOTIFY
350
3FDD
  3
LIGHTINGUNITS
350
3FDB
  3
MSLTSCALE
350
3FD9
  3
SORTENTS
350
7F1
  3
XCLIPFRAME
350
4076
  0
DICTIONARY
  5
407F
102
{ACAD_REACTORS
330
C
102
}
330
C
100
AcDbDictionary
281
     1
  3
AcDsRecords
350
4081
  3
AcDsSchemas
350
4080
1001
ACAD
1070
     2
  0
DICTIONARY
  5
3B44
102
{ACAD_REACTORS
330
C
102
}
330
C
100
AcDbDictionary
281
     1
  3
ASEBlockHierarchyIndexRecord
350
3B46
1001
DCO15
1040
1464599465.897
  0
DICTIONARY
  5
3F7B
102
{ACAD_REACTORS
330
3F7A
102
}
330
3F7A
100
AcDbDictionary
281
     1
  0
XRECORD
  5
3F80
102
{ACAD_REACTORS
330
3F7F
102
}
330
3F7F
100
AcDbXrecord
280
     1
290
     1
  0
XRECORD
  5
3F82
102
{ACAD_REACTORS
330
3F81
102
}
330
3F81
100
AcDbXrecord
280
     1
290
     1
  0
XRECORD
  5
3F84
102
{ACAD_REACTORS
330
3F83
102
}
330
3F83
100
AcDbXrecord
280
     1
290
     1
  0
XRECORD
  5
3F86
102
{ACAD_REACTORS
330
3F85
102
}
330
3F85
100
AcDbXrecord
280
     1
290
     1
  0
XRECORD
  5
3F88
102
{ACAD_REACTORS
330
3F87
102
}
330
3F87
100
AcDbXrecord
280
     1
290
     1
  0
XRECORD
  5
3F8A
102
{ACAD_REACTORS
330
3F89
102
}
330
3F89
100
AcDbXrecord
280
     1
290
     1
  0
XRECORD
  5
3F8C
102
{ACAD_REACTORS
330
3F8B
102
}
330
3F8B
100
AcDbXrecord
280
     1
290
     1
  0
XRECORD
  5
3F8E
102
{ACAD_REACTORS
330
3F8D
102
}
330
3F8D
100
AcDbXrecord
280
     1
290
     1
  0
XRECORD
  5
3F90
102
{ACAD_REACTORS
330
3F8F
102
}
330
3F8F
100
AcDbXrecord
280
     1
290
     1
  0
XRECORD
  5
19BA
102
{ACAD_REACTORS
330
81C
102
}
330
81C
100
AcDbXrecord
280
     1
340
18
  0
XRECORD
  5
19B9
102
{ACAD_REACTORS
330
81A
102
}
330
81A
100
AcDbXrecord
280
     1
340
15
  0
XRECORD
  5
4083
102
{ACAD_REACTORS
330
4082
102
}
330
4082
100
AcDbXrecord
280
     1
 40
889914.0
  1
{\C7;poplastovaná klipsa*\P(diagonálně kladená)\Palternativně: hliníková klipsa s termopodložkou}
  0
XRECORD
  5
40BE
102
{ACAD_REACTORS
330
40BD
102
}
330
40BD
100
AcDbXrecord
280
     1
 40
889914.0
  1
{\C7;poplastovaná klipsa*\P(diagonálně kladená)\Palternativně: hliníková klipsa s termopodložkou}
  0
XRECORD
  5
4085
102
{ACAD_REACTORS
330
4084
102
}
330
4084
100
AcDbXrecord
280
     1
 40
350889.0
  1
{\C7;* Poplastované klipsy nejsou vyráběny ve všech rozměrech}
  0
ACDBDETAILVIEWSTYLE
  5
3F70
102
{ACAD_REACTORS
330
3F6F
102
}
330
3F6F
100
AcDbModelDocViewStyle
 70
     0
  3
Imperial24
290
     0
100
AcDbDetailViewStyle
 70
     0
 71
     0
 90
        3
 71
     1
340
F
 62
   256
 40
0.24
340
0
 62
   256
 40
0.24
300

 40
0.36
280
     3
 71
     2
340
14
 90
       25
 62
   256
 71
     3
340
F
 62
   256
 40
0.24
 90
        1
 40
0.75
 90
        1
300
%<\AcVar ViewType \f "%tc1">% %<\AcVar ViewDetailId>%\PMĚŘÍTKO %<\AcVar ViewScale \f "%sn">%
 71
     4
340
14
 90
       25
 62
   256
340
14
 90
       25
 62
   256
280
     0
  0
IMAGEDEF
  5
6C6
102
{ACAD_REACTORS
330
6C4
102
}
330
6C4
100
AcDbRasterImageDef
 90
        0
  1
C:\Kalzip.pcx
 10
944.0
 20
1927.0
 11
0.0010593220338983
 21
0.0010593220338983
280
     1
281
     0
  0
LAYOUT
  5
5EC
102
{ACAD_REACTORS
330
5E9
102
}
330
5E9
100
AcDbPlotSettings
  1

  2
Brother HL-760
  4
A4
  6

 40
6.043083
 41
6.762742
 42
7.736419999999999
 43
5.027069
 44
209.973328
 45
296.968323
 46
0.0
 47
0.0
 48
0.0
 49
0.0
140
210.0
141
297.0
142
1.0
143
1.0
 70
   688
 72
     1
 73
     0
 74
     5
  7
CORUS_Mono.ctb
 75
    16
147
1.0
 76
     0
 77
     2
 78
   300
148
0.0
149
0.0
100
AcDbLayout
  1
Layout A4
 70
     0
 71
     1
 10
-6.043083
 20
-6.762742
 11
203.930245
 21
290.205581
 12
0.0
 22
0.0
 32
0.0
 14
4.451200760342317
 24
3.332852861880712
 34
0.0
 15
195.1228331906801
 25
281.9662386458112
 35
0.0
146
0.0
 13
0.0
 23
0.0
 33
0.0
 16
1.0
 26
0.0
 36
0.0
 17
0.0
 27
1.0
 37
0.0
 76
     0
330
15
331
27F
  0
LAYOUT
  5
5EB
102
{ACAD_REACTORS
330
5E9
102
}
330
5E9
100
AcDbPlotSettings
  1

  2
Brother HL-760
  4
A4
  6

 40
6.043083190917968
 41
6.762742042541503
 42
7.736419677734375
 43
5.027069091796875
 44
209.9733276367187
 45
296.9683227539062
 46
0.0
 47
0.0
 48
6111.589647590677
 49
6203.907329328606
140
19710.20725140714
141
12387.18751198762
142
1.0
143
47.68458018308622
 70
 11952
 72
     1
 73
     1
 74
     4
  7
CORUS_Mono.ctb
 75
     0
147
0.0209711398561228
 76
     0
 77
     2
 78
   300
148
-6111.589647590677
149
-6203.907329328606
100
AcDbLayout
  1
Model
 70
     1
 71
     0
 10
0.0
 20
0.0
 11
12.0
 21
9.0
 12
0.0
 22
0.0
 32
0.0
 14
0.0
 24
0.0
 34
0.0
 15
0.0
 25
0.0
 35
0.0
146
0.0
 13
0.0
 23
0.0
 33
0.0
 16
1.0
 26
0.0
 36
0.0
 17
0.0
 27
1.0
 37
0.0
 76
     0
330
18
331
3F21
  0
MATERIAL
  5
3F2C
102
{ACAD_XDICTIONARY
360
3F2D
102
}
102
{ACAD_REACTORS
330
3F23
102
}
330
3F23
100
AcDbMaterial
  1
ByBlock
 72
     0
 43
0.0208333333333333
 43
0.0
 43
0.0
 43
0.0
 43
0.0
 43
0.0208333333333333
 43
0.0
 43
0.0
 43
0.0
 43
0.0
 43
1.0
 43
0.0
 43
0.0
 43
0.0
 43
0.0
 43
1.0
 77
     0
 47
0.0208333333333333
 47
0.0
 47
0.0
 47
0.0
 47
0.0
 47
0.0208333333333333
 47
0.0
 47
0.0
 47
0.0
 47
0.0
 47
1.0
 47
0.0
 47
0.0
 47
0.0
 47
0.0
 47
1.0
171
     0
 49
0.0208333333333333
 49
0.0
 49
0.0
 49
0.0
 49
0.0
 49
0.0208333333333333
 49
0.0
 49
0.0
 49
0.0
 49
0.0
 49
1.0
 49
0.0
 49
0.0
 49
0.0
 49
0.0
 49
1.0
175
     0
142
0.0208333333333333
142
0.0
142
0.0
142
0.0
142
0.0
142
0.0208333333333333
142
0.0
142
0.0
142
0.0
142
0.0
142
1.0
142
0.0
142
0.0
142
0.0
142
0.0
142
1.0
179
     0
144
0.0208333333333333
144
0.0
144
0.0
144
0.0
144
0.0
144
0.0208333333333333
144
0.0
144
0.0
144
0.0
144
0.0
144
1.0
144
0.0
144
0.0
144
0.0
144
0.0
144
1.0
147
0.0208333333333333
147
0.0
147
0.0
147
0.0
147
0.0
147
0.0208333333333333
147
0.0
147
0.0
147
0.0
147
0.0
147
1.0
147
0.0
147
0.0
147
0.0
147
0.0
147
1.0
  0
MATERIAL
  5
3F24
102
{ACAD_XDICTIONARY
360
3F25
102
}
102
{ACAD_REACTORS
330
3F23
102
}
330
3F23
100
AcDbMaterial
  1
ByLayer
 72
     0
 43
0.0208333333333333
 43
0.0
 43
0.0
 43
0.0
 43
0.0
 43
0.0208333333333333
 43
0.0
 43
0.0
 43
0.0
 43
0.0
 43
1.0
 43
0.0
 43
0.0
 43
0.0
 43
0.0
 43
1.0
 77
     0
 47
0.0208333333333333
 47
0.0
 47
0.0
 47
0.0
 47
0.0
 47
0.0208333333333333
 47
0.0
 47
0.0
 47
0.0
 47
0.0
 47
1.0
 47
0.0
 47
0.0
 47
0.0
 47
0.0
 47
1.0
171
     0
 49
0.0208333333333333
 49
0.0
 49
0.0
 49
0.0
 49
0.0
 49
0.0208333333333333
 49
0.0
 49
0.0
 49
0.0
 49
0.0
 49
1.0
 49
0.0
 49
0.0
 49
0.0
 49
0.0
 49
1.0
175
     0
142
0.0208333333333333
142
0.0
142
0.0
142
0.0
142
0.0
142
0.0208333333333333
142
0.0
142
0.0
142
0.0
142
0.0
142
1.0
142
0.0
142
0.0
142
0.0
142
0.0
142
1.0
179
     0
144
0.0208333333333333
144
0.0
144
0.0
144
0.0
144
0.0
144
0.0208333333333333
144
0.0
144
0.0
144
0.0
144
0.0
144
1.0
144
0.0
144
0.0
144
0.0
144
0.0
144
1.0
147
0.0208333333333333
147
0.0
147
0.0
147
0.0
147
0.0
147
0.0208333333333333
147
0.0
147
0.0
147
0.0
147
0.0
147
1.0
147
0.0
147
0.0
147
0.0
147
0.0
147
1.0
  0
MATERIAL
  5
3F34
102
{ACAD_XDICTIONARY
360
3F35
102
}
102
{ACAD_REACTORS
330
3F23
102
}
330
3F23
100
AcDbMaterial
  1
Global
 72
     0
 43
0.0208333333333333
 43
0.0
 43
0.0
 43
0.0
 43
0.0
 43
0.0208333333333333
 43
0.0
 43
0.0
 43
0.0
 43
0.0
 43
1.0
 43
0.0
 43
0.0
 43
0.0
 43
0.0
 43
1.0
 77
     0
 47
0.0208333333333333
 47
0.0
 47
0.0
 47
0.0
 47
0.0
 47
0.0208333333333333
 47
0.0
 47
0.0
 47
0.0
 47
0.0
 47
1.0
 47
0.0
 47
0.0
 47
0.0
 47
0.0
 47
1.0
171
     0
 49
0.0208333333333333
 49
0.0
 49
0.0
 49
0.0
 49
0.0
 49
0.0208333333333333
 49
0.0
 49
0.0
 49
0.0
 49
0.0
 49
1.0
 49
0.0
 49
0.0
 49
0.0
 49
0.0
 49
1.0
175
     0
142
0.0208333333333333
142
0.0
142
0.0
142
0.0
142
0.0
142
0.0208333333333333
142
0.0
142
0.0
142
0.0
142
0.0
142
1.0
142
0.0
142
0.0
142
0.0
142
0.0
142
1.0
179
     0
144
0.0208333333333333
144
0.0
144
0.0
144
0.0
144
0.0
144
0.0208333333333333
144
0.0
144
0.0
144
0.0
144
0.0
144
1.0
144
0.0
144
0.0
144
0.0
144
0.0
144
1.0
147
0.0208333333333333
147
0.0
147
0.0
147
0.0
147
0.0
147
0.0208333333333333
147
0.0
147
0.0
147
0.0
147
0.0
147
1.0
147
0.0
147
0.0
147
0.0
147
0.0
147
1.0
  0
MLEADERSTYLE
  5
3F6B
102
{ACAD_XDICTIONARY
360
40BB
102
}
102
{ACAD_REACTORS
330
3F6A
102
}
330
3F6A
100
AcDbMLeaderStyle
170
     2
171
     1
172
     0
 90
        2
 40
0.0
 41
0.0
173
     1
 91
-1056964608
340
12
 92
       -2
290
     1
 42
0.09
291
     1
 43
0.36
  3
Standard
 44
0.18
300

342
F
174
     1
178
     6
175
     1
176
     0
 93
-1056964608
 45
0.18
292
     0
297
     0
 46
0.18
 94
-1056964608
 47
1.0
 49
1.0
140
1.0
293
     1
141
0.0
294
     1
177
     0
142
1.0
295
     0
296
     0
143
0.125
1001
ACAD_MLEADERVER
1070
     2
  0
MLINESTYLE
  5
1C
102
{ACAD_REACTORS
330
1B
102
}
330
1B
100
AcDbMlineStyle
  2
STANDARD
 70
     0
  3

 62
   256
 51
90.0
 52
90.0
 71
     2
 49
0.5
 62
   256
  6
BYLAYER
 49
-0.5
 62
   256
  6
BYLAYER
  0
ACDBPLACEHOLDER
  5
5E8
102
{ACAD_REACTORS
330
5E7
102
}
330
5E7
  0
SCALE
  5
3F59
102
{ACAD_REACTORS
330
3F58
102
}
330
3F58
100
AcDbScale
 70
     0
300
1:1
140
1.0
141
1.0
290
     1
  0
SCALE
  5
3F5A
102
{ACAD_REACTORS
330
3F58
102
}
330
3F58
100
AcDbScale
 70
     0
300
1/128" = 1'-0"
140
0.0078125
141
12.0
290
     0
  0
SCALE
  5
3F5B
102
{ACAD_REACTORS
330
3F58
102
}
330
3F58
100
AcDbScale
 70
     0
300
1/64" = 1'-0"
140
0.015625
141
12.0
290
     0
  0
SCALE
  5
3F5C
102
{ACAD_REACTORS
330
3F58
102
}
330
3F58
100
AcDbScale
 70
     0
300
1/32" = 1'-0"
140
0.03125
141
12.0
290
     0
  0
SCALE
  5
3F5D
102
{ACAD_REACTORS
330
3F58
102
}
330
3F58
100
AcDbScale
 70
     0
300
1/16" = 1'-0"
140
0.0625
141
12.0
290
     0
  0
SCALE
  5
3F5E
102
{ACAD_REACTORS
330
3F58
102
}
330
3F58
100
AcDbScale
 70
     0
300
3/32" = 1'-0"
140
0.09375
141
12.0
290
     0
  0
SCALE
  5
3F5F
102
{ACAD_REACTORS
330
3F58
102
}
330
3F58
100
AcDbScale
 70
     0
300
1/8" = 1'-0"
140
0.125
141
12.0
290
     0
  0
SCALE
  5
3F60
102
{ACAD_REACTORS
330
3F58
102
}
330
3F58
100
AcDbScale
 70
     0
300
3/16" = 1'-0"
140
0.1875
141
12.0
290
     0
  0
SCALE
  5
3F61
102
{ACAD_REACTORS
330
3F58
102
}
330
3F58
100
AcDbScale
 70
     0
300
1/4" = 1'-0"
140
0.25
141
12.0
290
     0
  0
SCALE
  5
3F62
102
{ACAD_REACTORS
330
3F58
102
}
330
3F58
100
AcDbScale
 70
     0
300
3/8" = 1'-0"
140
0.375
141
12.0
290
     0
  0
SCALE
  5
3F63
102
{ACAD_REACTORS
330
3F58
102
}
330
3F58
100
AcDbScale
 70
     0
300
1/2" = 1'-0"
140
0.5
141
12.0
290
     0
  0
SCALE
  5
3F64
102
{ACAD_REACTORS
330
3F58
102
}
330
3F58
100
AcDbScale
 70
     0
300
3/4" = 1'-0"
140
0.75
141
12.0
290
     0
  0
SCALE
  5
3F65
102
{ACAD_REACTORS
330
3F58
102
}
330
3F58
100
AcDbScale
 70
     0
300
1" = 1'-0"
140
1.0
141
12.0
290
     0
  0
SCALE
  5
3F66
102
{ACAD_REACTORS
330
3F58
102
}
330
3F58
100
AcDbScale
 70
     0
300
1-1/2" = 1'-0"
140
1.5
141
12.0
290
     0
  0
SCALE
  5
3F67
102
{ACAD_REACTORS
330
3F58
102
}
330
3F58
100
AcDbScale
 70
     0
300
3" = 1'-0"
140
3.0
141
12.0
290
     0
  0
SCALE
  5
3F68
102
{ACAD_REACTORS
330
3F58
102
}
330
3F58
100
AcDbScale
 70
     0
300
6" = 1'-0"
140
6.0
141
12.0
290
     0
  0
SCALE
  5
3F69
102
{ACAD_REACTORS
330
3F58
102
}
330
3F58
100
AcDbScale
 70
     0
300
1'-0" = 1'-0"
140
12.0
141
12.0
290
     0
  0
ACDBSECTIONVIEWSTYLE
  5
3F6E
102
{ACAD_REACTORS
330
3F6C
102
}
330
3F6C
100
AcDbModelDocViewStyle
 70
     0
  3
Imperial24
290
     0
100
AcDbSectionViewStyle
 70
     0
 71
     0
 90
       78
 71
     1
340
F
 62
   256
 40
0.24
340
0
340
0
 62
   256
 40
0.24
300
I, O, Q, S, X, Z
 40
0.48
 90
        3
 40
0.18
 90
        1
 71
     2
340
3F6D
 90
       25
 62
   256
340
14
 90
       50
 62
   256
 40
0.24
 40
0.0
 40
0.24
 71
     3
340
F
 62
   256
 40
0.24
 90
        1
 40
0.75
 90
        1
300
%<\AcVar ViewType \f "%tc1">% %<\AcVar ViewSectionStartId>%-%<\AcVar ViewSectionEndId>%\PMĚŘÍTKO %<\AcVar ViewScale \f "%sn">%
 71
     4
 62
   256
 62
   257
300
ANSI31
 40
1.0
 90
        0
290
     0
290
     0
 90
        6
 40
0.0
 40
1.570796326794896
 40
0.2617993877991494
 40
1.308996938995747
 40
-0.2617993877991494
 40
1.832595714594046
  0
TABLESTYLE
  5
3F57
102
{ACAD_XDICTIONARY
360
4077
102
}
102
{ACAD_REACTORS
330
3F56
102
}
330
3F56
100
AcDbTableStyle
  3
Standard
 70
     0
 71
     0
 40
0.06
 41
0.06
280
     0
281
     0
  7
STANDARD
140
0.18
170
     2
 62
     0
 63
     7
283
     0
274
    -2
284
     1
 64
     0
275
    -2
285
     1
 65
     0
276
    -2
286
     1
 66
     0
277
    -2
287
     1
 67
     0
278
    -2
288
     1
 68
     0
279
    -2
289
     1
 69
     0
  7
STANDARD
140
0.25
170
     5
 62
     0
 63
     7
283
     0
274
    -2
284
     1
 64
     0
275
    -2
285
     1
 65
     0
276
    -2
286
     1
 66
     0
277
    -2
287
     1
 67
     0
278
    -2
288
     1
 68
     0
279
    -2
289
     1
 69
     0
  7
STANDARD
140
0.18
170
     5
 62
     0
 63
     7
283
     0
274
    -2
284
     1
 64
     0
275
    -2
285
     1
 65
     0
276
    -2
286
     1
 66
     0
277
    -2
287
     1
 67
     0
278
    -2
288
     1
 68
     0
279
    -2
289
     1
 69
     0
  0
VISUALSTYLE
  5
3F42
102
{ACAD_XDICTIONARY
360
4093
102
}
102
{ACAD_REACTORS
330
3F3C
102
}
330
3F3C
100
AcDbVisualStyle
  2
2dWireframe
 70
     4
 71
     0
 72
     2
 73
     0
 90
        0
 40
-0.6
 41
-30.0
 62
     5
 63
     7
421
 16777215
 74
     1
 91
        4
 64
     7
 65
   257
 75
     1
175
     1
 42
1.0
 92
        0
 66
   257
 43
1.0
 76
     1
 77
     6
 78
     2
 67
     7
 79
     5
170
     0
171
     0
290
     0
174
     0
 93
        1
 44
0.0
173
     0
291
     0
 45
0.0
1001
ACAD
1000
AcDbSavedByObjectVersion
1070
     0
  0
VISUALSTYLE
  5
3F41
102
{ACAD_XDICTIONARY
360
4091
102
}
102
{ACAD_REACTORS
330
3F3C
102
}
330
3F3C
100
AcDbVisualStyle
  2
Basic
 70
     7
 71
     1
 72
     0
 73
     1
 90
        0
 40
-0.6
 41
-30.0
 62
     5
 63
     7
421
 16777215
 74
     0
 91
        4
 64
     7
 65
   257
 75
     1
175
     1
 42
1.0
 92
        8
 66
     7
 43
1.0
 76
     1
 77
     6
 78
     2
 67
     7
 79
     5
170
     0
171
     0
290
     0
174
     0
 93
        1
 44
0.0
173
     0
291
     1
 45
0.0
1001
ACAD
1000
AcDbSavedByObjectVersion
1070
     0
  0
VISUALSTYLE
  5
3F48
102
{ACAD_XDICTIONARY
360
409F
102
}
102
{ACAD_REACTORS
330
3F3C
102
}
330
3F3C
100
AcDbVisualStyle
  2
Brighten
 70
    12
 71
     2
 72
     2
 73
     0
 90
        0
 40
-0.6
 41
-30.0
 62
     5
 63
     7
421
 16777215
 74
     1
 91
        4
 64
     7
 65
   257
 75
     1
175
     1
 42
1.0
 92
        8
 66
     7
 43
1.0
 76
     1
 77
     6
 78
     2
 67
     7
 79
     5
170
     0
171
     0
290
     0
174
     0
 93
        1
 44
50.0
173
     0
291
     1
 45
0.0
1001
ACAD
1000
AcDbSavedByObjectVersion
1070
     0
  0
VISUALSTYLE
  5
3F4C
102
{ACAD_XDICTIONARY
360
40A7
102
}
102
{ACAD_REACTORS
330
3F3C
102
}
330
3F3C
100
AcDbVisualStyle
  2
ColorChange
 70
    16
 71
     2
 72
     2
 73
     3
 90
        0
 40
-0.6
 41
-30.0
 62
     5
 63
     8
421
  8421504
 74
     1
 91
        4
 64
     7
 65
   257
 75
     1
175
     1
 42
1.0
 92
        8
 66
     8
424
  8421504
 43
1.0
 76
     1
 77
     6
 78
     2
 67
     7
 79
     5
170
     0
171
     0
290
     0
174
     0
 93
        1
 44
0.0
173
     0
291
     1
 45
0.0
1001
ACAD
1000
AcDbSavedByObjectVersion
1070
     0
  0
VISUALSTYLE
  5
3F45
102
{ACAD_XDICTIONARY
360
4099
102
}
102
{ACAD_REACTORS
330
3F3C
102
}
330
3F3C
100
AcDbVisualStyle
  2
Conceptual
 70
     9
 71
     3
 72
     2
 73
     0
 90
        0
 40
-0.6
 41
-30.0
 62
     5
 63
     7
421
 16777215
 74
     2
 91
        2
 64
     7
 65
   257
 75
     1
175
     1
 42
179.0
 92
        8
 66
     7
 43
1.0
 76
     1
 77
     6
 78
     2
 67
     7
 79
     3
170
     0
171
     0
290
     0
174
     0
 93
        1
 44
0.0
173
     0
291
     0
 45
0.0
1001
ACAD
1000
AcDbSavedByObjectVersion
1070
     0
  0
VISUALSTYLE
  5
3F47
102
{ACAD_XDICTIONARY
360
409D
102
}
102
{ACAD_REACTORS
330
3F3C
102
}
330
3F3C
100
AcDbVisualStyle
  2
Dim
 70
    11
 71
     2
 72
     2
 73
     0
 90
        0
 40
-0.6
 41
-30.0
 62
     5
 63
     7
421
 16777215
 74
     1
 91
        4
 64
     7
 65
   257
 75
     1
175
     1
 42
1.0
 92
        8
 66
     7
 43
1.0
 76
     1
 77
     6
 78
     2
 67
     7
 79
     5
170
     0
171
     0
290
     0
174
     0
 93
        1
 44
-50.0
173
     0
291
     1
 45
0.0
1001
ACAD
1000
AcDbSavedByObjectVersion
1070
     0
  0
VISUALSTYLE
  5
3F54
102
{ACAD_XDICTIONARY
360
40B7
102
}
102
{ACAD_REACTORS
330
3F3C
102
}
330
3F3C
100
AcDbVisualStyle
  2
EdgeColorOff
 70
    22
 71
     2
 72
     2
 73
     0
 90
        0
 40
-0.6
 41
-30.0
 62
     5
 63
     7
421
 16777215
 74
     1
 91
        4
 64
     7
 65
   257
 75
     1
175
     1
 42
1.0
 92
        8
 66
     7
 43
1.0
 76
     1
 77
     6
 78
     2
 67
     7
 79
     5
170
     0
171
     0
290
     0
174
     0
 93
        1
 44
0.0
173
     0
291
     1
 45
0.0
1001
ACAD
1000
AcDbSavedByObjectVersion
1070
     0
  0
VISUALSTYLE
  5
3F4B
102
{ACAD_XDICTIONARY
360
40A5
102
}
102
{ACAD_REACTORS
330
3F3C
102
}
330
3F3C
100
AcDbVisualStyle
  2
Facepattern
 70
    15
 71
     2
 72
     2
 73
     0
 90
        0
 40
-0.6
 41
-30.0
 62
     5
 63
     7
421
 16777215
 74
     1
 91
        4
 64
     7
 65
   257
 75
     1
175
     1
 42
1.0
 92
        8
 66
     7
 43
1.0
 76
     1
 77
     6
 78
     2
 67
     7
 79
     5
170
     0
171
     0
290
     0
174
     0
 93
        1
 44
0.0
173
     0
291
     1
 45
0.0
1001
ACAD
1000
AcDbSavedByObjectVersion
1070
     0
  0
VISUALSTYLE
  5
3F3D
102
{ACAD_XDICTIONARY
360
4089
102
}
102
{ACAD_REACTORS
330
3F3C
102
}
330
3F3C
100
AcDbVisualStyle
  2
Flat
 70
     0
 71
     2
 72
     1
 73
     1
 90
        2
 40
-0.6
 41
30.0
 62
     5
 63
     7
421
 16777215
 74
     0
 91
        0
 64
     7
 65
   257
 75
     1
175
     1
 42
1.0
 92
        8
 66
     7
 43
1.0
 76
     1
 77
     6
 78
     2
 67
     7
 79
     5
170
     0
171
     0
290
     0
174
     0
 93
       13
 44
0.0
173
     0
291
     1
 45
0.0
1001
ACAD
1000
AcDbSavedByObjectVersion
1070
     0
  0
VISUALSTYLE
  5
3F3E
102
{ACAD_XDICTIONARY
360
408B
102
}
102
{ACAD_REACTORS
330
3F3C
102
}
330
3F3C
100
AcDbVisualStyle
  2
FlatWithEdges
 70
     1
 71
     2
 72
     1
 73
     1
 90
        2
 40
-0.6
 41
30.0
 62
     5
 63
     7
421
 16777215
 74
     1
 91
        0
 64
     7
 65
   257
 75
     1
175
     1
 42
1.0
 92
        0
 66
   257
 43
1.0
 76
     1
 77
     6
 78
     2
 67
     7
 79
     5
170
     0
171
     0
290
     0
174
     0
 93
       13
 44
0.0
173
     0
291
     1
 45
0.0
1001
ACAD
1000
AcDbSavedByObjectVersion
1070
     0
  0
VISUALSTYLE
  5
3F3F
102
{ACAD_XDICTIONARY
360
408D
102
}
102
{ACAD_REACTORS
330
3F3C
102
}
330
3F3C
100
AcDbVisualStyle
  2
Gouraud
 70
     2
 71
     2
 72
     2
 73
     1
 90
        2
 40
-0.6
 41
30.0
 62
     5
 63
     7
421
 16777215
 74
     0
 91
        0
 64
     7
 65
   257
 75
     1
175
     1
 42
1.0
 92
        0
 66
     7
 43
1.0
 76
     1
 77
     6
 78
     2
 67
     7
 79
     5
170
     0
171
     0
290
     0
174
     0
 93
       13
 44
0.0
173
     0
291
     1
 45
0.0
1001
ACAD
1000
AcDbSavedByObjectVersion
1070
     0
  0
VISUALSTYLE
  5
3F40
102
{ACAD_XDICTIONARY
360
408F
102
}
102
{ACAD_REACTORS
330
3F3C
102
}
330
3F3C
100
AcDbVisualStyle
  2
GouraudWithEdges
 70
     3
 71
     2
 72
     2
 73
     1
 90
        2
 40
-0.6
 41
30.0
 62
     5
 63
     7
421
 16777215
 74
     1
 91
        0
 64
     7
 65
   257
 75
     1
175
     1
 42
1.0
 92
        0
 66
   257
 43
1.0
 76
     1
 77
     6
 78
     2
 67
     7
 79
     5
170
     0
171
     0
290
     0
174
     0
 93
       13
 44
0.0
173
     0
291
     1
 45
0.0
1001
ACAD
1000
AcDbSavedByObjectVersion
1070
     0
  0
VISUALSTYLE
  5
3F44
102
{ACAD_XDICTIONARY
360
4097
102
}
102
{ACAD_REACTORS
330
3F3C
102
}
330
3F3C
100
AcDbVisualStyle
  2
Hidden
 70
     6
 71
     1
 72
     2
 73
     2
 90
        0
 40
-0.6
 41
-30.0
 62
     5
 63
     7
421
 16777215
 74
     2
 91
        2
 64
     7
 65
   257
 75
     2
175
     1
 42
40.0
 92
        0
 66
   257
 43
1.0
 76
     1
 77
     6
 78
     2
 67
     7
 79
     3
170
     0
171
     0
290
     0
174
     0
 93
        1
 44
0.0
173
     0
291
     0
 45
0.0
1001
ACAD
1000
AcDbSavedByObjectVersion
1070
     0
  0
VISUALSTYLE
  5
3F52
102
{ACAD_XDICTIONARY
360
40B3
102
}
102
{ACAD_REACTORS
330
3F3C
102
}
330
3F3C
100
AcDbVisualStyle
  2
JitterOff
 70
    20
 71
     2
 72
     2
 73
     0
 90
        0
 40
-0.6
 41
-30.0
 62
     5
 63
     7
421
 16777215
 74
     1
 91
        4
 64
     7
 65
   257
 75
     1
175
     1
 42
1.0
 92
       10
 66
     7
 43
1.0
 76
     1
 77
     6
 78
     2
 67
     7
 79
     5
170
     0
171
     0
290
     0
174
     0
 93
        1
 44
0.0
173
     0
291
     1
 45
0.0
1001
ACAD
1000
AcDbSavedByObjectVersion
1070
     0
  0
VISUALSTYLE
  5
3F4A
102
{ACAD_XDICTIONARY
360
40A3
102
}
102
{ACAD_REACTORS
330
3F3C
102
}
330
3F3C
100
AcDbVisualStyle
  2
Linepattern
 70
    14
 71
     2
 72
     2
 73
     0
 90
        0
 40
-0.6
 41
-30.0
 62
     5
 63
     7
421
 16777215
 74
     1
 91
        4
 64
     7
 65
   257
 75
     7
175
     7
 42
1.0
 92
        8
 66
     7
 43
1.0
 76
     1
 77
     6
 78
     2
 67
     7
 79
     5
170
     0
171
     0
290
     0
174
     0
 93
        1
 44
0.0
173
     0
291
     1
 45
0.0
1001
ACAD
1000
AcDbSavedByObjectVersion
1070
     0
  0
VISUALSTYLE
  5
3F53
102
{ACAD_XDICTIONARY
360
40B5
102
}
102
{ACAD_REACTORS
330
3F3C
102
}
330
3F3C
100
AcDbVisualStyle
  2
OverhangOff
 70
    21
 71
     2
 72
     2
 73
     0
 90
        0
 40
-0.6
 41
-30.0
 62
     5
 63
     7
421
 16777215
 74
     1
 91
        4
 64
     7
 65
   257
 75
     1
175
     1
 42
1.0
 92
        9
 66
     7
 43
1.0
 76
     1
 77
     6
 78
     2
 67
     7
 79
     5
170
     0
171
     0
290
     0
174
     0
 93
        1
 44
0.0
173
     0
291
     1
 45
0.0
1001
ACAD
1000
AcDbSavedByObjectVersion
1070
     0
  0
VISUALSTYLE
  5
3F46
102
{ACAD_XDICTIONARY
360
409B
102
}
102
{ACAD_REACTORS
330
3F3C
102
}
330
3F3C
100
AcDbVisualStyle
  2
Realistic
 70
     8
 71
     2
 72
     3
 73
     0
 90
        2
 40
-0.6
 41
30.0
 62
     5
 63
     7
421
 16777215
 74
     0
 91
        0
 64
     7
 65
   257
 75
     1
175
     1
 42
1.0
 92
        8
 66
   257
 43
1.0
 76
     1
 77
     6
 78
     2
 67
     7
 79
     3
170
     0
171
     0
290
     0
174
     0
 93
       13
 44
0.0
173
     0
291
     0
 45
0.0
1001
ACAD
1000
AcDbSavedByObjectVersion
1070
     0
  0
VISUALSTYLE
  5
3F51
102
{ACAD_XDICTIONARY
360
40B1
102
}
102
{ACAD_REACTORS
330
3F3C
102
}
330
3F3C
100
AcDbVisualStyle
  2
Shaded
 70
    27
 71
     2
 72
     2
 73
     1
 90
        2
 40
-0.6
 41
30.0
 62
     5
 63
     7
421
 16777215
 74
     0
 91
        4
 64
     7
 65
   257
 75
     1
175
     1
 42
1.0
 92
        8
 66
   257
 43
1.0
 76
     1
 77
     6
 78
     2
 67
     8
425
  7895160
 79
     3
170
     0
171
     0
290
     0
174
     0
 93
        5
 44
0.0
173
     0
291
     0
 45
0.0
1001
ACAD
1000
AcDbSavedByObjectVersion
1070
     0
  0
VISUALSTYLE
  5
3F50
102
{ACAD_XDICTIONARY
360
40AF
102
}
102
{ACAD_REACTORS
330
3F3C
102
}
330
3F3C
100
AcDbVisualStyle
  2
Shaded with edges
 70
    26
 71
     2
 72
     2
 73
     1
 90
        2
 40
-0.6
 41
30.0
 62
     5
 63
     7
421
 16777215
 74
     1
 91
       10
 64
     7
 65
   257
 75
     2
175
     1
 42
1.0
 92
        8
 66
   257
 43
1.0
 76
     1
 77
     6
 78
     2
 67
     7
 79
     3
170
     0
171
     0
290
     0
174
     0
 93
        5
 44
0.0
173
     0
291
     0
 45
0.0
1001
ACAD
1000
AcDbSavedByObjectVersion
1070
     0
  0
VISUALSTYLE
  5
3F4D
102
{ACAD_XDICTIONARY
360
40A9
102
}
102
{ACAD_REACTORS
330
3F3C
102
}
330
3F3C
100
AcDbVisualStyle
  2
Shades of Gray
 70
    23
 71
     2
 72
     2
 73
     3
 90
        0
 40
-0.6
 41
-30.0
 62
     5
 63
     7
421
 16777215
 74
     2
 91
        2
 64
     7
 65
     7
 75
     1
175
     1
 42
40.0
 92
        8
 66
     7
 43
1.0
 76
     1
 77
     6
 78
     2
 67
     7
 79
     3
170
     0
171
     0
290
     0
174
     0
 93
        1
 44
0.0
173
     0
291
     0
 45
0.0
1001
ACAD
1000
AcDbSavedByObjectVersion
1070
     0
  0
VISUALSTYLE
  5
3F4E
102
{ACAD_XDICTIONARY
360
40AB
102
}
102
{ACAD_REACTORS
330
3F3C
102
}
330
3F3C
100
AcDbVisualStyle
  2
Sketchy
 70
    24
 71
     1
 72
     2
 73
     2
 90
        0
 40
-0.6
 41
-30.0
 62
     5
 63
     7
421
 16777215
 74
     2
 91
        2
 64
     7
 65
     7
 75
     1
175
     1
 42
40.0
 92
       11
 66
     7
 43
1.0
 76
     1
 77
     6
 78
     2
 67
     7
 79
     6
170
     0
171
     0
290
     0
174
     0
 93
        1
 44
0.0
173
     0
291
     0
 45
0.0
1001
ACAD
1000
AcDbSavedByObjectVersion
1070
     0
  0
VISUALSTYLE
  5
3F49
102
{ACAD_XDICTIONARY
360
40A1
102
}
102
{ACAD_REACTORS
330
3F3C
102
}
330
3F3C
100
AcDbVisualStyle
  2
Thicken
 70
    13
 71
     2
 72
     2
 73
     0
 90
        0
 40
-0.6
 41
-30.0
 62
     5
 63
     7
421
 16777215
 74
     1
 91
        4
 64
     7
 65
   257
 75
     1
175
     1
 42
1.0
 92
       12
 66
     7
 43
1.0
 76
     1
 77
     6
 78
     2
 67
     7
 79
     5
170
     0
171
     0
290
     0
174
     0
 93
        1
 44
0.0
173
     0
291
     1
 45
0.0
1001
ACAD
1000
AcDbSavedByObjectVersion
1070
     0
  0
VISUALSTYLE
  5
3F43
102
{ACAD_XDICTIONARY
360
4095
102
}
102
{ACAD_REACTORS
330
3F3C
102
}
330
3F3C
100
AcDbVisualStyle
  2
Wireframe
 70
     5
 71
     0
 72
     2
 73
     0
 90
        0
 40
-0.6
 41
-30.0
 62
     5
 63
     7
421
 16777215
 74
     1
 91
        4
 64
     7
 65
   257
 75
     1
175
     1
 42
1.0
 92
        0
 66
   257
 43
1.0
 76
     1
 77
     6
 78
     2
 67
     7
 79
     3
170
     0
171
     0
290
     0
174
     0
 93
        1
 44
0.0
173
     0
291
     0
 45
0.0
1001
ACAD
1000
AcDbSavedByObjectVersion
1070
     0
  0
VISUALSTYLE
  5
3F4F
102
{ACAD_XDICTIONARY
360
40AD
102
}
102
{ACAD_REACTORS
330
3F3C
102
}
330
3F3C
100
AcDbVisualStyle
  2
X-Ray
 70
    25
 71
     2
 72
     2
 73
     1
 90
        1
 40
0.5
 41
-30.0
 62
     5
 63
     7
421
 16777215
 74
     1
 91
        0
 64
     7
 65
   257
 75
     1
175
     1
 42
1.0
 92
        8
 66
     7
 43
1.0
 76
     1
 77
     6
 78
     2
 67
     7
 79
     3
170
     0
171
     0
290
     0
174
     0
 93
       13
 44
0.0
173
     0
291
     0
 45
0.0
1001
ACAD
1000
AcDbSavedByObjectVersion
1070
     0
  0
DICTIONARYVAR
  5
3FDA
102
{ACAD_REACTORS
330
7F0
102
}
330
7F0
100
DictionaryVariables
280
     0
  1
1:1
  0
DICTIONARYVAR
  5
3FD6
102
{ACAD_REACTORS
330
7F0
102
}
330
7F0
100
DictionaryVariables
280
     0
  1
STANDARD
  0
DICTIONARYVAR
  5
3FD5
102
{ACAD_REACTORS
330
7F0
102
}
330
7F0
100
DictionaryVariables
280
     0
  1
STANDARD
  0
DICTIONARYVAR
  5
3FD7
102
{ACAD_REACTORS
330
7F0
102
}
330
7F0
100
DictionaryVariables
280
     0
  1
Imperial24
  0
DICTIONARYVAR
  5
3FD8
102
{ACAD_REACTORS
330
7F0
102
}
330
7F0
100
DictionaryVariables
280
     0
  1
Imperial24
  0
DICTIONARYVAR
  5
1C46
102
{ACAD_REACTORS
330
7F0
102
}
330
7F0
100
DictionaryVariables
280
     0
  1
1
  0
DICTIONARYVAR
  5
3FDC
102
{ACAD_REACTORS
330
7F0
102
}
330
7F0
100
DictionaryVariables
280
     0
  1
1
  0
DICTIONARYVAR
  5
3FDD
102
{ACAD_REACTORS
330
7F0
102
}
330
7F0
100
DictionaryVariables
280
     0
  1
15
  0
DICTIONARYVAR
  5
3FDB
102
{ACAD_REACTORS
330
7F0
102
}
330
7F0
100
DictionaryVariables
280
     0
  1
0
  0
DICTIONARYVAR
  5
3FD9
102
{ACAD_REACTORS
330
7F0
102
}
330
7F0
100
DictionaryVariables
280
     0
  1
0
  0
DICTIONARYVAR
  5
7F1
102
{ACAD_REACTORS
330
7F0
102
}
330
7F0
100
DictionaryVariables
280
     0
  1
96
  0
DICTIONARYVAR
  5
4076
102
{ACAD_REACTORS
330
7F0
102
}
330
7F0
100
DictionaryVariables
280
     0
  1
2
  0
DICTIONARY
  5
4081
102
{ACAD_REACTORS
330
407F
102
}
330
407F
100
AcDbDictionary
281
     1
  0
DICTIONARY
  5
4080
102
{ACAD_REACTORS
330
407F
102
}
330
407F
100
AcDbDictionary
281
     1
  3
140695673531552
350
407A
  3
140695673531568
350
407B
  3
140695673531584
350
407C
  3
140695673531600
350
407D
  3
140695673531616
350
407E
  0
XRECORD
  5
3B46
102
{ACAD_REACTORS
330
3B44
102
}
330
3B44
100
AcDbXrecord
280
     1
330
0
330
0
330
0
330
0
330
0
330
0
330
0
330
0
330
0
330
0
330
0
330
0
330
0
330
0
330
0
330
0
330
0
330
0
330
0
330
0
330
0
330
0
330
0
330
0
330
0
330
0
330
0
330
0
330
0
330
0
330
0
330
0
330
0
330
0
330
0
330
0
330
0
330
0
330
0
330
0
330
0
330
0
330
0
330
0
330
0
330
0
330
0
330
0
330
0
330
0
330
0
330
0
330
0
330
0
330
0
330
0
330
0
330
0
330
0
330
0
330
0
330
0
330
0
330
0
330
0
330
0
330
0
330
0
330
0
330
0
330
0
330
0
330
0
330
0
330
0
330
0
330
0
330
0
330
0
330
0
330
0
330
0
330
0
330
0
330
0
330
0
330
0
330
0
330
0
330
0
330
0
330
0
  0
DICTIONARY
  5
3F2D
330
3F2C
100
AcDbDictionary
280
     1
281
     1
  3
ACAD_XREC_ROUNDTRIP
360
4087
  3
BUMPTILE
360
3F2F
  3
DIFFUSETILE
360
3F2E
  3
OPACITYTILE
360
3F32
  3
REFLECTIONTILE
360
3F31
  3
REFRACTIONTILE
360
3F33
  3
SPECULARTILE
360
3F30
  0
DICTIONARY
  5
3F25
330
3F24
100
AcDbDictionary
280
     1
281
     1
  3
ACAD_XREC_ROUNDTRIP
360
4086
  3
BUMPTILE
360
3F27
  3
DIFFUSETILE
360
3F26
  3
OPACITYTILE
360
3F2A
  3
REFLECTIONTILE
360
3F29
  3
REFRACTIONTILE
360
3F2B
  3
SPECULARTILE
360
3F28
  0
DICTIONARY
  5
3F35
330
3F34
100
AcDbDictionary
280
     1
281
     1
  3
ACAD_XREC_ROUNDTRIP
360
4088
  3
BUMPTILE
360
3F37
  3
DIFFUSETILE
360
3F36
  3
OPACITYTILE
360
3F3A
  3
REFLECTIONTILE
360
3F39
  3
REFRACTIONTILE
360
3F3B
  3
SPECULARTILE
360
3F38
  0
DICTIONARY
  5
40BB
330
3F6B
100
AcDbDictionary
280
     1
281
     1
  3
ACAD_XREC_ROUNDTRIP
360
40BC
  0
DICTIONARY
  5
4077
330
3F57
100
AcDbDictionary
280
     1
281
     1
  3
ACAD_ROUNDTRIP_2008_TABLESTYLE_CELLSTYLEMAP
360
4078
  3
ACAD_XREC_ROUNDTRIP
360
40B9
  0
DICTIONARY
  5
4093
330
3F42
100
AcDbDictionary
280
     1
281
     1
  3
ACAD_XREC_ROUNDTRIP
360
4094
  0
DICTIONARY
  5
4091
330
3F41
100
AcDbDictionary
280
     1
281
     1
  3
ACAD_XREC_ROUNDTRIP
360
4092
  0
DICTIONARY
  5
409F
330
3F48
100
AcDbDictionary
280
     1
281
     1
  3
ACAD_XREC_ROUNDTRIP
360
40A0
  0
DICTIONARY
  5
40A7
330
3F4C
100
AcDbDictionary
280
     1
281
     1
  3
ACAD_XREC_ROUNDTRIP
360
40A8
  0
DICTIONARY
  5
4099
330
3F45
100
AcDbDictionary
280
     1
281
     1
  3
ACAD_XREC_ROUNDTRIP
360
409A
  0
DICTIONARY
  5
409D
330
3F47
100
AcDbDictionary
280
     1
281
     1
  3
ACAD_XREC_ROUNDTRIP
360
409E
  0
DICTIONARY
  5
40B7
330
3F54
100
AcDbDictionary
280
     1
281
     1
  3
ACAD_XREC_ROUNDTRIP
360
40B8
  0
DICTIONARY
  5
40A5
330
3F4B
100
AcDbDictionary
280
     1
281
     1
  3
ACAD_XREC_ROUNDTRIP
360
40A6
  0
DICTIONARY
  5
4089
330
3F3D
100
AcDbDictionary
280
     1
281
     1
  3
ACAD_XREC_ROUNDTRIP
360
408A
  0
DICTIONARY
  5
408B
330
3F3E
100
AcDbDictionary
280
     1
281
     1
  3
ACAD_XREC_ROUNDTRIP
360
408C
  0
DICTIONARY
  5
408D
330
3F3F
100
AcDbDictionary
280
     1
281
     1
  3
ACAD_XREC_ROUNDTRIP
360
408E
  0
DICTIONARY
  5
408F
330
3F40
100
AcDbDictionary
280
     1
281
     1
  3
ACAD_XREC_ROUNDTRIP
360
4090
  0
DICTIONARY
  5
4097
330
3F44
100
AcDbDictionary
280
     1
281
     1
  3
ACAD_XREC_ROUNDTRIP
360
4098
  0
DICTIONARY
  5
40B3
330
3F52
100
AcDbDictionary
280
     1
281
     1
  3
ACAD_XREC_ROUNDTRIP
360
40B4
  0
DICTIONARY
  5
40A3
330
3F4A
100
AcDbDictionary
280
     1
281
     1
  3
ACAD_XREC_ROUNDTRIP
360
40A4
  0
DICTIONARY
  5
40B5
330
3F53
100
AcDbDictionary
280
     1
281
     1
  3
ACAD_XREC_ROUNDTRIP
360
40B6
  0
DICTIONARY
  5
409B
330
3F46
100
AcDbDictionary
280
     1
281
     1
  3
ACAD_XREC_ROUNDTRIP
360
409C
  0
DICTIONARY
  5
40B1
330
3F51
100
AcDbDictionary
280
     1
281
     1
  3
ACAD_XREC_ROUNDTRIP
360
40B2
  0
DICTIONARY
  5
40AF
330
3F50
100
AcDbDictionary
280
     1
281
     1
  3
ACAD_XREC_ROUNDTRIP
360
40B0
  0
DICTIONARY
  5
40A9
330
3F4D
100
AcDbDictionary
280
     1
281
     1
  3
ACAD_XREC_ROUNDTRIP
360
40AA
  0
DICTIONARY
  5
40AB
330
3F4E
100
AcDbDictionary
280
     1
281
     1
  3
ACAD_XREC_ROUNDTRIP
360
40AC
  0
DICTIONARY
  5
40A1
330
3F49
100
AcDbDictionary
280
     1
281
     1
  3
ACAD_XREC_ROUNDTRIP
360
40A2
  0
DICTIONARY
  5
4095
330
3F43
100
AcDbDictionary
280
     1
281
     1
  3
ACAD_XREC_ROUNDTRIP
360
4096
  0
DICTIONARY
  5
40AD
330
3F4F
100
AcDbDictionary
280
     1
281
     1
  3
ACAD_XREC_ROUNDTRIP
360
40AE
  0
XRECORD
  5
407A
102
{ACAD_REACTORS
330
4080
102
}
330
4080
100
AcDbXrecord
280
     1
  1
AcDb_Thumbnail_Schema
102
{ATTRRECORD
341
407B
  2
AcDbDs::TreatedAsObjectData
280
     1
291
     1
102
ATTRRECORD}
102
{ATTRRECORD
341
407C
  2
AcDbDs::Legacy
280
     1
291
     1
102
ATTRRECORD}
  2
AcDbDs::ID
280
    10
 91
        8
102
{ATTRRECORD
341
407D
  2
AcDs:Indexable
280
     1
291
     1
102
ATTRRECORD}
102
{ATTRRECORD
341
407E
  2
AcDbDs::HandleAttribute
280
     7
282
     1
102
ATTRRECORD}
  2
Thumbnail_Data
280
    15
 91
        0
  0
XRECORD
  5
407B
102
{ACAD_REACTORS
330
4080
102
}
330
4080
100
AcDbXrecord
280
     1
  1
AcDbDs::TreatedAsObjectDataSchema
  2
AcDbDs::TreatedAsObjectData
280
     1
 91
        0
  0
XRECORD
  5
407C
102
{ACAD_REACTORS
330
4080
102
}
330
4080
100
AcDbXrecord
280
     1
  1
AcDbDs::LegacySchema
  2
AcDbDs::Legacy
280
     1
 91
        0
  0
XRECORD
  5
407D
102
{ACAD_REACTORS
330
4080
102
}
330
4080
100
AcDbXrecord
280
     1
  1
AcDbDs::IndexedPropertySchema
  2
AcDs:Indexable
280
     1
 91
        0
  0
XRECORD
  5
407E
102
{ACAD_REACTORS
330
4080
102
}
330
4080
100
AcDbXrecord
280
     1
  1
AcDbDs::HandleAttributeSchema
  2
AcDbDs::HandleAttribute
280
     7
 91
        1
284
     1
  0
XRECORD
  5
4087
102
{ACAD_REACTORS
330
3F2D
102
}
330
3F2D
100
AcDbXrecord
280
     1
102
MATERIAL
148
0.0
149
0.0
149
0.0
 93
        0
 94
      127
282
     0
 72
     0
 77
     0
171
     0
175
     0
179
     0
273
     0
  0
XRECORD
  5
3F2F
102
{ACAD_REACTORS
330
3F2D
102
}
330
3F2D
100
AcDbXrecord
280
     1
270
     1
271
     1
  0
XRECORD
  5
3F2E
102
{ACAD_REACTORS
330
3F2D
102
}
330
3F2D
100
AcDbXrecord
280
     1
270
     1
271
     1
  0
XRECORD
  5
3F32
102
{ACAD_REACTORS
330
3F2D
102
}
330
3F2D
100
AcDbXrecord
280
     1
270
     1
271
     1
  0
XRECORD
  5
3F31
102
{ACAD_REACTORS
330
3F2D
102
}
330
3F2D
100
AcDbXrecord
280
     1
270
     1
271
     1
  0
XRECORD
  5
3F33
102
{ACAD_REACTORS
330
3F2D
102
}
330
3F2D
100
AcDbXrecord
280
     1
270
     1
271
     1
  0
XRECORD
  5
3F30
102
{ACAD_REACTORS
330
3F2D
102
}
330
3F2D
100
AcDbXrecord
280
     1
270
     1
271
     1
  0
XRECORD
  5
4086
102
{ACAD_REACTORS
330
3F25
102
}
330
3F25
100
AcDbXrecord
280
     1
102
MATERIAL
148
0.0
149
0.0
149
0.0
 93
        0
 94
      127
282
     0
 72
     0
 77
     0
171
     0
175
     0
179
     0
273
     0
  0
XRECORD
  5
3F27
102
{ACAD_REACTORS
330
3F25
102
}
330
3F25
100
AcDbXrecord
280
     1
270
     1
271
     1
  0
XRECORD
  5
3F26
102
{ACAD_REACTORS
330
3F25
102
}
330
3F25
100
AcDbXrecord
280
     1
270
     1
271
     1
  0
XRECORD
  5
3F2A
102
{ACAD_REACTORS
330
3F25
102
}
330
3F25
100
AcDbXrecord
280
     1
270
     1
271
     1
  0
XRECORD
  5
3F29
102
{ACAD_REACTORS
330
3F25
102
}
330
3F25
100
AcDbXrecord
280
     1
270
     1
271
     1
  0
XRECORD
  5
3F2B
102
{ACAD_REACTORS
330
3F25
102
}
330
3F25
100
AcDbXrecord
280
     1
270
     1
271
     1
  0
XRECORD
  5
3F28
102
{ACAD_REACTORS
330
3F25
102
}
330
3F25
100
AcDbXrecord
280
     1
270
     1
271
     1
  0
XRECORD
  5
4088
102
{ACAD_REACTORS
330
3F35
102
}
330
3F35
100
AcDbXrecord
280
     1
102
MATERIAL
148
0.0
149
0.0
149
0.0
 93
        0
 94
      127
282
     0
 72
     0
 77
     0
171
     0
175
     0
179
     0
273
     0
  0
XRECORD
  5
3F37
102
{ACAD_REACTORS
330
3F35
102
}
330
3F35
100
AcDbXrecord
280
     1
270
     1
271
     1
  0
XRECORD
  5
3F36
102
{ACAD_REACTORS
330
3F35
102
}
330
3F35
100
AcDbXrecord
280
     1
270
     1
271
     1
  0
XRECORD
  5
3F3A
102
{ACAD_REACTORS
330
3F35
102
}
330
3F35
100
AcDbXrecord
280
     1
270
     1
271
     1
  0
XRECORD
  5
3F39
102
{ACAD_REACTORS
330
3F35
102
}
330
3F35
100
AcDbXrecord
280
     1
270
     1
271
     1
  0
XRECORD
  5
3F3B
102
{ACAD_REACTORS
330
3F35
102
}
330
3F35
100
AcDbXrecord
280
     1
270
     1
271
     1
  0
XRECORD
  5
3F38
102
{ACAD_REACTORS
330
3F35
102
}
330
3F35
100
AcDbXrecord
280
     1
270
     1
271
     1
  0
XRECORD
  5
40BC
102
{ACAD_REACTORS
330
40BB
102
}
330
40BB
100
AcDbXrecord
280
     1
102
ACAD_ROUNDTRIP_2012_MLEADER_STYLE
298
     1
  0
CELLSTYLEMAP
  5
4078
102
{ACAD_REACTORS
330
4077
102
}
330
4077
100
AcDbCellStyleMap
 90
        3
300
CELLSTYLE
  1
TABLEFORMAT_BEGIN
 90
        5
170
     1
 91
        0
 92
    32768
 62
   257
 93
        1
300
CONTENTFORMAT
  1
CONTENTFORMAT_BEGIN
 90
        0
 91
        0
 92
      512
 93
        0
300

 40
0.0
140
1.0
 94
        5
 62
     0
340
F
144
0.25
309
CONTENTFORMAT_END
171
     0
 94
        0
309
TABLEFORMAT_END
  1
CELLSTYLE_BEGIN
 90
        1
 91
        1
300
_TITLE
309
CELLSTYLE_END
300
CELLSTYLE
  1
TABLEFORMAT_BEGIN
 90
        5
170
     1
 91
        0
 92
        0
 62
   257
 93
        1
300
CONTENTFORMAT
  1
CONTENTFORMAT_BEGIN
 90
        0
 91
        0
 92
      512
 93
        0
300

 40
0.0
140
1.0
 94
        5
 62
     0
340
F
144
0.18
309
CONTENTFORMAT_END
171
     0
 94
        0
309
TABLEFORMAT_END
  1
CELLSTYLE_BEGIN
 90
        2
 91
        1
300
_HEADER
309
CELLSTYLE_END
300
CELLSTYLE
  1
TABLEFORMAT_BEGIN
 90
        5
170
     1
 91
        0
 92
        0
 62
   257
 93
        1
300
CONTENTFORMAT
  1
CONTENTFORMAT_BEGIN
 90
        0
 91
        0
 92
      512
 93
        0
300

 40
0.0
140
1.0
 94
        2
 62
     0
340
F
144
0.18
309
CONTENTFORMAT_END
171
     0
 94
        0
309
TABLEFORMAT_END
  1
CELLSTYLE_BEGIN
 90
        3
 91
        2
300
_DATA
309
CELLSTYLE_END
  0
XRECORD
  5
40B9
102
{ACAD_REACTORS
330
4077
102
}
330
4077
100
AcDbXrecord
280
     1
102
ACAD_ROUNDTRIP_PRE2007_TABLESTYLE
 90
      512
 91
        0
  1

 92
      512
 93
        0
  2

 94
      512
 95
        0
  3

  0
XRECORD
  5
4094
102
{ACAD_REACTORS
330
4093
102
}
330
4093
100
AcDbXrecord
280
     1
102
RTVSPost2010Prop28
280
     1
102
RTVSPost2010PropOp28
 70
     1
102
RTVSPost2010Prop29
280
     1
102
RTVSPost2010PropOp29
 70
     1
102
RTVSPost2010Prop30
280
     0
102
RTVSPost2010PropOp30
 70
     1
102
RTVSPost2010Prop31
280
     0
102
RTVSPost2010PropOp31
 70
     1
102
RTVSPost2010Prop32
280
     0
102
RTVSPost2010PropOp32
 70
     1
102
RTVSPost2010Prop33
280
     0
102
RTVSPost2010PropOp33
 70
     1
102
RTVSPost2010Prop34
280
     0
102
RTVSPost2010PropOp34
 70
     1
102
RTVSPost2010Prop35
280
     0
102
RTVSPost2010PropOp35
 70
     1
102
RTVSPost2010Prop36
280
     0
102
RTVSPost2010PropOp36
 70
     1
102
RTVSPost2010Prop37
 90
       50
102
RTVSPost2010PropOp37
 70
     1
102
RTVSPost2010Prop38
140
0.0
102
RTVSPost2010PropOp38
 70
     1
102
RTVSPost2010Prop39
140
1.0
102
RTVSPost2010PropOp39
 70
     1
102
RTVSPost2010Prop40
 90
        0
102
RTVSPost2010PropOp40
 70
     1
102
RTVSPost2010Prop41ColorIndex
 90
       18
102
RTVSPost2010Prop41ColorRGB
 90
        0
102
RTVSPost2010PropOp41
 70
     1
102
RTVSPost2010Prop42
 90
       50
102
RTVSPost2010PropOp42
 70
     1
102
RTVSPost2010Prop43
 90
        3
102
RTVSPost2010PropOp43
 70
     1
102
RTVSPost2010Prop44ColorIndex
 90
        5
102
RTVSPost2010Prop44ColorRGB
 90
      255
102
RTVSPost2010PropOp44
 70
     1
102
RTVSPost2010Prop45
280
     0
102
RTVSPost2010PropOp45
 70
     1
102
RTVSPost2010Prop46
 90
       50
102
RTVSPost2010PropOp46
 70
     1
102
RTVSPost2010Prop47
 90
       50
102
RTVSPost2010PropOp47
 70
     1
102
RTVSPost2010Prop48
 90
       50
102
RTVSPost2010PropOp48
 70
     1
102
RTVSPost2010Prop49
280
     0
102
RTVSPost2010PropOp49
 70
     1
102
RTVSPost2010Prop50
 90
       50
102
RTVSPost2010PropOp50
 70
     1
102
RTVSPost2010Prop51ColorIndex
 90
      256
102
RTVSPost2010Prop51ColorRGB
 90
-16777216
102
RTVSPost2010PropOp51
 70
     0
102
RTVSPost2010Prop52
140
1.0
102
RTVSPost2010PropOp52
 70
     0
102
RTVSPost2010Prop53
 90
        2
102
RTVSPost2010PropOp53
 70
     1
102
RTVSPost2010Prop54
  1
strokes_ogs.tif
102
RTVSPost2010PropOp54
 70
     1
102
RTVSPost2010Prop55
280
     0
102
RTVSPost2010PropOp55
 70
     1
102
RTVSPost2010Prop56
140
1.0
102
RTVSPost2010PropOp56
 70
     1
102
RTVSPost2010Prop57
140
1.0
102
RTVSPost2010PropOp57
 70
     1
102
RTVSPropertyOp0
 70
     1
102
RTVSPropertyOp1
 70
     1
102
RTVSPropertyOp2
 70
     1
102
RTVSPropertyOp3
 70
     1
102
RTVSPropertyOp4
 70
     1
102
RTVSPropertyOp5
 70
     1
102
RTVSPropertyOp6
 70
     1
102
RTVSPropertyOp7
 70
     1
102
RTVSPropertyOp8
 70
     1
102
RTVSPropertyOp9
 70
     1
102
RTVSPropertyOp10
 70
     1
102
RTVSPropertyOp11
 70
     1
102
RTVSPropertyOp12
 70
     1
102
RTVSPropertyOp13
 70
     1
102
RTVSPropertyOp14
 70
     1
102
RTVSPropertyOp15
 70
     1
102
RTVSPropertyOp16
 70
     1
102
RTVSPropertyOp17
 70
     1
102
RTVSPropertyOp18
 70
     1
102
RTVSPropertyOp19
 70
     1
102
RTVSPropertyOp20
 70
     1
102
RTVSPropertyOp21
 70
     1
102
RTVSPropertyOp22
 70
     1
102
RTVSPropertyOp23
 70
     1
102
RTVSPropertyOp24
 70
     1
102
RTVSPropertyOp25
 70
     1
102
RTVSPropertyOp26
 70
     1
102
RTVSPropertyOp27
 70
     1
102
RTVSPropertyOp28
 70
     1
102
RTVSPropertyOp29
 70
     1
102
RTVSPropertyOp30
 70
     1
102
RTVSPropertyOp31
 70
     1
102
RTVSPropertyOp32
 70
     1
102
RTVSPropertyOp33
 70
     1
102
RTVSPropertyOp34
 70
     1
102
RTVSPropertyOp35
 70
     1
102
RTVSPropertyOp36
 70
     1
102
RTVSPropertyOp37
 70
     1
102
RTVSPropertyOp38
 70
     1
102
RTVSPropertyOp39
 70
     1
102
RTVSPropertyOp40
 70
     1
102
RTVSPropertyOp41
 70
     1
102
RTVSPropertyOp42
 70
     1
102
RTVSPropertyOp43
 70
     1
102
RTVSPropertyOp44
 70
     1
102
RTVSPropertyOp45
 70
     1
102
RTVSPropertyOp46
 70
     1
102
RTVSPropertyOp47
 70
     1
102
RTVSPropertyOp48
 70
     1
102
RTVSPropertyOp49
 70
     1
102
RTVSPropertyOp50
 70
     1
102
RTVSPropertyOp51
 70
     0
102
RTVSPropertyOp52
 70
     0
102
RTVSPropertyOp53
 70
     1
102
RTVSPropertyOp54
 70
     1
102
RTVSPropertyOp55
 70
     1
102
RTVSPropertyOp56
 70
     1
102
RTVSPropertyOp57
 70
     1
102
RTVSPropertyOp58
 70
     1
102
RTVSPropertyOp59
 70
     1
102
RTVSPropertyOp60
 70
     1
102
RTVSPropertyOp61
 70
     1
102
RTVSPropertyOp62
 70
     1
  0
XRECORD
  5
4092
102
{ACAD_REACTORS
330
4091
102
}
330
4091
100
AcDbXrecord
280
     1
102
RTVSPost2010Prop28
280
     0
102
RTVSPost2010PropOp28
 70
     1
102
RTVSPost2010Prop29
280
     1
102
RTVSPost2010PropOp29
 70
     1
102
RTVSPost2010Prop30
280
     1
102
RTVSPost2010PropOp30
 70
     1
102
RTVSPost2010Prop31
280
     0
102
RTVSPost2010PropOp31
 70
     1
102
RTVSPost2010Prop32
280
     0
102
RTVSPost2010PropOp32
 70
     1
102
RTVSPost2010Prop33
280
     0
102
RTVSPost2010PropOp33
 70
     1
102
RTVSPost2010Prop34
280
     0
102
RTVSPost2010PropOp34
 70
     1
102
RTVSPost2010Prop35
280
     0
102
RTVSPost2010PropOp35
 70
     1
102
RTVSPost2010Prop36
280
     0
102
RTVSPost2010PropOp36
 70
     1
102
RTVSPost2010Prop37
 90
       50
102
RTVSPost2010PropOp37
 70
     1
102
RTVSPost2010Prop38
140
0.0
102
RTVSPost2010PropOp38
 70
     1
102
RTVSPost2010Prop39
140
1.0
102
RTVSPost2010PropOp39
 70
     1
102
RTVSPost2010Prop40
 90
        0
102
RTVSPost2010PropOp40
 70
     1
102
RTVSPost2010Prop41ColorIndex
 90
       18
102
RTVSPost2010Prop41ColorRGB
 90
        0
102
RTVSPost2010PropOp41
 70
     1
102
RTVSPost2010Prop42
 90
       50
102
RTVSPost2010PropOp42
 70
     1
102
RTVSPost2010Prop43
 90
        3
102
RTVSPost2010PropOp43
 70
     1
102
RTVSPost2010Prop44ColorIndex
 90
        5
102
RTVSPost2010Prop44ColorRGB
 90
      255
102
RTVSPost2010PropOp44
 70
     1
102
RTVSPost2010Prop45
280
     0
102
RTVSPost2010PropOp45
 70
     1
102
RTVSPost2010Prop46
 90
       50
102
RTVSPost2010PropOp46
 70
     1
102
RTVSPost2010Prop47
 90
       50
102
RTVSPost2010PropOp47
 70
     1
102
RTVSPost2010Prop48
 90
       50
102
RTVSPost2010PropOp48
 70
     1
102
RTVSPost2010Prop49
280
     0
102
RTVSPost2010PropOp49
 70
     1
102
RTVSPost2010Prop50
 90
       50
102
RTVSPost2010PropOp50
 70
     1
102
RTVSPost2010Prop51ColorIndex
 90
      256
102
RTVSPost2010Prop51ColorRGB
 90
-16777216
102
RTVSPost2010PropOp51
 70
     0
102
RTVSPost2010Prop52
140
1.0
102
RTVSPost2010PropOp52
 70
     0
102
RTVSPost2010Prop53
 90
        2
102
RTVSPost2010PropOp53
 70
     1
102
RTVSPost2010Prop54
  1
strokes_ogs.tif
102
RTVSPost2010PropOp54
 70
     1
102
RTVSPost2010Prop55
280
     0
102
RTVSPost2010PropOp55
 70
     1
102
RTVSPost2010Prop56
140
1.0
102
RTVSPost2010PropOp56
 70
     1
102
RTVSPost2010Prop57
140
1.0
102
RTVSPost2010PropOp57
 70
     1
102
RTVSPropertyOp0
 70
     1
102
RTVSPropertyOp1
 70
     1
102
RTVSPropertyOp2
 70
     1
102
RTVSPropertyOp3
 70
     1
102
RTVSPropertyOp4
 70
     1
102
RTVSPropertyOp5
 70
     1
102
RTVSPropertyOp6
 70
     1
102
RTVSPropertyOp7
 70
     1
102
RTVSPropertyOp8
 70
     1
102
RTVSPropertyOp9
 70
     1
102
RTVSPropertyOp10
 70
     1
102
RTVSPropertyOp11
 70
     1
102
RTVSPropertyOp12
 70
     1
102
RTVSPropertyOp13
 70
     1
102
RTVSPropertyOp14
 70
     1
102
RTVSPropertyOp15
 70
     1
102
RTVSPropertyOp16
 70
     1
102
RTVSPropertyOp17
 70
     1
102
RTVSPropertyOp18
 70
     1
102
RTVSPropertyOp19
 70
     1
102
RTVSPropertyOp20
 70
     1
102
RTVSPropertyOp21
 70
     1
102
RTVSPropertyOp22
 70
     1
102
RTVSPropertyOp23
 70
     1
102
RTVSPropertyOp24
 70
     1
102
RTVSPropertyOp25
 70
     1
102
RTVSPropertyOp26
 70
     1
102
RTVSPropertyOp27
 70
     1
102
RTVSPropertyOp28
 70
     1
102
RTVSPropertyOp29
 70
     1
102
RTVSPropertyOp30
 70
     1
102
RTVSPropertyOp31
 70
     1
102
RTVSPropertyOp32
 70
     1
102
RTVSPropertyOp33
 70
     1
102
RTVSPropertyOp34
 70
     1
102
RTVSPropertyOp35
 70
     1
102
RTVSPropertyOp36
 70
     1
102
RTVSPropertyOp37
 70
     1
102
RTVSPropertyOp38
 70
     1
102
RTVSPropertyOp39
 70
     1
102
RTVSPropertyOp40
 70
     1
102
RTVSPropertyOp41
 70
     1
102
RTVSPropertyOp42
 70
     1
102
RTVSPropertyOp43
 70
     1
102
RTVSPropertyOp44
 70
     1
102
RTVSPropertyOp45
 70
     1
102
RTVSPropertyOp46
 70
     1
102
RTVSPropertyOp47
 70
     1
102
RTVSPropertyOp48
 70
     1
102
RTVSPropertyOp49
 70
     1
102
RTVSPropertyOp50
 70
     1
102
RTVSPropertyOp51
 70
     0
102
RTVSPropertyOp52
 70
     0
102
RTVSPropertyOp53
 70
     1
102
RTVSPropertyOp54
 70
     1
102
RTVSPropertyOp55
 70
     1
102
RTVSPropertyOp56
 70
     1
102
RTVSPropertyOp57
 70
     1
102
RTVSPropertyOp58
 70
     1
102
RTVSPropertyOp59
 70
     1
102
RTVSPropertyOp60
 70
     1
102
RTVSPropertyOp61
 70
     1
102
RTVSPropertyOp62
 70
     1
  0
XRECORD
  5
40A0
102
{ACAD_REACTORS
330
409F
102
}
330
409F
100
AcDbXrecord
280
     1
102
RTVSPost2010Prop28
280
     0
102
RTVSPost2010PropOp28
 70
     1
102
RTVSPost2010Prop29
280
     1
102
RTVSPost2010PropOp29
 70
     1
102
RTVSPost2010Prop30
280
     1
102
RTVSPost2010PropOp30
 70
     1
102
RTVSPost2010Prop31
280
     0
102
RTVSPost2010PropOp31
 70
     1
102
RTVSPost2010Prop32
280
     0
102
RTVSPost2010PropOp32
 70
     1
102
RTVSPost2010Prop33
280
     0
102
RTVSPost2010PropOp33
 70
     1
102
RTVSPost2010Prop34
280
     0
102
RTVSPost2010PropOp34
 70
     1
102
RTVSPost2010Prop35
280
     0
102
RTVSPost2010PropOp35
 70
     1
102
RTVSPost2010Prop36
280
     0
102
RTVSPost2010PropOp36
 70
     1
102
RTVSPost2010Prop37
 90
       50
102
RTVSPost2010PropOp37
 70
     1
102
RTVSPost2010Prop38
140
0.0
102
RTVSPost2010PropOp38
 70
     1
102
RTVSPost2010Prop39
140
1.0
102
RTVSPost2010PropOp39
 70
     1
102
RTVSPost2010Prop40
 90
        0
102
RTVSPost2010PropOp40
 70
     1
102
RTVSPost2010Prop41ColorIndex
 90
       18
102
RTVSPost2010Prop41ColorRGB
 90
        0
102
RTVSPost2010PropOp41
 70
     1
102
RTVSPost2010Prop42
 90
       50
102
RTVSPost2010PropOp42
 70
     1
102
RTVSPost2010Prop43
 90
        3
102
RTVSPost2010PropOp43
 70
     1
102
RTVSPost2010Prop44ColorIndex
 90
        5
102
RTVSPost2010Prop44ColorRGB
 90
      255
102
RTVSPost2010PropOp44
 70
     1
102
RTVSPost2010Prop45
280
     0
102
RTVSPost2010PropOp45
 70
     1
102
RTVSPost2010Prop46
 90
       50
102
RTVSPost2010PropOp46
 70
     1
102
RTVSPost2010Prop47
 90
       50
102
RTVSPost2010PropOp47
 70
     1
102
RTVSPost2010Prop48
 90
       50
102
RTVSPost2010PropOp48
 70
     1
102
RTVSPost2010Prop49
280
     0
102
RTVSPost2010PropOp49
 70
     1
102
RTVSPost2010Prop50
 90
       50
102
RTVSPost2010PropOp50
 70
     1
102
RTVSPost2010Prop51ColorIndex
 90
      256
102
RTVSPost2010Prop51ColorRGB
 90
-16777216
102
RTVSPost2010PropOp51
 70
     0
102
RTVSPost2010Prop52
140
1.0
102
RTVSPost2010PropOp52
 70
     0
102
RTVSPost2010Prop53
 90
        2
102
RTVSPost2010PropOp53
 70
     1
102
RTVSPost2010Prop54
  1
strokes_ogs.tif
102
RTVSPost2010PropOp54
 70
     1
102
RTVSPost2010Prop55
280
     0
102
RTVSPost2010PropOp55
 70
     1
102
RTVSPost2010Prop56
140
1.0
102
RTVSPost2010PropOp56
 70
     1
102
RTVSPost2010Prop57
140
1.0
102
RTVSPost2010PropOp57
 70
     1
102
RTVSPropertyOp0
 70
     1
102
RTVSPropertyOp1
 70
     1
102
RTVSPropertyOp2
 70
     1
102
RTVSPropertyOp3
 70
     1
102
RTVSPropertyOp4
 70
     1
102
RTVSPropertyOp5
 70
     1
102
RTVSPropertyOp6
 70
     1
102
RTVSPropertyOp7
 70
     1
102
RTVSPropertyOp8
 70
     1
102
RTVSPropertyOp9
 70
     1
102
RTVSPropertyOp10
 70
     1
102
RTVSPropertyOp11
 70
     1
102
RTVSPropertyOp12
 70
     1
102
RTVSPropertyOp13
 70
     1
102
RTVSPropertyOp14
 70
     1
102
RTVSPropertyOp15
 70
     1
102
RTVSPropertyOp16
 70
     1
102
RTVSPropertyOp17
 70
     1
102
RTVSPropertyOp18
 70
     1
102
RTVSPropertyOp19
 70
     1
102
RTVSPropertyOp20
 70
     1
102
RTVSPropertyOp21
 70
     1
102
RTVSPropertyOp22
 70
     1
102
RTVSPropertyOp23
 70
     1
102
RTVSPropertyOp24
 70
     1
102
RTVSPropertyOp25
 70
     1
102
RTVSPropertyOp26
 70
     1
102
RTVSPropertyOp27
 70
     1
102
RTVSPropertyOp28
 70
     1
102
RTVSPropertyOp29
 70
     1
102
RTVSPropertyOp30
 70
     1
102
RTVSPropertyOp31
 70
     1
102
RTVSPropertyOp32
 70
     1
102
RTVSPropertyOp33
 70
     1
102
RTVSPropertyOp34
 70
     1
102
RTVSPropertyOp35
 70
     1
102
RTVSPropertyOp36
 70
     1
102
RTVSPropertyOp37
 70
     1
102
RTVSPropertyOp38
 70
     1
102
RTVSPropertyOp39
 70
     1
102
RTVSPropertyOp40
 70
     1
102
RTVSPropertyOp41
 70
     1
102
RTVSPropertyOp42
 70
     1
102
RTVSPropertyOp43
 70
     1
102
RTVSPropertyOp44
 70
     1
102
RTVSPropertyOp45
 70
     1
102
RTVSPropertyOp46
 70
     1
102
RTVSPropertyOp47
 70
     1
102
RTVSPropertyOp48
 70
     1
102
RTVSPropertyOp49
 70
     1
102
RTVSPropertyOp50
 70
     1
102
RTVSPropertyOp51
 70
     0
102
RTVSPropertyOp52
 70
     0
102
RTVSPropertyOp53
 70
     1
102
RTVSPropertyOp54
 70
     1
102
RTVSPropertyOp55
 70
     1
102
RTVSPropertyOp56
 70
     1
102
RTVSPropertyOp57
 70
     1
102
RTVSPropertyOp58
 70
     1
102
RTVSPropertyOp59
 70
     1
102
RTVSPropertyOp60
 70
     1
102
RTVSPropertyOp61
 70
     1
102
RTVSPropertyOp62
 70
     1
  0
XRECORD
  5
40A8
102
{ACAD_REACTORS
330
40A7
102
}
330
40A7
100
AcDbXrecord
280
     1
102
RTVSPost2010Prop28
280
     0
102
RTVSPost2010PropOp28
 70
     1
102
RTVSPost2010Prop29
280
     1
102
RTVSPost2010PropOp29
 70
     1
102
RTVSPost2010Prop30
280
     1
102
RTVSPost2010PropOp30
 70
     1
102
RTVSPost2010Prop31
280
     0
102
RTVSPost2010PropOp31
 70
     1
102
RTVSPost2010Prop32
280
     0
102
RTVSPost2010PropOp32
 70
     1
102
RTVSPost2010Prop33
280
     0
102
RTVSPost2010PropOp33
 70
     1
102
RTVSPost2010Prop34
280
     0
102
RTVSPost2010PropOp34
 70
     1
102
RTVSPost2010Prop35
280
     0
102
RTVSPost2010PropOp35
 70
     1
102
RTVSPost2010Prop36
280
     0
102
RTVSPost2010PropOp36
 70
     1
102
RTVSPost2010Prop37
 90
       50
102
RTVSPost2010PropOp37
 70
     1
102
RTVSPost2010Prop38
140
0.0
102
RTVSPost2010PropOp38
 70
     1
102
RTVSPost2010Prop39
140
1.0
102
RTVSPost2010PropOp39
 70
     1
102
RTVSPost2010Prop40
 90
        0
102
RTVSPost2010PropOp40
 70
     1
102
RTVSPost2010Prop41ColorIndex
 90
       18
102
RTVSPost2010Prop41ColorRGB
 90
        0
102
RTVSPost2010PropOp41
 70
     1
102
RTVSPost2010Prop42
 90
       50
102
RTVSPost2010PropOp42
 70
     1
102
RTVSPost2010Prop43
 90
        3
102
RTVSPost2010PropOp43
 70
     1
102
RTVSPost2010Prop44ColorIndex
 90
        5
102
RTVSPost2010Prop44ColorRGB
 90
      255
102
RTVSPost2010PropOp44
 70
     1
102
RTVSPost2010Prop45
280
     0
102
RTVSPost2010PropOp45
 70
     1
102
RTVSPost2010Prop46
 90
       50
102
RTVSPost2010PropOp46
 70
     1
102
RTVSPost2010Prop47
 90
       50
102
RTVSPost2010PropOp47
 70
     1
102
RTVSPost2010Prop48
 90
       50
102
RTVSPost2010PropOp48
 70
     1
102
RTVSPost2010Prop49
280
     0
102
RTVSPost2010PropOp49
 70
     1
102
RTVSPost2010Prop50
 90
       50
102
RTVSPost2010PropOp50
 70
     1
102
RTVSPost2010Prop51ColorIndex
 90
      256
102
RTVSPost2010Prop51ColorRGB
 90
-16777216
102
RTVSPost2010PropOp51
 70
     0
102
RTVSPost2010Prop52
140
1.0
102
RTVSPost2010PropOp52
 70
     0
102
RTVSPost2010Prop53
 90
        2
102
RTVSPost2010PropOp53
 70
     1
102
RTVSPost2010Prop54
  1
strokes_ogs.tif
102
RTVSPost2010PropOp54
 70
     1
102
RTVSPost2010Prop55
280
     0
102
RTVSPost2010PropOp55
 70
     1
102
RTVSPost2010Prop56
140
1.0
102
RTVSPost2010PropOp56
 70
     1
102
RTVSPost2010Prop57
140
1.0
102
RTVSPost2010PropOp57
 70
     1
102
RTVSPropertyOp0
 70
     1
102
RTVSPropertyOp1
 70
     1
102
RTVSPropertyOp2
 70
     1
102
RTVSPropertyOp3
 70
     1
102
RTVSPropertyOp4
 70
     1
102
RTVSPropertyOp5
 70
     1
102
RTVSPropertyOp6
 70
     1
102
RTVSPropertyOp7
 70
     1
102
RTVSPropertyOp8
 70
     1
102
RTVSPropertyOp9
 70
     1
102
RTVSPropertyOp10
 70
     1
102
RTVSPropertyOp11
 70
     1
102
RTVSPropertyOp12
 70
     1
102
RTVSPropertyOp13
 70
     1
102
RTVSPropertyOp14
 70
     1
102
RTVSPropertyOp15
 70
     1
102
RTVSPropertyOp16
 70
     1
102
RTVSPropertyOp17
 70
     1
102
RTVSPropertyOp18
 70
     1
102
RTVSPropertyOp19
 70
     1
102
RTVSPropertyOp20
 70
     1
102
RTVSPropertyOp21
 70
     1
102
RTVSPropertyOp22
 70
     1
102
RTVSPropertyOp23
 70
     1
102
RTVSPropertyOp24
 70
     1
102
RTVSPropertyOp25
 70
     1
102
RTVSPropertyOp26
 70
     1
102
RTVSPropertyOp27
 70
     1
102
RTVSPropertyOp28
 70
     1
102
RTVSPropertyOp29
 70
     1
102
RTVSPropertyOp30
 70
     1
102
RTVSPropertyOp31
 70
     1
102
RTVSPropertyOp32
 70
     1
102
RTVSPropertyOp33
 70
     1
102
RTVSPropertyOp34
 70
     1
102
RTVSPropertyOp35
 70
     1
102
RTVSPropertyOp36
 70
     1
102
RTVSPropertyOp37
 70
     1
102
RTVSPropertyOp38
 70
     1
102
RTVSPropertyOp39
 70
     1
102
RTVSPropertyOp40
 70
     1
102
RTVSPropertyOp41
 70
     1
102
RTVSPropertyOp42
 70
     1
102
RTVSPropertyOp43
 70
     1
102
RTVSPropertyOp44
 70
     1
102
RTVSPropertyOp45
 70
     1
102
RTVSPropertyOp46
 70
     1
102
RTVSPropertyOp47
 70
     1
102
RTVSPropertyOp48
 70
     1
102
RTVSPropertyOp49
 70
     1
102
RTVSPropertyOp50
 70
     1
102
RTVSPropertyOp51
 70
     0
102
RTVSPropertyOp52
 70
     0
102
RTVSPropertyOp53
 70
     1
102
RTVSPropertyOp54
 70
     1
102
RTVSPropertyOp55
 70
     1
102
RTVSPropertyOp56
 70
     1
102
RTVSPropertyOp57
 70
     1
102
RTVSPropertyOp58
 70
     1
102
RTVSPropertyOp59
 70
     1
102
RTVSPropertyOp60
 70
     1
102
RTVSPropertyOp61
 70
     1
102
RTVSPropertyOp62
 70
     1
  0
XRECORD
  5
409A
102
{ACAD_REACTORS
330
4099
102
}
330
4099
100
AcDbXrecord
280
     1
102
RTVSPost2010Prop28
280
     0
102
RTVSPost2010PropOp28
 70
     1
102
RTVSPost2010Prop29
280
     1
102
RTVSPost2010PropOp29
 70
     1
102
RTVSPost2010Prop30
280
     1
102
RTVSPost2010PropOp30
 70
     1
102
RTVSPost2010Prop31
280
     0
102
RTVSPost2010PropOp31
 70
     1
102
RTVSPost2010Prop32
280
     0
102
RTVSPost2010PropOp32
 70
     1
102
RTVSPost2010Prop33
280
     0
102
RTVSPost2010PropOp33
 70
     1
102
RTVSPost2010Prop34
280
     0
102
RTVSPost2010PropOp34
 70
     1
102
RTVSPost2010Prop35
280
     0
102
RTVSPost2010PropOp35
 70
     1
102
RTVSPost2010Prop36
280
     0
102
RTVSPost2010PropOp36
 70
     1
102
RTVSPost2010Prop37
 90
       50
102
RTVSPost2010PropOp37
 70
     1
102
RTVSPost2010Prop38
140
0.0
102
RTVSPost2010PropOp38
 70
     1
102
RTVSPost2010Prop39
140
1.0
102
RTVSPost2010PropOp39
 70
     1
102
RTVSPost2010Prop40
 90
        0
102
RTVSPost2010PropOp40
 70
     1
102
RTVSPost2010Prop41ColorIndex
 90
       18
102
RTVSPost2010Prop41ColorRGB
 90
        0
102
RTVSPost2010PropOp41
 70
     1
102
RTVSPost2010Prop42
 90
       50
102
RTVSPost2010PropOp42
 70
     1
102
RTVSPost2010Prop43
 90
        3
102
RTVSPost2010PropOp43
 70
     1
102
RTVSPost2010Prop44ColorIndex
 90
        5
102
RTVSPost2010Prop44ColorRGB
 90
      255
102
RTVSPost2010PropOp44
 70
     1
102
RTVSPost2010Prop45
280
     0
102
RTVSPost2010PropOp45
 70
     1
102
RTVSPost2010Prop46
 90
       50
102
RTVSPost2010PropOp46
 70
     1
102
RTVSPost2010Prop47
 90
       50
102
RTVSPost2010PropOp47
 70
     1
102
RTVSPost2010Prop48
 90
       50
102
RTVSPost2010PropOp48
 70
     1
102
RTVSPost2010Prop49
280
     0
102
RTVSPost2010PropOp49
 70
     1
102
RTVSPost2010Prop50
 90
       50
102
RTVSPost2010PropOp50
 70
     1
102
RTVSPost2010Prop51ColorIndex
 90
      256
102
RTVSPost2010Prop51ColorRGB
 90
-16777216
102
RTVSPost2010PropOp51
 70
     0
102
RTVSPost2010Prop52
140
1.0
102
RTVSPost2010PropOp52
 70
     0
102
RTVSPost2010Prop53
 90
        2
102
RTVSPost2010PropOp53
 70
     1
102
RTVSPost2010Prop54
  1
strokes_ogs.tif
102
RTVSPost2010PropOp54
 70
     1
102
RTVSPost2010Prop55
280
     0
102
RTVSPost2010PropOp55
 70
     1
102
RTVSPost2010Prop56
140
1.0
102
RTVSPost2010PropOp56
 70
     1
102
RTVSPost2010Prop57
140
1.0
102
RTVSPost2010PropOp57
 70
     1
102
RTVSPropertyOp0
 70
     1
102
RTVSPropertyOp1
 70
     1
102
RTVSPropertyOp2
 70
     1
102
RTVSPropertyOp3
 70
     1
102
RTVSPropertyOp4
 70
     1
102
RTVSPropertyOp5
 70
     1
102
RTVSPropertyOp6
 70
     1
102
RTVSPropertyOp7
 70
     1
102
RTVSPropertyOp8
 70
     1
102
RTVSPropertyOp9
 70
     1
102
RTVSPropertyOp10
 70
     1
102
RTVSPropertyOp11
 70
     1
102
RTVSPropertyOp12
 70
     1
102
RTVSPropertyOp13
 70
     1
102
RTVSPropertyOp14
 70
     1
102
RTVSPropertyOp15
 70
     1
102
RTVSPropertyOp16
 70
     1
102
RTVSPropertyOp17
 70
     1
102
RTVSPropertyOp18
 70
     1
102
RTVSPropertyOp19
 70
     1
102
RTVSPropertyOp20
 70
     1
102
RTVSPropertyOp21
 70
     1
102
RTVSPropertyOp22
 70
     1
102
RTVSPropertyOp23
 70
     1
102
RTVSPropertyOp24
 70
     1
102
RTVSPropertyOp25
 70
     1
102
RTVSPropertyOp26
 70
     1
102
RTVSPropertyOp27
 70
     1
102
RTVSPropertyOp28
 70
     1
102
RTVSPropertyOp29
 70
     1
102
RTVSPropertyOp30
 70
     1
102
RTVSPropertyOp31
 70
     1
102
RTVSPropertyOp32
 70
     1
102
RTVSPropertyOp33
 70
     1
102
RTVSPropertyOp34
 70
     1
102
RTVSPropertyOp35
 70
     1
102
RTVSPropertyOp36
 70
     1
102
RTVSPropertyOp37
 70
     1
102
RTVSPropertyOp38
 70
     1
102
RTVSPropertyOp39
 70
     1
102
RTVSPropertyOp40
 70
     1
102
RTVSPropertyOp41
 70
     1
102
RTVSPropertyOp42
 70
     1
102
RTVSPropertyOp43
 70
     1
102
RTVSPropertyOp44
 70
     1
102
RTVSPropertyOp45
 70
     1
102
RTVSPropertyOp46
 70
     1
102
RTVSPropertyOp47
 70
     1
102
RTVSPropertyOp48
 70
     1
102
RTVSPropertyOp49
 70
     1
102
RTVSPropertyOp50
 70
     1
102
RTVSPropertyOp51
 70
     0
102
RTVSPropertyOp52
 70
     0
102
RTVSPropertyOp53
 70
     1
102
RTVSPropertyOp54
 70
     1
102
RTVSPropertyOp55
 70
     1
102
RTVSPropertyOp56
 70
     1
102
RTVSPropertyOp57
 70
     1
102
RTVSPropertyOp58
 70
     1
102
RTVSPropertyOp59
 70
     1
102
RTVSPropertyOp60
 70
     1
102
RTVSPropertyOp61
 70
     1
102
RTVSPropertyOp62
 70
     1
  0
XRECORD
  5
409E
102
{ACAD_REACTORS
330
409D
102
}
330
409D
100
AcDbXrecord
280
     1
102
RTVSPost2010Prop28
280
     0
102
RTVSPost2010PropOp28
 70
     1
102
RTVSPost2010Prop29
280
     1
102
RTVSPost2010PropOp29
 70
     1
102
RTVSPost2010Prop30
280
     1
102
RTVSPost2010PropOp30
 70
     1
102
RTVSPost2010Prop31
280
     0
102
RTVSPost2010PropOp31
 70
     1
102
RTVSPost2010Prop32
280
     0
102
RTVSPost2010PropOp32
 70
     1
102
RTVSPost2010Prop33
280
     0
102
RTVSPost2010PropOp33
 70
     1
102
RTVSPost2010Prop34
280
     0
102
RTVSPost2010PropOp34
 70
     1
102
RTVSPost2010Prop35
280
     0
102
RTVSPost2010PropOp35
 70
     1
102
RTVSPost2010Prop36
280
     0
102
RTVSPost2010PropOp36
 70
     1
102
RTVSPost2010Prop37
 90
       50
102
RTVSPost2010PropOp37
 70
     1
102
RTVSPost2010Prop38
140
0.0
102
RTVSPost2010PropOp38
 70
     1
102
RTVSPost2010Prop39
140
1.0
102
RTVSPost2010PropOp39
 70
     1
102
RTVSPost2010Prop40
 90
        0
102
RTVSPost2010PropOp40
 70
     1
102
RTVSPost2010Prop41ColorIndex
 90
       18
102
RTVSPost2010Prop41ColorRGB
 90
        0
102
RTVSPost2010PropOp41
 70
     1
102
RTVSPost2010Prop42
 90
       50
102
RTVSPost2010PropOp42
 70
     1
102
RTVSPost2010Prop43
 90
        3
102
RTVSPost2010PropOp43
 70
     1
102
RTVSPost2010Prop44ColorIndex
 90
        5
102
RTVSPost2010Prop44ColorRGB
 90
      255
102
RTVSPost2010PropOp44
 70
     1
102
RTVSPost2010Prop45
280
     0
102
RTVSPost2010PropOp45
 70
     1
102
RTVSPost2010Prop46
 90
       50
102
RTVSPost2010PropOp46
 70
     1
102
RTVSPost2010Prop47
 90
       50
102
RTVSPost2010PropOp47
 70
     1
102
RTVSPost2010Prop48
 90
       50
102
RTVSPost2010PropOp48
 70
     1
102
RTVSPost2010Prop49
280
     0
102
RTVSPost2010PropOp49
 70
     1
102
RTVSPost2010Prop50
 90
       50
102
RTVSPost2010PropOp50
 70
     1
102
RTVSPost2010Prop51ColorIndex
 90
      256
102
RTVSPost2010Prop51ColorRGB
 90
-16777216
102
RTVSPost2010PropOp51
 70
     0
102
RTVSPost2010Prop52
140
1.0
102
RTVSPost2010PropOp52
 70
     0
102
RTVSPost2010Prop53
 90
        2
102
RTVSPost2010PropOp53
 70
     1
102
RTVSPost2010Prop54
  1
strokes_ogs.tif
102
RTVSPost2010PropOp54
 70
     1
102
RTVSPost2010Prop55
280
     0
102
RTVSPost2010PropOp55
 70
     1
102
RTVSPost2010Prop56
140
1.0
102
RTVSPost2010PropOp56
 70
     1
102
RTVSPost2010Prop57
140
1.0
102
RTVSPost2010PropOp57
 70
     1
102
RTVSPropertyOp0
 70
     1
102
RTVSPropertyOp1
 70
     1
102
RTVSPropertyOp2
 70
     1
102
RTVSPropertyOp3
 70
     1
102
RTVSPropertyOp4
 70
     1
102
RTVSPropertyOp5
 70
     1
102
RTVSPropertyOp6
 70
     1
102
RTVSPropertyOp7
 70
     1
102
RTVSPropertyOp8
 70
     1
102
RTVSPropertyOp9
 70
     1
102
RTVSPropertyOp10
 70
     1
102
RTVSPropertyOp11
 70
     1
102
RTVSPropertyOp12
 70
     1
102
RTVSPropertyOp13
 70
     1
102
RTVSPropertyOp14
 70
     1
102
RTVSPropertyOp15
 70
     1
102
RTVSPropertyOp16
 70
     1
102
RTVSPropertyOp17
 70
     1
102
RTVSPropertyOp18
 70
     1
102
RTVSPropertyOp19
 70
     1
102
RTVSPropertyOp20
 70
     1
102
RTVSPropertyOp21
 70
     1
102
RTVSPropertyOp22
 70
     1
102
RTVSPropertyOp23
 70
     1
102
RTVSPropertyOp24
 70
     1
102
RTVSPropertyOp25
 70
     1
102
RTVSPropertyOp26
 70
     1
102
RTVSPropertyOp27
 70
     1
102
RTVSPropertyOp28
 70
     1
102
RTVSPropertyOp29
 70
     1
102
RTVSPropertyOp30
 70
     1
102
RTVSPropertyOp31
 70
     1
102
RTVSPropertyOp32
 70
     1
102
RTVSPropertyOp33
 70
     1
102
RTVSPropertyOp34
 70
     1
102
RTVSPropertyOp35
 70
     1
102
RTVSPropertyOp36
 70
     1
102
RTVSPropertyOp37
 70
     1
102
RTVSPropertyOp38
 70
     1
102
RTVSPropertyOp39
 70
     1
102
RTVSPropertyOp40
 70
     1
102
RTVSPropertyOp41
 70
     1
102
RTVSPropertyOp42
 70
     1
102
RTVSPropertyOp43
 70
     1
102
RTVSPropertyOp44
 70
     1
102
RTVSPropertyOp45
 70
     1
102
RTVSPropertyOp46
 70
     1
102
RTVSPropertyOp47
 70
     1
102
RTVSPropertyOp48
 70
     1
102
RTVSPropertyOp49
 70
     1
102
RTVSPropertyOp50
 70
     1
102
RTVSPropertyOp51
 70
     0
102
RTVSPropertyOp52
 70
     0
102
RTVSPropertyOp53
 70
     1
102
RTVSPropertyOp54
 70
     1
102
RTVSPropertyOp55
 70
     1
102
RTVSPropertyOp56
 70
     1
102
RTVSPropertyOp57
 70
     1
102
RTVSPropertyOp58
 70
     1
102
RTVSPropertyOp59
 70
     1
102
RTVSPropertyOp60
 70
     1
102
RTVSPropertyOp61
 70
     1
102
RTVSPropertyOp62
 70
     1
  0
XRECORD
  5
40B8
102
{ACAD_REACTORS
330
40B7
102
}
330
40B7
100
AcDbXrecord
280
     1
102
RTVSPost2010Prop28
280
     0
102
RTVSPost2010PropOp28
 70
     0
102
RTVSPost2010Prop29
280
     1
102
RTVSPost2010PropOp29
 70
     0
102
RTVSPost2010Prop30
280
     1
102
RTVSPost2010PropOp30
 70
     0
102
RTVSPost2010Prop31
280
     0
102
RTVSPost2010PropOp31
 70
     0
102
RTVSPost2010Prop32
280
     0
102
RTVSPost2010PropOp32
 70
     0
102
RTVSPost2010Prop33
280
     0
102
RTVSPost2010PropOp33
 70
     0
102
RTVSPost2010Prop34
280
     0
102
RTVSPost2010PropOp34
 70
     0
102
RTVSPost2010Prop35
280
     0
102
RTVSPost2010PropOp35
 70
     0
102
RTVSPost2010Prop36
280
     0
102
RTVSPost2010PropOp36
 70
     0
102
RTVSPost2010Prop37
 90
       50
102
RTVSPost2010PropOp37
 70
     0
102
RTVSPost2010Prop38
140
0.0
102
RTVSPost2010PropOp38
 70
     0
102
RTVSPost2010Prop39
140
1.0
102
RTVSPost2010PropOp39
 70
     0
102
RTVSPost2010Prop40
 90
        0
102
RTVSPost2010PropOp40
 70
     0
102
RTVSPost2010Prop41ColorIndex
 90
       18
102
RTVSPost2010Prop41ColorRGB
 90
        0
102
RTVSPost2010PropOp41
 70
     0
102
RTVSPost2010Prop42
 90
       50
102
RTVSPost2010PropOp42
 70
     0
102
RTVSPost2010Prop43
 90
        3
102
RTVSPost2010PropOp43
 70
     0
102
RTVSPost2010Prop44ColorIndex
 90
        5
102
RTVSPost2010Prop44ColorRGB
 90
      255
102
RTVSPost2010PropOp44
 70
     0
102
RTVSPost2010Prop45
280
     0
102
RTVSPost2010PropOp45
 70
     0
102
RTVSPost2010Prop46
 90
       50
102
RTVSPost2010PropOp46
 70
     0
102
RTVSPost2010Prop47
 90
       50
102
RTVSPost2010PropOp47
 70
     0
102
RTVSPost2010Prop48
 90
       50
102
RTVSPost2010PropOp48
 70
     0
102
RTVSPost2010Prop49
280
     0
102
RTVSPost2010PropOp49
 70
     0
102
RTVSPost2010Prop50
 90
       50
102
RTVSPost2010PropOp50
 70
     0
102
RTVSPost2010Prop51ColorIndex
 90
      256
102
RTVSPost2010Prop51ColorRGB
 90
-16777216
102
RTVSPost2010PropOp51
 70
     0
102
RTVSPost2010Prop52
140
1.0
102
RTVSPost2010PropOp52
 70
     0
102
RTVSPost2010Prop53
 90
        2
102
RTVSPost2010PropOp53
 70
     0
102
RTVSPost2010Prop54
  1
strokes_ogs.tif
102
RTVSPost2010PropOp54
 70
     0
102
RTVSPost2010Prop55
280
     0
102
RTVSPost2010PropOp55
 70
     0
102
RTVSPost2010Prop56
140
1.0
102
RTVSPost2010PropOp56
 70
     0
102
RTVSPost2010Prop57
140
1.0
102
RTVSPost2010PropOp57
 70
     0
102
RTVSPropertyOp0
 70
     0
102
RTVSPropertyOp1
 70
     0
102
RTVSPropertyOp2
 70
     0
102
RTVSPropertyOp3
 70
     0
102
RTVSPropertyOp4
 70
     0
102
RTVSPropertyOp5
 70
     0
102
RTVSPropertyOp6
 70
     0
102
RTVSPropertyOp7
 70
     0
102
RTVSPropertyOp8
 70
     0
102
RTVSPropertyOp9
 70
     0
102
RTVSPropertyOp10
 70
     0
102
RTVSPropertyOp11
 70
     0
102
RTVSPropertyOp12
 70
     0
102
RTVSPropertyOp13
 70
     0
102
RTVSPropertyOp14
 70
     2
102
RTVSPropertyOp15
 70
     0
102
RTVSPropertyOp16
 70
     0
102
RTVSPropertyOp17
 70
     0
102
RTVSPropertyOp18
 70
     0
102
RTVSPropertyOp19
 70
     0
102
RTVSPropertyOp20
 70
     0
102
RTVSPropertyOp21
 70
     0
102
RTVSPropertyOp22
 70
     0
102
RTVSPropertyOp23
 70
     0
102
RTVSPropertyOp24
 70
     0
102
RTVSPropertyOp25
 70
     0
102
RTVSPropertyOp26
 70
     0
102
RTVSPropertyOp27
 70
     0
102
RTVSPropertyOp28
 70
     0
102
RTVSPropertyOp29
 70
     0
102
RTVSPropertyOp30
 70
     0
102
RTVSPropertyOp31
 70
     0
102
RTVSPropertyOp32
 70
     0
102
RTVSPropertyOp33
 70
     0
102
RTVSPropertyOp34
 70
     0
102
RTVSPropertyOp35
 70
     0
102
RTVSPropertyOp36
 70
     0
102
RTVSPropertyOp37
 70
     0
102
RTVSPropertyOp38
 70
     0
102
RTVSPropertyOp39
 70
     0
102
RTVSPropertyOp40
 70
     0
102
RTVSPropertyOp41
 70
     0
102
RTVSPropertyOp42
 70
     0
102
RTVSPropertyOp43
 70
     0
102
RTVSPropertyOp44
 70
     0
102
RTVSPropertyOp45
 70
     0
102
RTVSPropertyOp46
 70
     0
102
RTVSPropertyOp47
 70
     0
102
RTVSPropertyOp48
 70
     0
102
RTVSPropertyOp49
 70
     0
102
RTVSPropertyOp50
 70
     0
102
RTVSPropertyOp51
 70
     0
102
RTVSPropertyOp52
 70
     0
102
RTVSPropertyOp53
 70
     0
102
RTVSPropertyOp54
 70
     0
102
RTVSPropertyOp55
 70
     0
102
RTVSPropertyOp56
 70
     0
102
RTVSPropertyOp57
 70
     0
102
RTVSPropertyOp58
 70
     1
102
RTVSPropertyOp59
 70
     1
102
RTVSPropertyOp60
 70
     1
102
RTVSPropertyOp61
 70
     1
102
RTVSPropertyOp62
 70
     1
  0
XRECORD
  5
40A6
102
{ACAD_REACTORS
330
40A5
102
}
330
40A5
100
AcDbXrecord
280
     1
102
RTVSPost2010Prop28
280
     0
102
RTVSPost2010PropOp28
 70
     1
102
RTVSPost2010Prop29
280
     1
102
RTVSPost2010PropOp29
 70
     1
102
RTVSPost2010Prop30
280
     1
102
RTVSPost2010PropOp30
 70
     1
102
RTVSPost2010Prop31
280
     0
102
RTVSPost2010PropOp31
 70
     1
102
RTVSPost2010Prop32
280
     0
102
RTVSPost2010PropOp32
 70
     1
102
RTVSPost2010Prop33
280
     0
102
RTVSPost2010PropOp33
 70
     1
102
RTVSPost2010Prop34
280
     0
102
RTVSPost2010PropOp34
 70
     1
102
RTVSPost2010Prop35
280
     0
102
RTVSPost2010PropOp35
 70
     1
102
RTVSPost2010Prop36
280
     0
102
RTVSPost2010PropOp36
 70
     1
102
RTVSPost2010Prop37
 90
       50
102
RTVSPost2010PropOp37
 70
     1
102
RTVSPost2010Prop38
140
0.0
102
RTVSPost2010PropOp38
 70
     1
102
RTVSPost2010Prop39
140
1.0
102
RTVSPost2010PropOp39
 70
     1
102
RTVSPost2010Prop40
 90
        0
102
RTVSPost2010PropOp40
 70
     1
102
RTVSPost2010Prop41ColorIndex
 90
       18
102
RTVSPost2010Prop41ColorRGB
 90
        0
102
RTVSPost2010PropOp41
 70
     1
102
RTVSPost2010Prop42
 90
       50
102
RTVSPost2010PropOp42
 70
     1
102
RTVSPost2010Prop43
 90
        3
102
RTVSPost2010PropOp43
 70
     1
102
RTVSPost2010Prop44ColorIndex
 90
        5
102
RTVSPost2010Prop44ColorRGB
 90
      255
102
RTVSPost2010PropOp44
 70
     1
102
RTVSPost2010Prop45
280
     0
102
RTVSPost2010PropOp45
 70
     1
102
RTVSPost2010Prop46
 90
       50
102
RTVSPost2010PropOp46
 70
     1
102
RTVSPost2010Prop47
 90
       50
102
RTVSPost2010PropOp47
 70
     1
102
RTVSPost2010Prop48
 90
       50
102
RTVSPost2010PropOp48
 70
     1
102
RTVSPost2010Prop49
280
     0
102
RTVSPost2010PropOp49
 70
     1
102
RTVSPost2010Prop50
 90
       50
102
RTVSPost2010PropOp50
 70
     1
102
RTVSPost2010Prop51ColorIndex
 90
      256
102
RTVSPost2010Prop51ColorRGB
 90
-16777216
102
RTVSPost2010PropOp51
 70
     0
102
RTVSPost2010Prop52
140
1.0
102
RTVSPost2010PropOp52
 70
     0
102
RTVSPost2010Prop53
 90
        2
102
RTVSPost2010PropOp53
 70
     1
102
RTVSPost2010Prop54
  1
strokes_ogs.tif
102
RTVSPost2010PropOp54
 70
     1
102
RTVSPost2010Prop55
280
     0
102
RTVSPost2010PropOp55
 70
     1
102
RTVSPost2010Prop56
140
1.0
102
RTVSPost2010PropOp56
 70
     1
102
RTVSPost2010Prop57
140
1.0
102
RTVSPost2010PropOp57
 70
     1
102
RTVSPropertyOp0
 70
     1
102
RTVSPropertyOp1
 70
     1
102
RTVSPropertyOp2
 70
     1
102
RTVSPropertyOp3
 70
     1
102
RTVSPropertyOp4
 70
     1
102
RTVSPropertyOp5
 70
     1
102
RTVSPropertyOp6
 70
     1
102
RTVSPropertyOp7
 70
     1
102
RTVSPropertyOp8
 70
     1
102
RTVSPropertyOp9
 70
     1
102
RTVSPropertyOp10
 70
     1
102
RTVSPropertyOp11
 70
     1
102
RTVSPropertyOp12
 70
     1
102
RTVSPropertyOp13
 70
     1
102
RTVSPropertyOp14
 70
     1
102
RTVSPropertyOp15
 70
     1
102
RTVSPropertyOp16
 70
     1
102
RTVSPropertyOp17
 70
     1
102
RTVSPropertyOp18
 70
     1
102
RTVSPropertyOp19
 70
     1
102
RTVSPropertyOp20
 70
     1
102
RTVSPropertyOp21
 70
     1
102
RTVSPropertyOp22
 70
     1
102
RTVSPropertyOp23
 70
     1
102
RTVSPropertyOp24
 70
     1
102
RTVSPropertyOp25
 70
     1
102
RTVSPropertyOp26
 70
     1
102
RTVSPropertyOp27
 70
     1
102
RTVSPropertyOp28
 70
     1
102
RTVSPropertyOp29
 70
     1
102
RTVSPropertyOp30
 70
     1
102
RTVSPropertyOp31
 70
     1
102
RTVSPropertyOp32
 70
     1
102
RTVSPropertyOp33
 70
     1
102
RTVSPropertyOp34
 70
     1
102
RTVSPropertyOp35
 70
     1
102
RTVSPropertyOp36
 70
     1
102
RTVSPropertyOp37
 70
     1
102
RTVSPropertyOp38
 70
     1
102
RTVSPropertyOp39
 70
     1
102
RTVSPropertyOp40
 70
     1
102
RTVSPropertyOp41
 70
     1
102
RTVSPropertyOp42
 70
     1
102
RTVSPropertyOp43
 70
     1
102
RTVSPropertyOp44
 70
     1
102
RTVSPropertyOp45
 70
     1
102
RTVSPropertyOp46
 70
     1
102
RTVSPropertyOp47
 70
     1
102
RTVSPropertyOp48
 70
     1
102
RTVSPropertyOp49
 70
     1
102
RTVSPropertyOp50
 70
     1
102
RTVSPropertyOp51
 70
     0
102
RTVSPropertyOp52
 70
     0
102
RTVSPropertyOp53
 70
     1
102
RTVSPropertyOp54
 70
     1
102
RTVSPropertyOp55
 70
     1
102
RTVSPropertyOp56
 70
     1
102
RTVSPropertyOp57
 70
     1
102
RTVSPropertyOp58
 70
     1
102
RTVSPropertyOp59
 70
     1
102
RTVSPropertyOp60
 70
     1
102
RTVSPropertyOp61
 70
     1
102
RTVSPropertyOp62
 70
     1
  0
XRECORD
  5
408A
102
{ACAD_REACTORS
330
4089
102
}
330
4089
100
AcDbXrecord
280
     1
102
RTVSPost2010Prop28
280
     0
102
RTVSPost2010PropOp28
 70
     1
102
RTVSPost2010Prop29
280
     1
102
RTVSPost2010PropOp29
 70
     1
102
RTVSPost2010Prop30
280
     1
102
RTVSPost2010PropOp30
 70
     1
102
RTVSPost2010Prop31
280
     0
102
RTVSPost2010PropOp31
 70
     1
102
RTVSPost2010Prop32
280
     0
102
RTVSPost2010PropOp32
 70
     1
102
RTVSPost2010Prop33
280
     0
102
RTVSPost2010PropOp33
 70
     1
102
RTVSPost2010Prop34
280
     0
102
RTVSPost2010PropOp34
 70
     1
102
RTVSPost2010Prop35
280
     0
102
RTVSPost2010PropOp35
 70
     1
102
RTVSPost2010Prop36
280
     0
102
RTVSPost2010PropOp36
 70
     1
102
RTVSPost2010Prop37
 90
       50
102
RTVSPost2010PropOp37
 70
     1
102
RTVSPost2010Prop38
140
0.0
102
RTVSPost2010PropOp38
 70
     1
102
RTVSPost2010Prop39
140
1.0
102
RTVSPost2010PropOp39
 70
     1
102
RTVSPost2010Prop40
 90
        0
102
RTVSPost2010PropOp40
 70
     1
102
RTVSPost2010Prop41ColorIndex
 90
       18
102
RTVSPost2010Prop41ColorRGB
 90
        0
102
RTVSPost2010PropOp41
 70
     1
102
RTVSPost2010Prop42
 90
       50
102
RTVSPost2010PropOp42
 70
     1
102
RTVSPost2010Prop43
 90
        3
102
RTVSPost2010PropOp43
 70
     1
102
RTVSPost2010Prop44ColorIndex
 90
        5
102
RTVSPost2010Prop44ColorRGB
 90
      255
102
RTVSPost2010PropOp44
 70
     1
102
RTVSPost2010Prop45
280
     0
102
RTVSPost2010PropOp45
 70
     1
102
RTVSPost2010Prop46
 90
       50
102
RTVSPost2010PropOp46
 70
     1
102
RTVSPost2010Prop47
 90
       50
102
RTVSPost2010PropOp47
 70
     1
102
RTVSPost2010Prop48
 90
       50
102
RTVSPost2010PropOp48
 70
     1
102
RTVSPost2010Prop49
280
     0
102
RTVSPost2010PropOp49
 70
     1
102
RTVSPost2010Prop50
 90
       50
102
RTVSPost2010PropOp50
 70
     1
102
RTVSPost2010Prop51ColorIndex
 90
      256
102
RTVSPost2010Prop51ColorRGB
 90
-16777216
102
RTVSPost2010PropOp51
 70
     0
102
RTVSPost2010Prop52
140
1.0
102
RTVSPost2010PropOp52
 70
     0
102
RTVSPost2010Prop53
 90
        2
102
RTVSPost2010PropOp53
 70
     1
102
RTVSPost2010Prop54
  1
strokes_ogs.tif
102
RTVSPost2010PropOp54
 70
     1
102
RTVSPost2010Prop55
280
     0
102
RTVSPost2010PropOp55
 70
     1
102
RTVSPost2010Prop56
140
1.0
102
RTVSPost2010PropOp56
 70
     1
102
RTVSPost2010Prop57
140
1.0
102
RTVSPost2010PropOp57
 70
     1
102
RTVSPropertyOp0
 70
     1
102
RTVSPropertyOp1
 70
     1
102
RTVSPropertyOp2
 70
     1
102
RTVSPropertyOp3
 70
     1
102
RTVSPropertyOp4
 70
     1
102
RTVSPropertyOp5
 70
     1
102
RTVSPropertyOp6
 70
     1
102
RTVSPropertyOp7
 70
     1
102
RTVSPropertyOp8
 70
     1
102
RTVSPropertyOp9
 70
     1
102
RTVSPropertyOp10
 70
     1
102
RTVSPropertyOp11
 70
     1
102
RTVSPropertyOp12
 70
     1
102
RTVSPropertyOp13
 70
     1
102
RTVSPropertyOp14
 70
     1
102
RTVSPropertyOp15
 70
     1
102
RTVSPropertyOp16
 70
     1
102
RTVSPropertyOp17
 70
     1
102
RTVSPropertyOp18
 70
     1
102
RTVSPropertyOp19
 70
     1
102
RTVSPropertyOp20
 70
     1
102
RTVSPropertyOp21
 70
     1
102
RTVSPropertyOp22
 70
     1
102
RTVSPropertyOp23
 70
     1
102
RTVSPropertyOp24
 70
     1
102
RTVSPropertyOp25
 70
     1
102
RTVSPropertyOp26
 70
     1
102
RTVSPropertyOp27
 70
     1
102
RTVSPropertyOp28
 70
     1
102
RTVSPropertyOp29
 70
     1
102
RTVSPropertyOp30
 70
     1
102
RTVSPropertyOp31
 70
     1
102
RTVSPropertyOp32
 70
     1
102
RTVSPropertyOp33
 70
     1
102
RTVSPropertyOp34
 70
     1
102
RTVSPropertyOp35
 70
     1
102
RTVSPropertyOp36
 70
     1
102
RTVSPropertyOp37
 70
     1
102
RTVSPropertyOp38
 70
     1
102
RTVSPropertyOp39
 70
     1
102
RTVSPropertyOp40
 70
     1
102
RTVSPropertyOp41
 70
     1
102
RTVSPropertyOp42
 70
     1
102
RTVSPropertyOp43
 70
     1
102
RTVSPropertyOp44
 70
     1
102
RTVSPropertyOp45
 70
     1
102
RTVSPropertyOp46
 70
     1
102
RTVSPropertyOp47
 70
     1
102
RTVSPropertyOp48
 70
     1
102
RTVSPropertyOp49
 70
     1
102
RTVSPropertyOp50
 70
     1
102
RTVSPropertyOp51
 70
     0
102
RTVSPropertyOp52
 70
     0
102
RTVSPropertyOp53
 70
     1
102
RTVSPropertyOp54
 70
     1
102
RTVSPropertyOp55
 70
     1
102
RTVSPropertyOp56
 70
     1
102
RTVSPropertyOp57
 70
     1
102
RTVSPropertyOp58
 70
     1
102
RTVSPropertyOp59
 70
     1
102
RTVSPropertyOp60
 70
     1
102
RTVSPropertyOp61
 70
     1
102
RTVSPropertyOp62
 70
     1
  0
XRECORD
  5
408C
102
{ACAD_REACTORS
330
408B
102
}
330
408B
100
AcDbXrecord
280
     1
102
RTVSPost2010Prop28
280
     0
102
RTVSPost2010PropOp28
 70
     1
102
RTVSPost2010Prop29
280
     1
102
RTVSPost2010PropOp29
 70
     1
102
RTVSPost2010Prop30
280
     1
102
RTVSPost2010PropOp30
 70
     1
102
RTVSPost2010Prop31
280
     0
102
RTVSPost2010PropOp31
 70
     1
102
RTVSPost2010Prop32
280
     0
102
RTVSPost2010PropOp32
 70
     1
102
RTVSPost2010Prop33
280
     0
102
RTVSPost2010PropOp33
 70
     1
102
RTVSPost2010Prop34
280
     0
102
RTVSPost2010PropOp34
 70
     1
102
RTVSPost2010Prop35
280
     0
102
RTVSPost2010PropOp35
 70
     1
102
RTVSPost2010Prop36
280
     0
102
RTVSPost2010PropOp36
 70
     1
102
RTVSPost2010Prop37
 90
       50
102
RTVSPost2010PropOp37
 70
     1
102
RTVSPost2010Prop38
140
0.0
102
RTVSPost2010PropOp38
 70
     1
102
RTVSPost2010Prop39
140
1.0
102
RTVSPost2010PropOp39
 70
     1
102
RTVSPost2010Prop40
 90
        0
102
RTVSPost2010PropOp40
 70
     1
102
RTVSPost2010Prop41ColorIndex
 90
       18
102
RTVSPost2010Prop41ColorRGB
 90
        0
102
RTVSPost2010PropOp41
 70
     1
102
RTVSPost2010Prop42
 90
       50
102
RTVSPost2010PropOp42
 70
     1
102
RTVSPost2010Prop43
 90
        3
102
RTVSPost2010PropOp43
 70
     1
102
RTVSPost2010Prop44ColorIndex
 90
        5
102
RTVSPost2010Prop44ColorRGB
 90
      255
102
RTVSPost2010PropOp44
 70
     1
102
RTVSPost2010Prop45
280
     0
102
RTVSPost2010PropOp45
 70
     1
102
RTVSPost2010Prop46
 90
       50
102
RTVSPost2010PropOp46
 70
     1
102
RTVSPost2010Prop47
 90
       50
102
RTVSPost2010PropOp47
 70
     1
102
RTVSPost2010Prop48
 90
       50
102
RTVSPost2010PropOp48
 70
     1
102
RTVSPost2010Prop49
280
     0
102
RTVSPost2010PropOp49
 70
     1
102
RTVSPost2010Prop50
 90
       50
102
RTVSPost2010PropOp50
 70
     1
102
RTVSPost2010Prop51ColorIndex
 90
      256
102
RTVSPost2010Prop51ColorRGB
 90
-16777216
102
RTVSPost2010PropOp51
 70
     0
102
RTVSPost2010Prop52
140
1.0
102
RTVSPost2010PropOp52
 70
     0
102
RTVSPost2010Prop53
 90
        2
102
RTVSPost2010PropOp53
 70
     1
102
RTVSPost2010Prop54
  1
strokes_ogs.tif
102
RTVSPost2010PropOp54
 70
     1
102
RTVSPost2010Prop55
280
     0
102
RTVSPost2010PropOp55
 70
     1
102
RTVSPost2010Prop56
140
1.0
102
RTVSPost2010PropOp56
 70
     1
102
RTVSPost2010Prop57
140
1.0
102
RTVSPost2010PropOp57
 70
     1
102
RTVSPropertyOp0
 70
     1
102
RTVSPropertyOp1
 70
     1
102
RTVSPropertyOp2
 70
     1
102
RTVSPropertyOp3
 70
     1
102
RTVSPropertyOp4
 70
     1
102
RTVSPropertyOp5
 70
     1
102
RTVSPropertyOp6
 70
     1
102
RTVSPropertyOp7
 70
     1
102
RTVSPropertyOp8
 70
     1
102
RTVSPropertyOp9
 70
     1
102
RTVSPropertyOp10
 70
     1
102
RTVSPropertyOp11
 70
     1
102
RTVSPropertyOp12
 70
     1
102
RTVSPropertyOp13
 70
     1
102
RTVSPropertyOp14
 70
     1
102
RTVSPropertyOp15
 70
     1
102
RTVSPropertyOp16
 70
     1
102
RTVSPropertyOp17
 70
     1
102
RTVSPropertyOp18
 70
     1
102
RTVSPropertyOp19
 70
     1
102
RTVSPropertyOp20
 70
     1
102
RTVSPropertyOp21
 70
     1
102
RTVSPropertyOp22
 70
     1
102
RTVSPropertyOp23
 70
     1
102
RTVSPropertyOp24
 70
     1
102
RTVSPropertyOp25
 70
     1
102
RTVSPropertyOp26
 70
     1
102
RTVSPropertyOp27
 70
     1
102
RTVSPropertyOp28
 70
     1
102
RTVSPropertyOp29
 70
     1
102
RTVSPropertyOp30
 70
     1
102
RTVSPropertyOp31
 70
     1
102
RTVSPropertyOp32
 70
     1
102
RTVSPropertyOp33
 70
     1
102
RTVSPropertyOp34
 70
     1
102
RTVSPropertyOp35
 70
     1
102
RTVSPropertyOp36
 70
     1
102
RTVSPropertyOp37
 70
     1
102
RTVSPropertyOp38
 70
     1
102
RTVSPropertyOp39
 70
     1
102
RTVSPropertyOp40
 70
     1
102
RTVSPropertyOp41
 70
     1
102
RTVSPropertyOp42
 70
     1
102
RTVSPropertyOp43
 70
     1
102
RTVSPropertyOp44
 70
     1
102
RTVSPropertyOp45
 70
     1
102
RTVSPropertyOp46
 70
     1
102
RTVSPropertyOp47
 70
     1
102
RTVSPropertyOp48
 70
     1
102
RTVSPropertyOp49
 70
     1
102
RTVSPropertyOp50
 70
     1
102
RTVSPropertyOp51
 70
     0
102
RTVSPropertyOp52
 70
     0
102
RTVSPropertyOp53
 70
     1
102
RTVSPropertyOp54
 70
     1
102
RTVSPropertyOp55
 70
     1
102
RTVSPropertyOp56
 70
     1
102
RTVSPropertyOp57
 70
     1
102
RTVSPropertyOp58
 70
     1
102
RTVSPropertyOp59
 70
     1
102
RTVSPropertyOp60
 70
     1
102
RTVSPropertyOp61
 70
     1
102
RTVSPropertyOp62
 70
     1
  0
XRECORD
  5
408E
102
{ACAD_REACTORS
330
408D
102
}
330
408D
100
AcDbXrecord
280
     1
102
RTVSPost2010Prop28
280
     0
102
RTVSPost2010PropOp28
 70
     1
102
RTVSPost2010Prop29
280
     1
102
RTVSPost2010PropOp29
 70
     1
102
RTVSPost2010Prop30
280
     1
102
RTVSPost2010PropOp30
 70
     1
102
RTVSPost2010Prop31
280
     0
102
RTVSPost2010PropOp31
 70
     1
102
RTVSPost2010Prop32
280
     0
102
RTVSPost2010PropOp32
 70
     1
102
RTVSPost2010Prop33
280
     0
102
RTVSPost2010PropOp33
 70
     1
102
RTVSPost2010Prop34
280
     0
102
RTVSPost2010PropOp34
 70
     1
102
RTVSPost2010Prop35
280
     0
102
RTVSPost2010PropOp35
 70
     1
102
RTVSPost2010Prop36
280
     0
102
RTVSPost2010PropOp36
 70
     1
102
RTVSPost2010Prop37
 90
       50
102
RTVSPost2010PropOp37
 70
     1
102
RTVSPost2010Prop38
140
0.0
102
RTVSPost2010PropOp38
 70
     1
102
RTVSPost2010Prop39
140
1.0
102
RTVSPost2010PropOp39
 70
     1
102
RTVSPost2010Prop40
 90
        0
102
RTVSPost2010PropOp40
 70
     1
102
RTVSPost2010Prop41ColorIndex
 90
       18
102
RTVSPost2010Prop41ColorRGB
 90
        0
102
RTVSPost2010PropOp41
 70
     1
102
RTVSPost2010Prop42
 90
       50
102
RTVSPost2010PropOp42
 70
     1
102
RTVSPost2010Prop43
 90
        3
102
RTVSPost2010PropOp43
 70
     1
102
RTVSPost2010Prop44ColorIndex
 90
        5
102
RTVSPost2010Prop44ColorRGB
 90
      255
102
RTVSPost2010PropOp44
 70
     1
102
RTVSPost2010Prop45
280
     0
102
RTVSPost2010PropOp45
 70
     1
102
RTVSPost2010Prop46
 90
       50
102
RTVSPost2010PropOp46
 70
     1
102
RTVSPost2010Prop47
 90
       50
102
RTVSPost2010PropOp47
 70
     1
102
RTVSPost2010Prop48
 90
       50
102
RTVSPost2010PropOp48
 70
     1
102
RTVSPost2010Prop49
280
     0
102
RTVSPost2010PropOp49
 70
     1
102
RTVSPost2010Prop50
 90
       50
102
RTVSPost2010PropOp50
 70
     1
102
RTVSPost2010Prop51ColorIndex
 90
      256
102
RTVSPost2010Prop51ColorRGB
 90
-16777216
102
RTVSPost2010PropOp51
 70
     0
102
RTVSPost2010Prop52
140
1.0
102
RTVSPost2010PropOp52
 70
     0
102
RTVSPost2010Prop53
 90
        2
102
RTVSPost2010PropOp53
 70
     1
102
RTVSPost2010Prop54
  1
strokes_ogs.tif
102
RTVSPost2010PropOp54
 70
     1
102
RTVSPost2010Prop55
280
     0
102
RTVSPost2010PropOp55
 70
     1
102
RTVSPost2010Prop56
140
1.0
102
RTVSPost2010PropOp56
 70
     1
102
RTVSPost2010Prop57
140
1.0
102
RTVSPost2010PropOp57
 70
     1
102
RTVSPropertyOp0
 70
     1
102
RTVSPropertyOp1
 70
     1
102
RTVSPropertyOp2
 70
     1
102
RTVSPropertyOp3
 70
     1
102
RTVSPropertyOp4
 70
     1
102
RTVSPropertyOp5
 70
     1
102
RTVSPropertyOp6
 70
     1
102
RTVSPropertyOp7
 70
     1
102
RTVSPropertyOp8
 70
     1
102
RTVSPropertyOp9
 70
     1
102
RTVSPropertyOp10
 70
     1
102
RTVSPropertyOp11
 70
     1
102
RTVSPropertyOp12
 70
     1
102
RTVSPropertyOp13
 70
     1
102
RTVSPropertyOp14
 70
     1
102
RTVSPropertyOp15
 70
     1
102
RTVSPropertyOp16
 70
     1
102
RTVSPropertyOp17
 70
     1
102
RTVSPropertyOp18
 70
     1
102
RTVSPropertyOp19
 70
     1
102
RTVSPropertyOp20
 70
     1
102
RTVSPropertyOp21
 70
     1
102
RTVSPropertyOp22
 70
     1
102
RTVSPropertyOp23
 70
     1
102
RTVSPropertyOp24
 70
     1
102
RTVSPropertyOp25
 70
     1
102
RTVSPropertyOp26
 70
     1
102
RTVSPropertyOp27
 70
     1
102
RTVSPropertyOp28
 70
     1
102
RTVSPropertyOp29
 70
     1
102
RTVSPropertyOp30
 70
     1
102
RTVSPropertyOp31
 70
     1
102
RTVSPropertyOp32
 70
     1
102
RTVSPropertyOp33
 70
     1
102
RTVSPropertyOp34
 70
     1
102
RTVSPropertyOp35
 70
     1
102
RTVSPropertyOp36
 70
     1
102
RTVSPropertyOp37
 70
     1
102
RTVSPropertyOp38
 70
     1
102
RTVSPropertyOp39
 70
     1
102
RTVSPropertyOp40
 70
     1
102
RTVSPropertyOp41
 70
     1
102
RTVSPropertyOp42
 70
     1
102
RTVSPropertyOp43
 70
     1
102
RTVSPropertyOp44
 70
     1
102
RTVSPropertyOp45
 70
     1
102
RTVSPropertyOp46
 70
     1
102
RTVSPropertyOp47
 70
     1
102
RTVSPropertyOp48
 70
     1
102
RTVSPropertyOp49
 70
     1
102
RTVSPropertyOp50
 70
     1
102
RTVSPropertyOp51
 70
     0
102
RTVSPropertyOp52
 70
     0
102
RTVSPropertyOp53
 70
     1
102
RTVSPropertyOp54
 70
     1
102
RTVSPropertyOp55
 70
     1
102
RTVSPropertyOp56
 70
     1
102
RTVSPropertyOp57
 70
     1
102
RTVSPropertyOp58
 70
     1
102
RTVSPropertyOp59
 70
     1
102
RTVSPropertyOp60
 70
     1
102
RTVSPropertyOp61
 70
     1
102
RTVSPropertyOp62
 70
     1
  0
XRECORD
  5
4090
102
{ACAD_REACTORS
330
408F
102
}
330
408F
100
AcDbXrecord
280
     1
102
RTVSPost2010Prop28
280
     0
102
RTVSPost2010PropOp28
 70
     1
102
RTVSPost2010Prop29
280
     1
102
RTVSPost2010PropOp29
 70
     1
102
RTVSPost2010Prop30
280
     1
102
RTVSPost2010PropOp30
 70
     1
102
RTVSPost2010Prop31
280
     0
102
RTVSPost2010PropOp31
 70
     1
102
RTVSPost2010Prop32
280
     0
102
RTVSPost2010PropOp32
 70
     1
102
RTVSPost2010Prop33
280
     0
102
RTVSPost2010PropOp33
 70
     1
102
RTVSPost2010Prop34
280
     0
102
RTVSPost2010PropOp34
 70
     1
102
RTVSPost2010Prop35
280
     0
102
RTVSPost2010PropOp35
 70
     1
102
RTVSPost2010Prop36
280
     0
102
RTVSPost2010PropOp36
 70
     1
102
RTVSPost2010Prop37
 90
       50
102
RTVSPost2010PropOp37
 70
     1
102
RTVSPost2010Prop38
140
0.0
102
RTVSPost2010PropOp38
 70
     1
102
RTVSPost2010Prop39
140
1.0
102
RTVSPost2010PropOp39
 70
     1
102
RTVSPost2010Prop40
 90
        0
102
RTVSPost2010PropOp40
 70
     1
102
RTVSPost2010Prop41ColorIndex
 90
       18
102
RTVSPost2010Prop41ColorRGB
 90
        0
102
RTVSPost2010PropOp41
 70
     1
102
RTVSPost2010Prop42
 90
       50
102
RTVSPost2010PropOp42
 70
     1
102
RTVSPost2010Prop43
 90
        3
102
RTVSPost2010PropOp43
 70
     1
102
RTVSPost2010Prop44ColorIndex
 90
        5
102
RTVSPost2010Prop44ColorRGB
 90
      255
102
RTVSPost2010PropOp44
 70
     1
102
RTVSPost2010Prop45
280
     0
102
RTVSPost2010PropOp45
 70
     1
102
RTVSPost2010Prop46
 90
       50
102
RTVSPost2010PropOp46
 70
     1
102
RTVSPost2010Prop47
 90
       50
102
RTVSPost2010PropOp47
 70
     1
102
RTVSPost2010Prop48
 90
       50
102
RTVSPost2010PropOp48
 70
     1
102
RTVSPost2010Prop49
280
     0
102
RTVSPost2010PropOp49
 70
     1
102
RTVSPost2010Prop50
 90
       50
102
RTVSPost2010PropOp50
 70
     1
102
RTVSPost2010Prop51ColorIndex
 90
      256
102
RTVSPost2010Prop51ColorRGB
 90
-16777216
102
RTVSPost2010PropOp51
 70
     0
102
RTVSPost2010Prop52
140
1.0
102
RTVSPost2010PropOp52
 70
     0
102
RTVSPost2010Prop53
 90
        2
102
RTVSPost2010PropOp53
 70
     1
102
RTVSPost2010Prop54
  1
strokes_ogs.tif
102
RTVSPost2010PropOp54
 70
     1
102
RTVSPost2010Prop55
280
     0
102
RTVSPost2010PropOp55
 70
     1
102
RTVSPost2010Prop56
140
1.0
102
RTVSPost2010PropOp56
 70
     1
102
RTVSPost2010Prop57
140
1.0
102
RTVSPost2010PropOp57
 70
     1
102
RTVSPropertyOp0
 70
     1
102
RTVSPropertyOp1
 70
     1
102
RTVSPropertyOp2
 70
     1
102
RTVSPropertyOp3
 70
     1
102
RTVSPropertyOp4
 70
     1
102
RTVSPropertyOp5
 70
     1
102
RTVSPropertyOp6
 70
     1
102
RTVSPropertyOp7
 70
     1
102
RTVSPropertyOp8
 70
     1
102
RTVSPropertyOp9
 70
     1
102
RTVSPropertyOp10
 70
     1
102
RTVSPropertyOp11
 70
     1
102
RTVSPropertyOp12
 70
     1
102
RTVSPropertyOp13
 70
     1
102
RTVSPropertyOp14
 70
     1
102
RTVSPropertyOp15
 70
     1
102
RTVSPropertyOp16
 70
     1
102
RTVSPropertyOp17
 70
     1
102
RTVSPropertyOp18
 70
     1
102
RTVSPropertyOp19
 70
     1
102
RTVSPropertyOp20
 70
     1
102
RTVSPropertyOp21
 70
     1
102
RTVSPropertyOp22
 70
     1
102
RTVSPropertyOp23
 70
     1
102
RTVSPropertyOp24
 70
     1
102
RTVSPropertyOp25
 70
     1
102
RTVSPropertyOp26
 70
     1
102
RTVSPropertyOp27
 70
     1
102
RTVSPropertyOp28
 70
     1
102
RTVSPropertyOp29
 70
     1
102
RTVSPropertyOp30
 70
     1
102
RTVSPropertyOp31
 70
     1
102
RTVSPropertyOp32
 70
     1
102
RTVSPropertyOp33
 70
     1
102
RTVSPropertyOp34
 70
     1
102
RTVSPropertyOp35
 70
     1
102
RTVSPropertyOp36
 70
     1
102
RTVSPropertyOp37
 70
     1
102
RTVSPropertyOp38
 70
     1
102
RTVSPropertyOp39
 70
     1
102
RTVSPropertyOp40
 70
     1
102
RTVSPropertyOp41
 70
     1
102
RTVSPropertyOp42
 70
     1
102
RTVSPropertyOp43
 70
     1
102
RTVSPropertyOp44
 70
     1
102
RTVSPropertyOp45
 70
     1
102
RTVSPropertyOp46
 70
     1
102
RTVSPropertyOp47
 70
     1
102
RTVSPropertyOp48
 70
     1
102
RTVSPropertyOp49
 70
     1
102
RTVSPropertyOp50
 70
     1
102
RTVSPropertyOp51
 70
     0
102
RTVSPropertyOp52
 70
     0
102
RTVSPropertyOp53
 70
     1
102
RTVSPropertyOp54
 70
     1
102
RTVSPropertyOp55
 70
     1
102
RTVSPropertyOp56
 70
     1
102
RTVSPropertyOp57
 70
     1
102
RTVSPropertyOp58
 70
     1
102
RTVSPropertyOp59
 70
     1
102
RTVSPropertyOp60
 70
     1
102
RTVSPropertyOp61
 70
     1
102
RTVSPropertyOp62
 70
     1
  0
XRECORD
  5
4098
102
{ACAD_REACTORS
330
4097
102
}
330
4097
100
AcDbXrecord
280
     1
102
RTVSPost2010Prop28
280
     0
102
RTVSPost2010PropOp28
 70
     1
102
RTVSPost2010Prop29
280
     1
102
RTVSPost2010PropOp29
 70
     1
102
RTVSPost2010Prop30
280
     1
102
RTVSPost2010PropOp30
 70
     1
102
RTVSPost2010Prop31
280
     0
102
RTVSPost2010PropOp31
 70
     1
102
RTVSPost2010Prop32
280
     0
102
RTVSPost2010PropOp32
 70
     1
102
RTVSPost2010Prop33
280
     0
102
RTVSPost2010PropOp33
 70
     1
102
RTVSPost2010Prop34
280
     0
102
RTVSPost2010PropOp34
 70
     1
102
RTVSPost2010Prop35
280
     0
102
RTVSPost2010PropOp35
 70
     1
102
RTVSPost2010Prop36
280
     0
102
RTVSPost2010PropOp36
 70
     1
102
RTVSPost2010Prop37
 90
       50
102
RTVSPost2010PropOp37
 70
     1
102
RTVSPost2010Prop38
140
0.0
102
RTVSPost2010PropOp38
 70
     1
102
RTVSPost2010Prop39
140
1.0
102
RTVSPost2010PropOp39
 70
     1
102
RTVSPost2010Prop40
 90
        0
102
RTVSPost2010PropOp40
 70
     1
102
RTVSPost2010Prop41ColorIndex
 90
       18
102
RTVSPost2010Prop41ColorRGB
 90
        0
102
RTVSPost2010PropOp41
 70
     1
102
RTVSPost2010Prop42
 90
       50
102
RTVSPost2010PropOp42
 70
     1
102
RTVSPost2010Prop43
 90
        3
102
RTVSPost2010PropOp43
 70
     1
102
RTVSPost2010Prop44ColorIndex
 90
        5
102
RTVSPost2010Prop44ColorRGB
 90
      255
102
RTVSPost2010PropOp44
 70
     1
102
RTVSPost2010Prop45
280
     0
102
RTVSPost2010PropOp45
 70
     1
102
RTVSPost2010Prop46
 90
       50
102
RTVSPost2010PropOp46
 70
     1
102
RTVSPost2010Prop47
 90
       50
102
RTVSPost2010PropOp47
 70
     1
102
RTVSPost2010Prop48
 90
       50
102
RTVSPost2010PropOp48
 70
     1
102
RTVSPost2010Prop49
280
     0
102
RTVSPost2010PropOp49
 70
     1
102
RTVSPost2010Prop50
 90
       50
102
RTVSPost2010PropOp50
 70
     1
102
RTVSPost2010Prop51ColorIndex
 90
      256
102
RTVSPost2010Prop51ColorRGB
 90
-16777216
102
RTVSPost2010PropOp51
 70
     0
102
RTVSPost2010Prop52
140
1.0
102
RTVSPost2010PropOp52
 70
     0
102
RTVSPost2010Prop53
 90
        2
102
RTVSPost2010PropOp53
 70
     1
102
RTVSPost2010Prop54
  1
strokes_ogs.tif
102
RTVSPost2010PropOp54
 70
     1
102
RTVSPost2010Prop55
280
     0
102
RTVSPost2010PropOp55
 70
     1
102
RTVSPost2010Prop56
140
1.0
102
RTVSPost2010PropOp56
 70
     1
102
RTVSPost2010Prop57
140
1.0
102
RTVSPost2010PropOp57
 70
     1
102
RTVSPropertyOp0
 70
     1
102
RTVSPropertyOp1
 70
     1
102
RTVSPropertyOp2
 70
     1
102
RTVSPropertyOp3
 70
     1
102
RTVSPropertyOp4
 70
     1
102
RTVSPropertyOp5
 70
     1
102
RTVSPropertyOp6
 70
     1
102
RTVSPropertyOp7
 70
     1
102
RTVSPropertyOp8
 70
     1
102
RTVSPropertyOp9
 70
     1
102
RTVSPropertyOp10
 70
     1
102
RTVSPropertyOp11
 70
     1
102
RTVSPropertyOp12
 70
     1
102
RTVSPropertyOp13
 70
     1
102
RTVSPropertyOp14
 70
     1
102
RTVSPropertyOp15
 70
     1
102
RTVSPropertyOp16
 70
     1
102
RTVSPropertyOp17
 70
     1
102
RTVSPropertyOp18
 70
     1
102
RTVSPropertyOp19
 70
     1
102
RTVSPropertyOp20
 70
     1
102
RTVSPropertyOp21
 70
     1
102
RTVSPropertyOp22
 70
     1
102
RTVSPropertyOp23
 70
     1
102
RTVSPropertyOp24
 70
     1
102
RTVSPropertyOp25
 70
     1
102
RTVSPropertyOp26
 70
     1
102
RTVSPropertyOp27
 70
     1
102
RTVSPropertyOp28
 70
     1
102
RTVSPropertyOp29
 70
     1
102
RTVSPropertyOp30
 70
     1
102
RTVSPropertyOp31
 70
     1
102
RTVSPropertyOp32
 70
     1
102
RTVSPropertyOp33
 70
     1
102
RTVSPropertyOp34
 70
     1
102
RTVSPropertyOp35
 70
     1
102
RTVSPropertyOp36
 70
     1
102
RTVSPropertyOp37
 70
     1
102
RTVSPropertyOp38
 70
     1
102
RTVSPropertyOp39
 70
     1
102
RTVSPropertyOp40
 70
     1
102
RTVSPropertyOp41
 70
     1
102
RTVSPropertyOp42
 70
     1
102
RTVSPropertyOp43
 70
     1
102
RTVSPropertyOp44
 70
     1
102
RTVSPropertyOp45
 70
     1
102
RTVSPropertyOp46
 70
     1
102
RTVSPropertyOp47
 70
     1
102
RTVSPropertyOp48
 70
     1
102
RTVSPropertyOp49
 70
     1
102
RTVSPropertyOp50
 70
     1
102
RTVSPropertyOp51
 70
     0
102
RTVSPropertyOp52
 70
     0
102
RTVSPropertyOp53
 70
     1
102
RTVSPropertyOp54
 70
     1
102
RTVSPropertyOp55
 70
     1
102
RTVSPropertyOp56
 70
     1
102
RTVSPropertyOp57
 70
     1
102
RTVSPropertyOp58
 70
     1
102
RTVSPropertyOp59
 70
     1
102
RTVSPropertyOp60
 70
     1
102
RTVSPropertyOp61
 70
     1
102
RTVSPropertyOp62
 70
     1
  0
XRECORD
  5
40B4
102
{ACAD_REACTORS
330
40B3
102
}
330
40B3
100
AcDbXrecord
280
     1
102
RTVSPost2010Prop28
280
     0
102
RTVSPost2010PropOp28
 70
     0
102
RTVSPost2010Prop29
280
     1
102
RTVSPost2010PropOp29
 70
     0
102
RTVSPost2010Prop30
280
     1
102
RTVSPost2010PropOp30
 70
     0
102
RTVSPost2010Prop31
280
     0
102
RTVSPost2010PropOp31
 70
     0
102
RTVSPost2010Prop32
280
     0
102
RTVSPost2010PropOp32
 70
     0
102
RTVSPost2010Prop33
280
     0
102
RTVSPost2010PropOp33
 70
     0
102
RTVSPost2010Prop34
280
     0
102
RTVSPost2010PropOp34
 70
     0
102
RTVSPost2010Prop35
280
     0
102
RTVSPost2010PropOp35
 70
     0
102
RTVSPost2010Prop36
280
     0
102
RTVSPost2010PropOp36
 70
     0
102
RTVSPost2010Prop37
 90
       50
102
RTVSPost2010PropOp37
 70
     0
102
RTVSPost2010Prop38
140
0.0
102
RTVSPost2010PropOp38
 70
     0
102
RTVSPost2010Prop39
140
1.0
102
RTVSPost2010PropOp39
 70
     0
102
RTVSPost2010Prop40
 90
        0
102
RTVSPost2010PropOp40
 70
     0
102
RTVSPost2010Prop41ColorIndex
 90
       18
102
RTVSPost2010Prop41ColorRGB
 90
        0
102
RTVSPost2010PropOp41
 70
     0
102
RTVSPost2010Prop42
 90
       50
102
RTVSPost2010PropOp42
 70
     0
102
RTVSPost2010Prop43
 90
        3
102
RTVSPost2010PropOp43
 70
     0
102
RTVSPost2010Prop44ColorIndex
 90
        5
102
RTVSPost2010Prop44ColorRGB
 90
      255
102
RTVSPost2010PropOp44
 70
     0
102
RTVSPost2010Prop45
280
     0
102
RTVSPost2010PropOp45
 70
     0
102
RTVSPost2010Prop46
 90
       50
102
RTVSPost2010PropOp46
 70
     0
102
RTVSPost2010Prop47
 90
       50
102
RTVSPost2010PropOp47
 70
     0
102
RTVSPost2010Prop48
 90
       50
102
RTVSPost2010PropOp48
 70
     0
102
RTVSPost2010Prop49
280
     0
102
RTVSPost2010PropOp49
 70
     0
102
RTVSPost2010Prop50
 90
       50
102
RTVSPost2010PropOp50
 70
     0
102
RTVSPost2010Prop51ColorIndex
 90
      256
102
RTVSPost2010Prop51ColorRGB
 90
-16777216
102
RTVSPost2010PropOp51
 70
     0
102
RTVSPost2010Prop52
140
1.0
102
RTVSPost2010PropOp52
 70
     0
102
RTVSPost2010Prop53
 90
        2
102
RTVSPost2010PropOp53
 70
     0
102
RTVSPost2010Prop54
  1
strokes_ogs.tif
102
RTVSPost2010PropOp54
 70
     0
102
RTVSPost2010Prop55
280
     0
102
RTVSPost2010PropOp55
 70
     0
102
RTVSPost2010Prop56
140
1.0
102
RTVSPost2010PropOp56
 70
     0
102
RTVSPost2010Prop57
140
1.0
102
RTVSPost2010PropOp57
 70
     0
102
RTVSPropertyOp0
 70
     0
102
RTVSPropertyOp1
 70
     0
102
RTVSPropertyOp2
 70
     0
102
RTVSPropertyOp3
 70
     0
102
RTVSPropertyOp4
 70
     0
102
RTVSPropertyOp5
 70
     0
102
RTVSPropertyOp6
 70
     0
102
RTVSPropertyOp7
 70
     0
102
RTVSPropertyOp8
 70
     0
102
RTVSPropertyOp9
 70
     0
102
RTVSPropertyOp10
 70
     0
102
RTVSPropertyOp11
 70
     0
102
RTVSPropertyOp12
 70
     0
102
RTVSPropertyOp13
 70
     0
102
RTVSPropertyOp14
 70
     2
102
RTVSPropertyOp15
 70
     0
102
RTVSPropertyOp16
 70
     0
102
RTVSPropertyOp17
 70
     0
102
RTVSPropertyOp18
 70
     0
102
RTVSPropertyOp19
 70
     0
102
RTVSPropertyOp20
 70
     0
102
RTVSPropertyOp21
 70
     0
102
RTVSPropertyOp22
 70
     0
102
RTVSPropertyOp23
 70
     0
102
RTVSPropertyOp24
 70
     0
102
RTVSPropertyOp25
 70
     0
102
RTVSPropertyOp26
 70
     0
102
RTVSPropertyOp27
 70
     0
102
RTVSPropertyOp28
 70
     0
102
RTVSPropertyOp29
 70
     0
102
RTVSPropertyOp30
 70
     0
102
RTVSPropertyOp31
 70
     0
102
RTVSPropertyOp32
 70
     0
102
RTVSPropertyOp33
 70
     0
102
RTVSPropertyOp34
 70
     0
102
RTVSPropertyOp35
 70
     0
102
RTVSPropertyOp36
 70
     0
102
RTVSPropertyOp37
 70
     0
102
RTVSPropertyOp38
 70
     0
102
RTVSPropertyOp39
 70
     0
102
RTVSPropertyOp40
 70
     0
102
RTVSPropertyOp41
 70
     0
102
RTVSPropertyOp42
 70
     0
102
RTVSPropertyOp43
 70
     0
102
RTVSPropertyOp44
 70
     0
102
RTVSPropertyOp45
 70
     0
102
RTVSPropertyOp46
 70
     0
102
RTVSPropertyOp47
 70
     0
102
RTVSPropertyOp48
 70
     0
102
RTVSPropertyOp49
 70
     0
102
RTVSPropertyOp50
 70
     0
102
RTVSPropertyOp51
 70
     0
102
RTVSPropertyOp52
 70
     0
102
RTVSPropertyOp53
 70
     0
102
RTVSPropertyOp54
 70
     0
102
RTVSPropertyOp55
 70
     0
102
RTVSPropertyOp56
 70
     0
102
RTVSPropertyOp57
 70
     0
102
RTVSPropertyOp58
 70
     1
102
RTVSPropertyOp59
 70
     1
102
RTVSPropertyOp60
 70
     1
102
RTVSPropertyOp61
 70
     1
102
RTVSPropertyOp62
 70
     1
  0
XRECORD
  5
40A4
102
{ACAD_REACTORS
330
40A3
102
}
330
40A3
100
AcDbXrecord
280
     1
102
RTVSPost2010Prop28
280
     0
102
RTVSPost2010PropOp28
 70
     1
102
RTVSPost2010Prop29
280
     1
102
RTVSPost2010PropOp29
 70
     1
102
RTVSPost2010Prop30
280
     1
102
RTVSPost2010PropOp30
 70
     1
102
RTVSPost2010Prop31
280
     0
102
RTVSPost2010PropOp31
 70
     1
102
RTVSPost2010Prop32
280
     0
102
RTVSPost2010PropOp32
 70
     1
102
RTVSPost2010Prop33
280
     0
102
RTVSPost2010PropOp33
 70
     1
102
RTVSPost2010Prop34
280
     0
102
RTVSPost2010PropOp34
 70
     1
102
RTVSPost2010Prop35
280
     0
102
RTVSPost2010PropOp35
 70
     1
102
RTVSPost2010Prop36
280
     0
102
RTVSPost2010PropOp36
 70
     1
102
RTVSPost2010Prop37
 90
       50
102
RTVSPost2010PropOp37
 70
     1
102
RTVSPost2010Prop38
140
0.0
102
RTVSPost2010PropOp38
 70
     1
102
RTVSPost2010Prop39
140
1.0
102
RTVSPost2010PropOp39
 70
     1
102
RTVSPost2010Prop40
 90
        0
102
RTVSPost2010PropOp40
 70
     1
102
RTVSPost2010Prop41ColorIndex
 90
       18
102
RTVSPost2010Prop41ColorRGB
 90
        0
102
RTVSPost2010PropOp41
 70
     1
102
RTVSPost2010Prop42
 90
       50
102
RTVSPost2010PropOp42
 70
     1
102
RTVSPost2010Prop43
 90
        3
102
RTVSPost2010PropOp43
 70
     1
102
RTVSPost2010Prop44ColorIndex
 90
        5
102
RTVSPost2010Prop44ColorRGB
 90
      255
102
RTVSPost2010PropOp44
 70
     1
102
RTVSPost2010Prop45
280
     0
102
RTVSPost2010PropOp45
 70
     1
102
RTVSPost2010Prop46
 90
       50
102
RTVSPost2010PropOp46
 70
     1
102
RTVSPost2010Prop47
 90
       50
102
RTVSPost2010PropOp47
 70
     1
102
RTVSPost2010Prop48
 90
       50
102
RTVSPost2010PropOp48
 70
     1
102
RTVSPost2010Prop49
280
     0
102
RTVSPost2010PropOp49
 70
     1
102
RTVSPost2010Prop50
 90
       50
102
RTVSPost2010PropOp50
 70
     1
102
RTVSPost2010Prop51ColorIndex
 90
      256
102
RTVSPost2010Prop51ColorRGB
 90
-16777216
102
RTVSPost2010PropOp51
 70
     0
102
RTVSPost2010Prop52
140
1.0
102
RTVSPost2010PropOp52
 70
     0
102
RTVSPost2010Prop53
 90
        2
102
RTVSPost2010PropOp53
 70
     1
102
RTVSPost2010Prop54
  1
strokes_ogs.tif
102
RTVSPost2010PropOp54
 70
     1
102
RTVSPost2010Prop55
280
     0
102
RTVSPost2010PropOp55
 70
     1
102
RTVSPost2010Prop56
140
1.0
102
RTVSPost2010PropOp56
 70
     1
102
RTVSPost2010Prop57
140
1.0
102
RTVSPost2010PropOp57
 70
     1
102
RTVSPropertyOp0
 70
     1
102
RTVSPropertyOp1
 70
     1
102
RTVSPropertyOp2
 70
     1
102
RTVSPropertyOp3
 70
     1
102
RTVSPropertyOp4
 70
     1
102
RTVSPropertyOp5
 70
     1
102
RTVSPropertyOp6
 70
     1
102
RTVSPropertyOp7
 70
     1
102
RTVSPropertyOp8
 70
     1
102
RTVSPropertyOp9
 70
     1
102
RTVSPropertyOp10
 70
     1
102
RTVSPropertyOp11
 70
     1
102
RTVSPropertyOp12
 70
     1
102
RTVSPropertyOp13
 70
     1
102
RTVSPropertyOp14
 70
     1
102
RTVSPropertyOp15
 70
     1
102
RTVSPropertyOp16
 70
     1
102
RTVSPropertyOp17
 70
     1
102
RTVSPropertyOp18
 70
     1
102
RTVSPropertyOp19
 70
     1
102
RTVSPropertyOp20
 70
     1
102
RTVSPropertyOp21
 70
     1
102
RTVSPropertyOp22
 70
     1
102
RTVSPropertyOp23
 70
     1
102
RTVSPropertyOp24
 70
     1
102
RTVSPropertyOp25
 70
     1
102
RTVSPropertyOp26
 70
     1
102
RTVSPropertyOp27
 70
     1
102
RTVSPropertyOp28
 70
     1
102
RTVSPropertyOp29
 70
     1
102
RTVSPropertyOp30
 70
     1
102
RTVSPropertyOp31
 70
     1
102
RTVSPropertyOp32
 70
     1
102
RTVSPropertyOp33
 70
     1
102
RTVSPropertyOp34
 70
     1
102
RTVSPropertyOp35
 70
     1
102
RTVSPropertyOp36
 70
     1
102
RTVSPropertyOp37
 70
     1
102
RTVSPropertyOp38
 70
     1
102
RTVSPropertyOp39
 70
     1
102
RTVSPropertyOp40
 70
     1
102
RTVSPropertyOp41
 70
     1
102
RTVSPropertyOp42
 70
     1
102
RTVSPropertyOp43
 70
     1
102
RTVSPropertyOp44
 70
     1
102
RTVSPropertyOp45
 70
     1
102
RTVSPropertyOp46
 70
     1
102
RTVSPropertyOp47
 70
     1
102
RTVSPropertyOp48
 70
     1
102
RTVSPropertyOp49
 70
     1
102
RTVSPropertyOp50
 70
     1
102
RTVSPropertyOp51
 70
     0
102
RTVSPropertyOp52
 70
     0
102
RTVSPropertyOp53
 70
     1
102
RTVSPropertyOp54
 70
     1
102
RTVSPropertyOp55
 70
     1
102
RTVSPropertyOp56
 70
     1
102
RTVSPropertyOp57
 70
     1
102
RTVSPropertyOp58
 70
     1
102
RTVSPropertyOp59
 70
     1
102
RTVSPropertyOp60
 70
     1
102
RTVSPropertyOp61
 70
     1
102
RTVSPropertyOp62
 70
     1
  0
XRECORD
  5
40B6
102
{ACAD_REACTORS
330
40B5
102
}
330
40B5
100
AcDbXrecord
280
     1
102
RTVSPost2010Prop28
280
     0
102
RTVSPost2010PropOp28
 70
     0
102
RTVSPost2010Prop29
280
     1
102
RTVSPost2010PropOp29
 70
     0
102
RTVSPost2010Prop30
280
     1
102
RTVSPost2010PropOp30
 70
     0
102
RTVSPost2010Prop31
280
     0
102
RTVSPost2010PropOp31
 70
     0
102
RTVSPost2010Prop32
280
     0
102
RTVSPost2010PropOp32
 70
     0
102
RTVSPost2010Prop33
280
     0
102
RTVSPost2010PropOp33
 70
     0
102
RTVSPost2010Prop34
280
     0
102
RTVSPost2010PropOp34
 70
     0
102
RTVSPost2010Prop35
280
     0
102
RTVSPost2010PropOp35
 70
     0
102
RTVSPost2010Prop36
280
     0
102
RTVSPost2010PropOp36
 70
     0
102
RTVSPost2010Prop37
 90
       50
102
RTVSPost2010PropOp37
 70
     0
102
RTVSPost2010Prop38
140
0.0
102
RTVSPost2010PropOp38
 70
     0
102
RTVSPost2010Prop39
140
1.0
102
RTVSPost2010PropOp39
 70
     0
102
RTVSPost2010Prop40
 90
        0
102
RTVSPost2010PropOp40
 70
     0
102
RTVSPost2010Prop41ColorIndex
 90
       18
102
RTVSPost2010Prop41ColorRGB
 90
        0
102
RTVSPost2010PropOp41
 70
     0
102
RTVSPost2010Prop42
 90
       50
102
RTVSPost2010PropOp42
 70
     0
102
RTVSPost2010Prop43
 90
        3
102
RTVSPost2010PropOp43
 70
     0
102
RTVSPost2010Prop44ColorIndex
 90
        5
102
RTVSPost2010Prop44ColorRGB
 90
      255
102
RTVSPost2010PropOp44
 70
     0
102
RTVSPost2010Prop45
280
     0
102
RTVSPost2010PropOp45
 70
     0
102
RTVSPost2010Prop46
 90
       50
102
RTVSPost2010PropOp46
 70
     0
102
RTVSPost2010Prop47
 90
       50
102
RTVSPost2010PropOp47
 70
     0
102
RTVSPost2010Prop48
 90
       50
102
RTVSPost2010PropOp48
 70
     0
102
RTVSPost2010Prop49
280
     0
102
RTVSPost2010PropOp49
 70
     0
102
RTVSPost2010Prop50
 90
       50
102
RTVSPost2010PropOp50
 70
     0
102
RTVSPost2010Prop51ColorIndex
 90
      256
102
RTVSPost2010Prop51ColorRGB
 90
-16777216
102
RTVSPost2010PropOp51
 70
     0
102
RTVSPost2010Prop52
140
1.0
102
RTVSPost2010PropOp52
 70
     0
102
RTVSPost2010Prop53
 90
        2
102
RTVSPost2010PropOp53
 70
     0
102
RTVSPost2010Prop54
  1
strokes_ogs.tif
102
RTVSPost2010PropOp54
 70
     0
102
RTVSPost2010Prop55
280
     0
102
RTVSPost2010PropOp55
 70
     0
102
RTVSPost2010Prop56
140
1.0
102
RTVSPost2010PropOp56
 70
     0
102
RTVSPost2010Prop57
140
1.0
102
RTVSPost2010PropOp57
 70
     0
102
RTVSPropertyOp0
 70
     0
102
RTVSPropertyOp1
 70
     0
102
RTVSPropertyOp2
 70
     0
102
RTVSPropertyOp3
 70
     0
102
RTVSPropertyOp4
 70
     0
102
RTVSPropertyOp5
 70
     0
102
RTVSPropertyOp6
 70
     0
102
RTVSPropertyOp7
 70
     0
102
RTVSPropertyOp8
 70
     0
102
RTVSPropertyOp9
 70
     0
102
RTVSPropertyOp10
 70
     0
102
RTVSPropertyOp11
 70
     0
102
RTVSPropertyOp12
 70
     0
102
RTVSPropertyOp13
 70
     0
102
RTVSPropertyOp14
 70
     2
102
RTVSPropertyOp15
 70
     0
102
RTVSPropertyOp16
 70
     0
102
RTVSPropertyOp17
 70
     0
102
RTVSPropertyOp18
 70
     0
102
RTVSPropertyOp19
 70
     0
102
RTVSPropertyOp20
 70
     0
102
RTVSPropertyOp21
 70
     0
102
RTVSPropertyOp22
 70
     0
102
RTVSPropertyOp23
 70
     0
102
RTVSPropertyOp24
 70
     0
102
RTVSPropertyOp25
 70
     0
102
RTVSPropertyOp26
 70
     0
102
RTVSPropertyOp27
 70
     0
102
RTVSPropertyOp28
 70
     0
102
RTVSPropertyOp29
 70
     0
102
RTVSPropertyOp30
 70
     0
102
RTVSPropertyOp31
 70
     0
102
RTVSPropertyOp32
 70
     0
102
RTVSPropertyOp33
 70
     0
102
RTVSPropertyOp34
 70
     0
102
RTVSPropertyOp35
 70
     0
102
RTVSPropertyOp36
 70
     0
102
RTVSPropertyOp37
 70
     0
102
RTVSPropertyOp38
 70
     0
102
RTVSPropertyOp39
 70
     0
102
RTVSPropertyOp40
 70
     0
102
RTVSPropertyOp41
 70
     0
102
RTVSPropertyOp42
 70
     0
102
RTVSPropertyOp43
 70
     0
102
RTVSPropertyOp44
 70
     0
102
RTVSPropertyOp45
 70
     0
102
RTVSPropertyOp46
 70
     0
102
RTVSPropertyOp47
 70
     0
102
RTVSPropertyOp48
 70
     0
102
RTVSPropertyOp49
 70
     0
102
RTVSPropertyOp50
 70
     0
102
RTVSPropertyOp51
 70
     0
102
RTVSPropertyOp52
 70
     0
102
RTVSPropertyOp53
 70
     0
102
RTVSPropertyOp54
 70
     0
102
RTVSPropertyOp55
 70
     0
102
RTVSPropertyOp56
 70
     0
102
RTVSPropertyOp57
 70
     0
102
RTVSPropertyOp58
 70
     1
102
RTVSPropertyOp59
 70
     1
102
RTVSPropertyOp60
 70
     1
102
RTVSPropertyOp61
 70
     1
102
RTVSPropertyOp62
 70
     1
  0
XRECORD
  5
409C
102
{ACAD_REACTORS
330
409B
102
}
330
409B
100
AcDbXrecord
280
     1
102
RTVSPost2010Prop28
280
     0
102
RTVSPost2010PropOp28
 70
     1
102
RTVSPost2010Prop29
280
     1
102
RTVSPost2010PropOp29
 70
     1
102
RTVSPost2010Prop30
280
     1
102
RTVSPost2010PropOp30
 70
     1
102
RTVSPost2010Prop31
280
     0
102
RTVSPost2010PropOp31
 70
     1
102
RTVSPost2010Prop32
280
     0
102
RTVSPost2010PropOp32
 70
     1
102
RTVSPost2010Prop33
280
     0
102
RTVSPost2010PropOp33
 70
     1
102
RTVSPost2010Prop34
280
     0
102
RTVSPost2010PropOp34
 70
     1
102
RTVSPost2010Prop35
280
     0
102
RTVSPost2010PropOp35
 70
     1
102
RTVSPost2010Prop36
280
     0
102
RTVSPost2010PropOp36
 70
     1
102
RTVSPost2010Prop37
 90
       50
102
RTVSPost2010PropOp37
 70
     1
102
RTVSPost2010Prop38
140
0.0
102
RTVSPost2010PropOp38
 70
     1
102
RTVSPost2010Prop39
140
1.0
102
RTVSPost2010PropOp39
 70
     1
102
RTVSPost2010Prop40
 90
        0
102
RTVSPost2010PropOp40
 70
     1
102
RTVSPost2010Prop41ColorIndex
 90
       18
102
RTVSPost2010Prop41ColorRGB
 90
        0
102
RTVSPost2010PropOp41
 70
     1
102
RTVSPost2010Prop42
 90
       50
102
RTVSPost2010PropOp42
 70
     1
102
RTVSPost2010Prop43
 90
        3
102
RTVSPost2010PropOp43
 70
     1
102
RTVSPost2010Prop44ColorIndex
 90
        5
102
RTVSPost2010Prop44ColorRGB
 90
      255
102
RTVSPost2010PropOp44
 70
     1
102
RTVSPost2010Prop45
280
     0
102
RTVSPost2010PropOp45
 70
     1
102
RTVSPost2010Prop46
 90
       50
102
RTVSPost2010PropOp46
 70
     1
102
RTVSPost2010Prop47
 90
       50
102
RTVSPost2010PropOp47
 70
     1
102
RTVSPost2010Prop48
 90
       50
102
RTVSPost2010PropOp48
 70
     1
102
RTVSPost2010Prop49
280
     0
102
RTVSPost2010PropOp49
 70
     1
102
RTVSPost2010Prop50
 90
       50
102
RTVSPost2010PropOp50
 70
     1
102
RTVSPost2010Prop51ColorIndex
 90
      256
102
RTVSPost2010Prop51ColorRGB
 90
-16777216
102
RTVSPost2010PropOp51
 70
     0
102
RTVSPost2010Prop52
140
1.0
102
RTVSPost2010PropOp52
 70
     0
102
RTVSPost2010Prop53
 90
        2
102
RTVSPost2010PropOp53
 70
     1
102
RTVSPost2010Prop54
  1
strokes_ogs.tif
102
RTVSPost2010PropOp54
 70
     1
102
RTVSPost2010Prop55
280
     0
102
RTVSPost2010PropOp55
 70
     1
102
RTVSPost2010Prop56
140
1.0
102
RTVSPost2010PropOp56
 70
     1
102
RTVSPost2010Prop57
140
1.0
102
RTVSPost2010PropOp57
 70
     1
102
RTVSPropertyOp0
 70
     1
102
RTVSPropertyOp1
 70
     1
102
RTVSPropertyOp2
 70
     1
102
RTVSPropertyOp3
 70
     1
102
RTVSPropertyOp4
 70
     1
102
RTVSPropertyOp5
 70
     1
102
RTVSPropertyOp6
 70
     1
102
RTVSPropertyOp7
 70
     1
102
RTVSPropertyOp8
 70
     1
102
RTVSPropertyOp9
 70
     1
102
RTVSPropertyOp10
 70
     1
102
RTVSPropertyOp11
 70
     1
102
RTVSPropertyOp12
 70
     1
102
RTVSPropertyOp13
 70
     1
102
RTVSPropertyOp14
 70
     1
102
RTVSPropertyOp15
 70
     1
102
RTVSPropertyOp16
 70
     1
102
RTVSPropertyOp17
 70
     1
102
RTVSPropertyOp18
 70
     1
102
RTVSPropertyOp19
 70
     1
102
RTVSPropertyOp20
 70
     1
102
RTVSPropertyOp21
 70
     1
102
RTVSPropertyOp22
 70
     1
102
RTVSPropertyOp23
 70
     1
102
RTVSPropertyOp24
 70
     1
102
RTVSPropertyOp25
 70
     1
102
RTVSPropertyOp26
 70
     1
102
RTVSPropertyOp27
 70
     1
102
RTVSPropertyOp28
 70
     1
102
RTVSPropertyOp29
 70
     1
102
RTVSPropertyOp30
 70
     1
102
RTVSPropertyOp31
 70
     1
102
RTVSPropertyOp32
 70
     1
102
RTVSPropertyOp33
 70
     1
102
RTVSPropertyOp34
 70
     1
102
RTVSPropertyOp35
 70
     1
102
RTVSPropertyOp36
 70
     1
102
RTVSPropertyOp37
 70
     1
102
RTVSPropertyOp38
 70
     1
102
RTVSPropertyOp39
 70
     1
102
RTVSPropertyOp40
 70
     1
102
RTVSPropertyOp41
 70
     1
102
RTVSPropertyOp42
 70
     1
102
RTVSPropertyOp43
 70
     1
102
RTVSPropertyOp44
 70
     1
102
RTVSPropertyOp45
 70
     1
102
RTVSPropertyOp46
 70
     1
102
RTVSPropertyOp47
 70
     1
102
RTVSPropertyOp48
 70
     1
102
RTVSPropertyOp49
 70
     1
102
RTVSPropertyOp50
 70
     1
102
RTVSPropertyOp51
 70
     0
102
RTVSPropertyOp52
 70
     0
102
RTVSPropertyOp53
 70
     1
102
RTVSPropertyOp54
 70
     1
102
RTVSPropertyOp55
 70
     1
102
RTVSPropertyOp56
 70
     1
102
RTVSPropertyOp57
 70
     1
102
RTVSPropertyOp58
 70
     1
102
RTVSPropertyOp59
 70
     1
102
RTVSPropertyOp60
 70
     1
102
RTVSPropertyOp61
 70
     1
102
RTVSPropertyOp62
 70
     1
  0
XRECORD
  5
40B2
102
{ACAD_REACTORS
330
40B1
102
}
330
40B1
100
AcDbXrecord
280
     1
102
RTVSPost2010Prop28
280
     0
102
RTVSPost2010PropOp28
 70
     1
102
RTVSPost2010Prop29
280
     1
102
RTVSPost2010PropOp29
 70
     1
102
RTVSPost2010Prop30
280
     1
102
RTVSPost2010PropOp30
 70
     1
102
RTVSPost2010Prop31
280
     0
102
RTVSPost2010PropOp31
 70
     1
102
RTVSPost2010Prop32
280
     0
102
RTVSPost2010PropOp32
 70
     1
102
RTVSPost2010Prop33
280
     0
102
RTVSPost2010PropOp33
 70
     1
102
RTVSPost2010Prop34
280
     0
102
RTVSPost2010PropOp34
 70
     1
102
RTVSPost2010Prop35
280
     0
102
RTVSPost2010PropOp35
 70
     1
102
RTVSPost2010Prop36
280
     0
102
RTVSPost2010PropOp36
 70
     1
102
RTVSPost2010Prop37
 90
       50
102
RTVSPost2010PropOp37
 70
     1
102
RTVSPost2010Prop38
140
0.0
102
RTVSPost2010PropOp38
 70
     1
102
RTVSPost2010Prop39
140
1.0
102
RTVSPost2010PropOp39
 70
     1
102
RTVSPost2010Prop40
 90
        0
102
RTVSPost2010PropOp40
 70
     1
102
RTVSPost2010Prop41ColorIndex
 90
       18
102
RTVSPost2010Prop41ColorRGB
 90
        0
102
RTVSPost2010PropOp41
 70
     1
102
RTVSPost2010Prop42
 90
       50
102
RTVSPost2010PropOp42
 70
     1
102
RTVSPost2010Prop43
 90
        3
102
RTVSPost2010PropOp43
 70
     1
102
RTVSPost2010Prop44ColorIndex
 90
        5
102
RTVSPost2010Prop44ColorRGB
 90
      255
102
RTVSPost2010PropOp44
 70
     1
102
RTVSPost2010Prop45
280
     0
102
RTVSPost2010PropOp45
 70
     1
102
RTVSPost2010Prop46
 90
       50
102
RTVSPost2010PropOp46
 70
     1
102
RTVSPost2010Prop47
 90
       50
102
RTVSPost2010PropOp47
 70
     1
102
RTVSPost2010Prop48
 90
       50
102
RTVSPost2010PropOp48
 70
     1
102
RTVSPost2010Prop49
280
     0
102
RTVSPost2010PropOp49
 70
     1
102
RTVSPost2010Prop50
 90
       50
102
RTVSPost2010PropOp50
 70
     1
102
RTVSPost2010Prop51ColorIndex
 90
      256
102
RTVSPost2010Prop51ColorRGB
 90
-16777216
102
RTVSPost2010PropOp51
 70
     0
102
RTVSPost2010Prop52
140
1.0
102
RTVSPost2010PropOp52
 70
     0
102
RTVSPost2010Prop53
 90
        2
102
RTVSPost2010PropOp53
 70
     1
102
RTVSPost2010Prop54
  1
strokes_ogs.tif
102
RTVSPost2010PropOp54
 70
     1
102
RTVSPost2010Prop55
280
     0
102
RTVSPost2010PropOp55
 70
     1
102
RTVSPost2010Prop56
140
1.0
102
RTVSPost2010PropOp56
 70
     1
102
RTVSPost2010Prop57
140
1.0
102
RTVSPost2010PropOp57
 70
     1
102
RTVSPropertyOp0
 70
     1
102
RTVSPropertyOp1
 70
     1
102
RTVSPropertyOp2
 70
     1
102
RTVSPropertyOp3
 70
     1
102
RTVSPropertyOp4
 70
     1
102
RTVSPropertyOp5
 70
     1
102
RTVSPropertyOp6
 70
     1
102
RTVSPropertyOp7
 70
     1
102
RTVSPropertyOp8
 70
     1
102
RTVSPropertyOp9
 70
     1
102
RTVSPropertyOp10
 70
     1
102
RTVSPropertyOp11
 70
     1
102
RTVSPropertyOp12
 70
     1
102
RTVSPropertyOp13
 70
     1
102
RTVSPropertyOp14
 70
     1
102
RTVSPropertyOp15
 70
     1
102
RTVSPropertyOp16
 70
     1
102
RTVSPropertyOp17
 70
     1
102
RTVSPropertyOp18
 70
     1
102
RTVSPropertyOp19
 70
     1
102
RTVSPropertyOp20
 70
     1
102
RTVSPropertyOp21
 70
     1
102
RTVSPropertyOp22
 70
     1
102
RTVSPropertyOp23
 70
     1
102
RTVSPropertyOp24
 70
     1
102
RTVSPropertyOp25
 70
     1
102
RTVSPropertyOp26
 70
     1
102
RTVSPropertyOp27
 70
     1
102
RTVSPropertyOp28
 70
     1
102
RTVSPropertyOp29
 70
     1
102
RTVSPropertyOp30
 70
     1
102
RTVSPropertyOp31
 70
     1
102
RTVSPropertyOp32
 70
     1
102
RTVSPropertyOp33
 70
     1
102
RTVSPropertyOp34
 70
     1
102
RTVSPropertyOp35
 70
     1
102
RTVSPropertyOp36
 70
     1
102
RTVSPropertyOp37
 70
     1
102
RTVSPropertyOp38
 70
     1
102
RTVSPropertyOp39
 70
     1
102
RTVSPropertyOp40
 70
     1
102
RTVSPropertyOp41
 70
     1
102
RTVSPropertyOp42
 70
     1
102
RTVSPropertyOp43
 70
     1
102
RTVSPropertyOp44
 70
     1
102
RTVSPropertyOp45
 70
     1
102
RTVSPropertyOp46
 70
     1
102
RTVSPropertyOp47
 70
     1
102
RTVSPropertyOp48
 70
     1
102
RTVSPropertyOp49
 70
     1
102
RTVSPropertyOp50
 70
     1
102
RTVSPropertyOp51
 70
     0
102
RTVSPropertyOp52
 70
     0
102
RTVSPropertyOp53
 70
     1
102
RTVSPropertyOp54
 70
     1
102
RTVSPropertyOp55
 70
     1
102
RTVSPropertyOp56
 70
     1
102
RTVSPropertyOp57
 70
     1
102
RTVSPropertyOp58
 70
     1
102
RTVSPropertyOp59
 70
     1
102
RTVSPropertyOp60
 70
     1
102
RTVSPropertyOp61
 70
     1
102
RTVSPropertyOp62
 70
     1
  0
XRECORD
  5
40B0
102
{ACAD_REACTORS
330
40AF
102
}
330
40AF
100
AcDbXrecord
280
     1
102
RTVSPost2010Prop28
280
     0
102
RTVSPost2010PropOp28
 70
     1
102
RTVSPost2010Prop29
280
     1
102
RTVSPost2010PropOp29
 70
     1
102
RTVSPost2010Prop30
280
     1
102
RTVSPost2010PropOp30
 70
     1
102
RTVSPost2010Prop31
280
     0
102
RTVSPost2010PropOp31
 70
     1
102
RTVSPost2010Prop32
280
     0
102
RTVSPost2010PropOp32
 70
     1
102
RTVSPost2010Prop33
280
     0
102
RTVSPost2010PropOp33
 70
     1
102
RTVSPost2010Prop34
280
     0
102
RTVSPost2010PropOp34
 70
     1
102
RTVSPost2010Prop35
280
     0
102
RTVSPost2010PropOp35
 70
     1
102
RTVSPost2010Prop36
280
     0
102
RTVSPost2010PropOp36
 70
     1
102
RTVSPost2010Prop37
 90
       50
102
RTVSPost2010PropOp37
 70
     1
102
RTVSPost2010Prop38
140
0.0
102
RTVSPost2010PropOp38
 70
     1
102
RTVSPost2010Prop39
140
1.0
102
RTVSPost2010PropOp39
 70
     1
102
RTVSPost2010Prop40
 90
        0
102
RTVSPost2010PropOp40
 70
     1
102
RTVSPost2010Prop41ColorIndex
 90
       18
102
RTVSPost2010Prop41ColorRGB
 90
        0
102
RTVSPost2010PropOp41
 70
     1
102
RTVSPost2010Prop42
 90
       50
102
RTVSPost2010PropOp42
 70
     1
102
RTVSPost2010Prop43
 90
        3
102
RTVSPost2010PropOp43
 70
     1
102
RTVSPost2010Prop44ColorIndex
 90
        5
102
RTVSPost2010Prop44ColorRGB
 90
      255
102
RTVSPost2010PropOp44
 70
     1
102
RTVSPost2010Prop45
280
     0
102
RTVSPost2010PropOp45
 70
     1
102
RTVSPost2010Prop46
 90
       50
102
RTVSPost2010PropOp46
 70
     1
102
RTVSPost2010Prop47
 90
       50
102
RTVSPost2010PropOp47
 70
     1
102
RTVSPost2010Prop48
 90
       50
102
RTVSPost2010PropOp48
 70
     1
102
RTVSPost2010Prop49
280
     0
102
RTVSPost2010PropOp49
 70
     1
102
RTVSPost2010Prop50
 90
       50
102
RTVSPost2010PropOp50
 70
     1
102
RTVSPost2010Prop51ColorIndex
 90
      256
102
RTVSPost2010Prop51ColorRGB
 90
-16777216
102
RTVSPost2010PropOp51
 70
     0
102
RTVSPost2010Prop52
140
1.0
102
RTVSPost2010PropOp52
 70
     0
102
RTVSPost2010Prop53
 90
        2
102
RTVSPost2010PropOp53
 70
     1
102
RTVSPost2010Prop54
  1
strokes_ogs.tif
102
RTVSPost2010PropOp54
 70
     1
102
RTVSPost2010Prop55
280
     0
102
RTVSPost2010PropOp55
 70
     1
102
RTVSPost2010Prop56
140
1.0
102
RTVSPost2010PropOp56
 70
     1
102
RTVSPost2010Prop57
140
1.0
102
RTVSPost2010PropOp57
 70
     1
102
RTVSPropertyOp0
 70
     1
102
RTVSPropertyOp1
 70
     1
102
RTVSPropertyOp2
 70
     1
102
RTVSPropertyOp3
 70
     1
102
RTVSPropertyOp4
 70
     1
102
RTVSPropertyOp5
 70
     1
102
RTVSPropertyOp6
 70
     1
102
RTVSPropertyOp7
 70
     1
102
RTVSPropertyOp8
 70
     1
102
RTVSPropertyOp9
 70
     1
102
RTVSPropertyOp10
 70
     1
102
RTVSPropertyOp11
 70
     1
102
RTVSPropertyOp12
 70
     1
102
RTVSPropertyOp13
 70
     1
102
RTVSPropertyOp14
 70
     1
102
RTVSPropertyOp15
 70
     1
102
RTVSPropertyOp16
 70
     1
102
RTVSPropertyOp17
 70
     1
102
RTVSPropertyOp18
 70
     1
102
RTVSPropertyOp19
 70
     1
102
RTVSPropertyOp20
 70
     1
102
RTVSPropertyOp21
 70
     1
102
RTVSPropertyOp22
 70
     1
102
RTVSPropertyOp23
 70
     1
102
RTVSPropertyOp24
 70
     1
102
RTVSPropertyOp25
 70
     1
102
RTVSPropertyOp26
 70
     1
102
RTVSPropertyOp27
 70
     1
102
RTVSPropertyOp28
 70
     1
102
RTVSPropertyOp29
 70
     1
102
RTVSPropertyOp30
 70
     1
102
RTVSPropertyOp31
 70
     1
102
RTVSPropertyOp32
 70
     1
102
RTVSPropertyOp33
 70
     1
102
RTVSPropertyOp34
 70
     1
102
RTVSPropertyOp35
 70
     1
102
RTVSPropertyOp36
 70
     1
102
RTVSPropertyOp37
 70
     1
102
RTVSPropertyOp38
 70
     1
102
RTVSPropertyOp39
 70
     1
102
RTVSPropertyOp40
 70
     1
102
RTVSPropertyOp41
 70
     1
102
RTVSPropertyOp42
 70
     1
102
RTVSPropertyOp43
 70
     1
102
RTVSPropertyOp44
 70
     1
102
RTVSPropertyOp45
 70
     1
102
RTVSPropertyOp46
 70
     1
102
RTVSPropertyOp47
 70
     1
102
RTVSPropertyOp48
 70
     1
102
RTVSPropertyOp49
 70
     1
102
RTVSPropertyOp50
 70
     1
102
RTVSPropertyOp51
 70
     0
102
RTVSPropertyOp52
 70
     0
102
RTVSPropertyOp53
 70
     1
102
RTVSPropertyOp54
 70
     1
102
RTVSPropertyOp55
 70
     1
102
RTVSPropertyOp56
 70
     1
102
RTVSPropertyOp57
 70
     1
102
RTVSPropertyOp58
 70
     1
102
RTVSPropertyOp59
 70
     1
102
RTVSPropertyOp60
 70
     1
102
RTVSPropertyOp61
 70
     1
102
RTVSPropertyOp62
 70
     1
  0
XRECORD
  5
40AA
102
{ACAD_REACTORS
330
40A9
102
}
330
40A9
100
AcDbXrecord
280
     1
102
RTVSPost2010Prop28
280
     0
102
RTVSPost2010PropOp28
 70
     1
102
RTVSPost2010Prop29
280
     1
102
RTVSPost2010PropOp29
 70
     1
102
RTVSPost2010Prop30
280
     1
102
RTVSPost2010PropOp30
 70
     1
102
RTVSPost2010Prop31
280
     0
102
RTVSPost2010PropOp31
 70
     1
102
RTVSPost2010Prop32
280
     0
102
RTVSPost2010PropOp32
 70
     1
102
RTVSPost2010Prop33
280
     0
102
RTVSPost2010PropOp33
 70
     1
102
RTVSPost2010Prop34
280
     0
102
RTVSPost2010PropOp34
 70
     1
102
RTVSPost2010Prop35
280
     0
102
RTVSPost2010PropOp35
 70
     1
102
RTVSPost2010Prop36
280
     0
102
RTVSPost2010PropOp36
 70
     1
102
RTVSPost2010Prop37
 90
       50
102
RTVSPost2010PropOp37
 70
     1
102
RTVSPost2010Prop38
140
0.0
102
RTVSPost2010PropOp38
 70
     1
102
RTVSPost2010Prop39
140
1.0
102
RTVSPost2010PropOp39
 70
     1
102
RTVSPost2010Prop40
 90
        0
102
RTVSPost2010PropOp40
 70
     1
102
RTVSPost2010Prop41ColorIndex
 90
       18
102
RTVSPost2010Prop41ColorRGB
 90
        0
102
RTVSPost2010PropOp41
 70
     1
102
RTVSPost2010Prop42
 90
       50
102
RTVSPost2010PropOp42
 70
     1
102
RTVSPost2010Prop43
 90
        3
102
RTVSPost2010PropOp43
 70
     1
102
RTVSPost2010Prop44ColorIndex
 90
        5
102
RTVSPost2010Prop44ColorRGB
 90
      255
102
RTVSPost2010PropOp44
 70
     1
102
RTVSPost2010Prop45
280
     0
102
RTVSPost2010PropOp45
 70
     1
102
RTVSPost2010Prop46
 90
       50
102
RTVSPost2010PropOp46
 70
     1
102
RTVSPost2010Prop47
 90
       50
102
RTVSPost2010PropOp47
 70
     1
102
RTVSPost2010Prop48
 90
       50
102
RTVSPost2010PropOp48
 70
     1
102
RTVSPost2010Prop49
280
     0
102
RTVSPost2010PropOp49
 70
     1
102
RTVSPost2010Prop50
 90
       50
102
RTVSPost2010PropOp50
 70
     1
102
RTVSPost2010Prop51ColorIndex
 90
      256
102
RTVSPost2010Prop51ColorRGB
 90
-16777216
102
RTVSPost2010PropOp51
 70
     0
102
RTVSPost2010Prop52
140
1.0
102
RTVSPost2010PropOp52
 70
     0
102
RTVSPost2010Prop53
 90
        2
102
RTVSPost2010PropOp53
 70
     1
102
RTVSPost2010Prop54
  1
strokes_ogs.tif
102
RTVSPost2010PropOp54
 70
     1
102
RTVSPost2010Prop55
280
     0
102
RTVSPost2010PropOp55
 70
     1
102
RTVSPost2010Prop56
140
1.0
102
RTVSPost2010PropOp56
 70
     1
102
RTVSPost2010Prop57
140
1.0
102
RTVSPost2010PropOp57
 70
     1
102
RTVSPropertyOp0
 70
     1
102
RTVSPropertyOp1
 70
     1
102
RTVSPropertyOp2
 70
     1
102
RTVSPropertyOp3
 70
     1
102
RTVSPropertyOp4
 70
     1
102
RTVSPropertyOp5
 70
     1
102
RTVSPropertyOp6
 70
     1
102
RTVSPropertyOp7
 70
     1
102
RTVSPropertyOp8
 70
     1
102
RTVSPropertyOp9
 70
     1
102
RTVSPropertyOp10
 70
     1
102
RTVSPropertyOp11
 70
     1
102
RTVSPropertyOp12
 70
     1
102
RTVSPropertyOp13
 70
     1
102
RTVSPropertyOp14
 70
     1
102
RTVSPropertyOp15
 70
     1
102
RTVSPropertyOp16
 70
     1
102
RTVSPropertyOp17
 70
     1
102
RTVSPropertyOp18
 70
     1
102
RTVSPropertyOp19
 70
     1
102
RTVSPropertyOp20
 70
     1
102
RTVSPropertyOp21
 70
     1
102
RTVSPropertyOp22
 70
     1
102
RTVSPropertyOp23
 70
     1
102
RTVSPropertyOp24
 70
     1
102
RTVSPropertyOp25
 70
     1
102
RTVSPropertyOp26
 70
     1
102
RTVSPropertyOp27
 70
     1
102
RTVSPropertyOp28
 70
     1
102
RTVSPropertyOp29
 70
     1
102
RTVSPropertyOp30
 70
     1
102
RTVSPropertyOp31
 70
     1
102
RTVSPropertyOp32
 70
     1
102
RTVSPropertyOp33
 70
     1
102
RTVSPropertyOp34
 70
     1
102
RTVSPropertyOp35
 70
     1
102
RTVSPropertyOp36
 70
     1
102
RTVSPropertyOp37
 70
     1
102
RTVSPropertyOp38
 70
     1
102
RTVSPropertyOp39
 70
     1
102
RTVSPropertyOp40
 70
     1
102
RTVSPropertyOp41
 70
     1
102
RTVSPropertyOp42
 70
     1
102
RTVSPropertyOp43
 70
     1
102
RTVSPropertyOp44
 70
     1
102
RTVSPropertyOp45
 70
     1
102
RTVSPropertyOp46
 70
     1
102
RTVSPropertyOp47
 70
     1
102
RTVSPropertyOp48
 70
     1
102
RTVSPropertyOp49
 70
     1
102
RTVSPropertyOp50
 70
     1
102
RTVSPropertyOp51
 70
     0
102
RTVSPropertyOp52
 70
     0
102
RTVSPropertyOp53
 70
     1
102
RTVSPropertyOp54
 70
     1
102
RTVSPropertyOp55
 70
     1
102
RTVSPropertyOp56
 70
     1
102
RTVSPropertyOp57
 70
     1
102
RTVSPropertyOp58
 70
     1
102
RTVSPropertyOp59
 70
     1
102
RTVSPropertyOp60
 70
     1
102
RTVSPropertyOp61
 70
     1
102
RTVSPropertyOp62
 70
     1
  0
XRECORD
  5
40AC
102
{ACAD_REACTORS
330
40AB
102
}
330
40AB
100
AcDbXrecord
280
     1
102
RTVSPost2010Prop28
280
     0
102
RTVSPost2010PropOp28
 70
     1
102
RTVSPost2010Prop29
280
     1
102
RTVSPost2010PropOp29
 70
     1
102
RTVSPost2010Prop30
280
     1
102
RTVSPost2010PropOp30
 70
     1
102
RTVSPost2010Prop31
280
     0
102
RTVSPost2010PropOp31
 70
     1
102
RTVSPost2010Prop32
280
     0
102
RTVSPost2010PropOp32
 70
     1
102
RTVSPost2010Prop33
280
     0
102
RTVSPost2010PropOp33
 70
     1
102
RTVSPost2010Prop34
280
     0
102
RTVSPost2010PropOp34
 70
     1
102
RTVSPost2010Prop35
280
     0
102
RTVSPost2010PropOp35
 70
     1
102
RTVSPost2010Prop36
280
     0
102
RTVSPost2010PropOp36
 70
     1
102
RTVSPost2010Prop37
 90
       50
102
RTVSPost2010PropOp37
 70
     1
102
RTVSPost2010Prop38
140
0.0
102
RTVSPost2010PropOp38
 70
     1
102
RTVSPost2010Prop39
140
1.0
102
RTVSPost2010PropOp39
 70
     1
102
RTVSPost2010Prop40
 90
        0
102
RTVSPost2010PropOp40
 70
     1
102
RTVSPost2010Prop41ColorIndex
 90
       18
102
RTVSPost2010Prop41ColorRGB
 90
        0
102
RTVSPost2010PropOp41
 70
     1
102
RTVSPost2010Prop42
 90
       50
102
RTVSPost2010PropOp42
 70
     1
102
RTVSPost2010Prop43
 90
        3
102
RTVSPost2010PropOp43
 70
     1
102
RTVSPost2010Prop44ColorIndex
 90
        5
102
RTVSPost2010Prop44ColorRGB
 90
      255
102
RTVSPost2010PropOp44
 70
     1
102
RTVSPost2010Prop45
280
     0
102
RTVSPost2010PropOp45
 70
     1
102
RTVSPost2010Prop46
 90
       50
102
RTVSPost2010PropOp46
 70
     1
102
RTVSPost2010Prop47
 90
       50
102
RTVSPost2010PropOp47
 70
     1
102
RTVSPost2010Prop48
 90
       50
102
RTVSPost2010PropOp48
 70
     1
102
RTVSPost2010Prop49
280
     0
102
RTVSPost2010PropOp49
 70
     1
102
RTVSPost2010Prop50
 90
       50
102
RTVSPost2010PropOp50
 70
     1
102
RTVSPost2010Prop51ColorIndex
 90
      256
102
RTVSPost2010Prop51ColorRGB
 90
-16777216
102
RTVSPost2010PropOp51
 70
     0
102
RTVSPost2010Prop52
140
1.0
102
RTVSPost2010PropOp52
 70
     0
102
RTVSPost2010Prop53
 90
        2
102
RTVSPost2010PropOp53
 70
     1
102
RTVSPost2010Prop54
  1
strokes_ogs.tif
102
RTVSPost2010PropOp54
 70
     1
102
RTVSPost2010Prop55
280
     0
102
RTVSPost2010PropOp55
 70
     1
102
RTVSPost2010Prop56
140
1.0
102
RTVSPost2010PropOp56
 70
     1
102
RTVSPost2010Prop57
140
1.0
102
RTVSPost2010PropOp57
 70
     1
102
RTVSPropertyOp0
 70
     1
102
RTVSPropertyOp1
 70
     1
102
RTVSPropertyOp2
 70
     1
102
RTVSPropertyOp3
 70
     1
102
RTVSPropertyOp4
 70
     1
102
RTVSPropertyOp5
 70
     1
102
RTVSPropertyOp6
 70
     1
102
RTVSPropertyOp7
 70
     1
102
RTVSPropertyOp8
 70
     1
102
RTVSPropertyOp9
 70
     1
102
RTVSPropertyOp10
 70
     1
102
RTVSPropertyOp11
 70
     1
102
RTVSPropertyOp12
 70
     1
102
RTVSPropertyOp13
 70
     1
102
RTVSPropertyOp14
 70
     1
102
RTVSPropertyOp15
 70
     1
102
RTVSPropertyOp16
 70
     1
102
RTVSPropertyOp17
 70
     1
102
RTVSPropertyOp18
 70
     1
102
RTVSPropertyOp19
 70
     1
102
RTVSPropertyOp20
 70
     1
102
RTVSPropertyOp21
 70
     1
102
RTVSPropertyOp22
 70
     1
102
RTVSPropertyOp23
 70
     1
102
RTVSPropertyOp24
 70
     1
102
RTVSPropertyOp25
 70
     1
102
RTVSPropertyOp26
 70
     1
102
RTVSPropertyOp27
 70
     1
102
RTVSPropertyOp28
 70
     1
102
RTVSPropertyOp29
 70
     1
102
RTVSPropertyOp30
 70
     1
102
RTVSPropertyOp31
 70
     1
102
RTVSPropertyOp32
 70
     1
102
RTVSPropertyOp33
 70
     1
102
RTVSPropertyOp34
 70
     1
102
RTVSPropertyOp35
 70
     1
102
RTVSPropertyOp36
 70
     1
102
RTVSPropertyOp37
 70
     1
102
RTVSPropertyOp38
 70
     1
102
RTVSPropertyOp39
 70
     1
102
RTVSPropertyOp40
 70
     1
102
RTVSPropertyOp41
 70
     1
102
RTVSPropertyOp42
 70
     1
102
RTVSPropertyOp43
 70
     1
102
RTVSPropertyOp44
 70
     1
102
RTVSPropertyOp45
 70
     1
102
RTVSPropertyOp46
 70
     1
102
RTVSPropertyOp47
 70
     1
102
RTVSPropertyOp48
 70
     1
102
RTVSPropertyOp49
 70
     1
102
RTVSPropertyOp50
 70
     1
102
RTVSPropertyOp51
 70
     0
102
RTVSPropertyOp52
 70
     0
102
RTVSPropertyOp53
 70
     1
102
RTVSPropertyOp54
 70
     1
102
RTVSPropertyOp55
 70
     1
102
RTVSPropertyOp56
 70
     1
102
RTVSPropertyOp57
 70
     1
102
RTVSPropertyOp58
 70
     1
102
RTVSPropertyOp59
 70
     1
102
RTVSPropertyOp60
 70
     1
102
RTVSPropertyOp61
 70
     1
102
RTVSPropertyOp62
 70
     1
  0
XRECORD
  5
40A2
102
{ACAD_REACTORS
330
40A1
102
}
330
40A1
100
AcDbXrecord
280
     1
102
RTVSPost2010Prop28
280
     0
102
RTVSPost2010PropOp28
 70
     1
102
RTVSPost2010Prop29
280
     1
102
RTVSPost2010PropOp29
 70
     1
102
RTVSPost2010Prop30
280
     1
102
RTVSPost2010PropOp30
 70
     1
102
RTVSPost2010Prop31
280
     0
102
RTVSPost2010PropOp31
 70
     1
102
RTVSPost2010Prop32
280
     0
102
RTVSPost2010PropOp32
 70
     1
102
RTVSPost2010Prop33
280
     0
102
RTVSPost2010PropOp33
 70
     1
102
RTVSPost2010Prop34
280
     0
102
RTVSPost2010PropOp34
 70
     1
102
RTVSPost2010Prop35
280
     0
102
RTVSPost2010PropOp35
 70
     1
102
RTVSPost2010Prop36
280
     0
102
RTVSPost2010PropOp36
 70
     1
102
RTVSPost2010Prop37
 90
       50
102
RTVSPost2010PropOp37
 70
     1
102
RTVSPost2010Prop38
140
0.0
102
RTVSPost2010PropOp38
 70
     1
102
RTVSPost2010Prop39
140
1.0
102
RTVSPost2010PropOp39
 70
     1
102
RTVSPost2010Prop40
 90
        0
102
RTVSPost2010PropOp40
 70
     1
102
RTVSPost2010Prop41ColorIndex
 90
       18
102
RTVSPost2010Prop41ColorRGB
 90
        0
102
RTVSPost2010PropOp41
 70
     1
102
RTVSPost2010Prop42
 90
       50
102
RTVSPost2010PropOp42
 70
     1
102
RTVSPost2010Prop43
 90
        3
102
RTVSPost2010PropOp43
 70
     1
102
RTVSPost2010Prop44ColorIndex
 90
        5
102
RTVSPost2010Prop44ColorRGB
 90
      255
102
RTVSPost2010PropOp44
 70
     1
102
RTVSPost2010Prop45
280
     0
102
RTVSPost2010PropOp45
 70
     1
102
RTVSPost2010Prop46
 90
       50
102
RTVSPost2010PropOp46
 70
     1
102
RTVSPost2010Prop47
 90
       50
102
RTVSPost2010PropOp47
 70
     1
102
RTVSPost2010Prop48
 90
       50
102
RTVSPost2010PropOp48
 70
     1
102
RTVSPost2010Prop49
280
     0
102
RTVSPost2010PropOp49
 70
     1
102
RTVSPost2010Prop50
 90
       50
102
RTVSPost2010PropOp50
 70
     1
102
RTVSPost2010Prop51ColorIndex
 90
      256
102
RTVSPost2010Prop51ColorRGB
 90
-16777216
102
RTVSPost2010PropOp51
 70
     0
102
RTVSPost2010Prop52
140
1.0
102
RTVSPost2010PropOp52
 70
     0
102
RTVSPost2010Prop53
 90
        2
102
RTVSPost2010PropOp53
 70
     1
102
RTVSPost2010Prop54
  1
strokes_ogs.tif
102
RTVSPost2010PropOp54
 70
     1
102
RTVSPost2010Prop55
280
     0
102
RTVSPost2010PropOp55
 70
     1
102
RTVSPost2010Prop56
140
1.0
102
RTVSPost2010PropOp56
 70
     1
102
RTVSPost2010Prop57
140
1.0
102
RTVSPost2010PropOp57
 70
     1
102
RTVSPropertyOp0
 70
     1
102
RTVSPropertyOp1
 70
     1
102
RTVSPropertyOp2
 70
     1
102
RTVSPropertyOp3
 70
     1
102
RTVSPropertyOp4
 70
     1
102
RTVSPropertyOp5
 70
     1
102
RTVSPropertyOp6
 70
     1
102
RTVSPropertyOp7
 70
     1
102
RTVSPropertyOp8
 70
     1
102
RTVSPropertyOp9
 70
     1
102
RTVSPropertyOp10
 70
     1
102
RTVSPropertyOp11
 70
     1
102
RTVSPropertyOp12
 70
     1
102
RTVSPropertyOp13
 70
     1
102
RTVSPropertyOp14
 70
     1
102
RTVSPropertyOp15
 70
     1
102
RTVSPropertyOp16
 70
     1
102
RTVSPropertyOp17
 70
     1
102
RTVSPropertyOp18
 70
     1
102
RTVSPropertyOp19
 70
     1
102
RTVSPropertyOp20
 70
     1
102
RTVSPropertyOp21
 70
     1
102
RTVSPropertyOp22
 70
     1
102
RTVSPropertyOp23
 70
     1
102
RTVSPropertyOp24
 70
     1
102
RTVSPropertyOp25
 70
     1
102
RTVSPropertyOp26
 70
     1
102
RTVSPropertyOp27
 70
     1
102
RTVSPropertyOp28
 70
     1
102
RTVSPropertyOp29
 70
     1
102
RTVSPropertyOp30
 70
     1
102
RTVSPropertyOp31
 70
     1
102
RTVSPropertyOp32
 70
     1
102
RTVSPropertyOp33
 70
     1
102
RTVSPropertyOp34
 70
     1
102
RTVSPropertyOp35
 70
     1
102
RTVSPropertyOp36
 70
     1
102
RTVSPropertyOp37
 70
     1
102
RTVSPropertyOp38
 70
     1
102
RTVSPropertyOp39
 70
     1
102
RTVSPropertyOp40
 70
     1
102
RTVSPropertyOp41
 70
     1
102
RTVSPropertyOp42
 70
     1
102
RTVSPropertyOp43
 70
     1
102
RTVSPropertyOp44
 70
     1
102
RTVSPropertyOp45
 70
     1
102
RTVSPropertyOp46
 70
     1
102
RTVSPropertyOp47
 70
     1
102
RTVSPropertyOp48
 70
     1
102
RTVSPropertyOp49
 70
     1
102
RTVSPropertyOp50
 70
     1
102
RTVSPropertyOp51
 70
     0
102
RTVSPropertyOp52
 70
     0
102
RTVSPropertyOp53
 70
     1
102
RTVSPropertyOp54
 70
     1
102
RTVSPropertyOp55
 70
     1
102
RTVSPropertyOp56
 70
     1
102
RTVSPropertyOp57
 70
     1
102
RTVSPropertyOp58
 70
     1
102
RTVSPropertyOp59
 70
     1
102
RTVSPropertyOp60
 70
     1
102
RTVSPropertyOp61
 70
     1
102
RTVSPropertyOp62
 70
     1
  0
XRECORD
  5
4096
102
{ACAD_REACTORS
330
4095
102
}
330
4095
100
AcDbXrecord
280
     1
102
RTVSPost2010Prop28
280
     0
102
RTVSPost2010PropOp28
 70
     1
102
RTVSPost2010Prop29
280
     1
102
RTVSPost2010PropOp29
 70
     1
102
RTVSPost2010Prop30
280
     1
102
RTVSPost2010PropOp30
 70
     1
102
RTVSPost2010Prop31
280
     0
102
RTVSPost2010PropOp31
 70
     1
102
RTVSPost2010Prop32
280
     0
102
RTVSPost2010PropOp32
 70
     1
102
RTVSPost2010Prop33
280
     0
102
RTVSPost2010PropOp33
 70
     1
102
RTVSPost2010Prop34
280
     0
102
RTVSPost2010PropOp34
 70
     1
102
RTVSPost2010Prop35
280
     0
102
RTVSPost2010PropOp35
 70
     1
102
RTVSPost2010Prop36
280
     0
102
RTVSPost2010PropOp36
 70
     1
102
RTVSPost2010Prop37
 90
       50
102
RTVSPost2010PropOp37
 70
     1
102
RTVSPost2010Prop38
140
0.0
102
RTVSPost2010PropOp38
 70
     1
102
RTVSPost2010Prop39
140
1.0
102
RTVSPost2010PropOp39
 70
     1
102
RTVSPost2010Prop40
 90
        0
102
RTVSPost2010PropOp40
 70
     1
102
RTVSPost2010Prop41ColorIndex
 90
       18
102
RTVSPost2010Prop41ColorRGB
 90
        0
102
RTVSPost2010PropOp41
 70
     1
102
RTVSPost2010Prop42
 90
       50
102
RTVSPost2010PropOp42
 70
     1
102
RTVSPost2010Prop43
 90
        3
102
RTVSPost2010PropOp43
 70
     1
102
RTVSPost2010Prop44ColorIndex
 90
        5
102
RTVSPost2010Prop44ColorRGB
 90
      255
102
RTVSPost2010PropOp44
 70
     1
102
RTVSPost2010Prop45
280
     0
102
RTVSPost2010PropOp45
 70
     1
102
RTVSPost2010Prop46
 90
       50
102
RTVSPost2010PropOp46
 70
     1
102
RTVSPost2010Prop47
 90
       50
102
RTVSPost2010PropOp47
 70
     1
102
RTVSPost2010Prop48
 90
       50
102
RTVSPost2010PropOp48
 70
     1
102
RTVSPost2010Prop49
280
     0
102
RTVSPost2010PropOp49
 70
     1
102
RTVSPost2010Prop50
 90
       50
102
RTVSPost2010PropOp50
 70
     1
102
RTVSPost2010Prop51ColorIndex
 90
      256
102
RTVSPost2010Prop51ColorRGB
 90
-16777216
102
RTVSPost2010PropOp51
 70
     0
102
RTVSPost2010Prop52
140
1.0
102
RTVSPost2010PropOp52
 70
     0
102
RTVSPost2010Prop53
 90
        2
102
RTVSPost2010PropOp53
 70
     1
102
RTVSPost2010Prop54
  1
strokes_ogs.tif
102
RTVSPost2010PropOp54
 70
     1
102
RTVSPost2010Prop55
280
     0
102
RTVSPost2010PropOp55
 70
     1
102
RTVSPost2010Prop56
140
1.0
102
RTVSPost2010PropOp56
 70
     1
102
RTVSPost2010Prop57
140
1.0
102
RTVSPost2010PropOp57
 70
     1
102
RTVSPropertyOp0
 70
     1
102
RTVSPropertyOp1
 70
     1
102
RTVSPropertyOp2
 70
     1
102
RTVSPropertyOp3
 70
     1
102
RTVSPropertyOp4
 70
     1
102
RTVSPropertyOp5
 70
     1
102
RTVSPropertyOp6
 70
     1
102
RTVSPropertyOp7
 70
     1
102
RTVSPropertyOp8
 70
     1
102
RTVSPropertyOp9
 70
     1
102
RTVSPropertyOp10
 70
     1
102
RTVSPropertyOp11
 70
     1
102
RTVSPropertyOp12
 70
     1
102
RTVSPropertyOp13
 70
     1
102
RTVSPropertyOp14
 70
     1
102
RTVSPropertyOp15
 70
     1
102
RTVSPropertyOp16
 70
     1
102
RTVSPropertyOp17
 70
     1
102
RTVSPropertyOp18
 70
     1
102
RTVSPropertyOp19
 70
     1
102
RTVSPropertyOp20
 70
     1
102
RTVSPropertyOp21
 70
     1
102
RTVSPropertyOp22
 70
     1
102
RTVSPropertyOp23
 70
     1
102
RTVSPropertyOp24
 70
     1
102
RTVSPropertyOp25
 70
     1
102
RTVSPropertyOp26
 70
     1
102
RTVSPropertyOp27
 70
     1
102
RTVSPropertyOp28
 70
     1
102
RTVSPropertyOp29
 70
     1
102
RTVSPropertyOp30
 70
     1
102
RTVSPropertyOp31
 70
     1
102
RTVSPropertyOp32
 70
     1
102
RTVSPropertyOp33
 70
     1
102
RTVSPropertyOp34
 70
     1
102
RTVSPropertyOp35
 70
     1
102
RTVSPropertyOp36
 70
     1
102
RTVSPropertyOp37
 70
     1
102
RTVSPropertyOp38
 70
     1
102
RTVSPropertyOp39
 70
     1
102
RTVSPropertyOp40
 70
     1
102
RTVSPropertyOp41
 70
     1
102
RTVSPropertyOp42
 70
     1
102
RTVSPropertyOp43
 70
     1
102
RTVSPropertyOp44
 70
     1
102
RTVSPropertyOp45
 70
     1
102
RTVSPropertyOp46
 70
     1
102
RTVSPropertyOp47
 70
     1
102
RTVSPropertyOp48
 70
     1
102
RTVSPropertyOp49
 70
     1
102
RTVSPropertyOp50
 70
     1
102
RTVSPropertyOp51
 70
     0
102
RTVSPropertyOp52
 70
     0
102
RTVSPropertyOp53
 70
     1
102
RTVSPropertyOp54
 70
     1
102
RTVSPropertyOp55
 70
     1
102
RTVSPropertyOp56
 70
     1
102
RTVSPropertyOp57
 70
     1
102
RTVSPropertyOp58
 70
     1
102
RTVSPropertyOp59
 70
     1
102
RTVSPropertyOp60
 70
     1
102
RTVSPropertyOp61
 70
     1
102
RTVSPropertyOp62
 70
     1
  0
XRECORD
  5
40AE
102
{ACAD_REACTORS
330
40AD
102
}
330
40AD
100
AcDbXrecord
280
     1
102
RTVSPost2010Prop28
280
     0
102
RTVSPost2010PropOp28
 70
     1
102
RTVSPost2010Prop29
280
     1
102
RTVSPost2010PropOp29
 70
     1
102
RTVSPost2010Prop30
280
     1
102
RTVSPost2010PropOp30
 70
     1
102
RTVSPost2010Prop31
280
     0
102
RTVSPost2010PropOp31
 70
     1
102
RTVSPost2010Prop32
280
     0
102
RTVSPost2010PropOp32
 70
     1
102
RTVSPost2010Prop33
280
     0
102
RTVSPost2010PropOp33
 70
     1
102
RTVSPost2010Prop34
280
     0
102
RTVSPost2010PropOp34
 70
     1
102
RTVSPost2010Prop35
280
     0
102
RTVSPost2010PropOp35
 70
     1
102
RTVSPost2010Prop36
280
     0
102
RTVSPost2010PropOp36
 70
     1
102
RTVSPost2010Prop37
 90
       50
102
RTVSPost2010PropOp37
 70
     1
102
RTVSPost2010Prop38
140
0.0
102
RTVSPost2010PropOp38
 70
     1
102
RTVSPost2010Prop39
140
1.0
102
RTVSPost2010PropOp39
 70
     1
102
RTVSPost2010Prop40
 90
        0
102
RTVSPost2010PropOp40
 70
     1
102
RTVSPost2010Prop41ColorIndex
 90
       18
102
RTVSPost2010Prop41ColorRGB
 90
        0
102
RTVSPost2010PropOp41
 70
     1
102
RTVSPost2010Prop42
 90
       50
102
RTVSPost2010PropOp42
 70
     1
102
RTVSPost2010Prop43
 90
        3
102
RTVSPost2010PropOp43
 70
     1
102
RTVSPost2010Prop44ColorIndex
 90
        5
102
RTVSPost2010Prop44ColorRGB
 90
      255
102
RTVSPost2010PropOp44
 70
     1
102
RTVSPost2010Prop45
280
     0
102
RTVSPost2010PropOp45
 70
     1
102
RTVSPost2010Prop46
 90
       50
102
RTVSPost2010PropOp46
 70
     1
102
RTVSPost2010Prop47
 90
       50
102
RTVSPost2010PropOp47
 70
     1
102
RTVSPost2010Prop48
 90
       50
102
RTVSPost2010PropOp48
 70
     1
102
RTVSPost2010Prop49
280
     0
102
RTVSPost2010PropOp49
 70
     1
102
RTVSPost2010Prop50
 90
       50
102
RTVSPost2010PropOp50
 70
     1
102
RTVSPost2010Prop51ColorIndex
 90
      256
102
RTVSPost2010Prop51ColorRGB
 90
-16777216
102
RTVSPost2010PropOp51
 70
     0
102
RTVSPost2010Prop52
140
1.0
102
RTVSPost2010PropOp52
 70
     0
102
RTVSPost2010Prop53
 90
        2
102
RTVSPost2010PropOp53
 70
     1
102
RTVSPost2010Prop54
  1
strokes_ogs.tif
102
RTVSPost2010PropOp54
 70
     1
102
RTVSPost2010Prop55
280
     0
102
RTVSPost2010PropOp55
 70
     1
102
RTVSPost2010Prop56
140
1.0
102
RTVSPost2010PropOp56
 70
     1
102
RTVSPost2010Prop57
140
1.0
102
RTVSPost2010PropOp57
 70
     1
102
RTVSPropertyOp0
 70
     1
102
RTVSPropertyOp1
 70
     1
102
RTVSPropertyOp2
 70
     1
102
RTVSPropertyOp3
 70
     1
102
RTVSPropertyOp4
 70
     1
102
RTVSPropertyOp5
 70
     1
102
RTVSPropertyOp6
 70
     1
102
RTVSPropertyOp7
 70
     1
102
RTVSPropertyOp8
 70
     1
102
RTVSPropertyOp9
 70
     1
102
RTVSPropertyOp10
 70
     1
102
RTVSPropertyOp11
 70
     1
102
RTVSPropertyOp12
 70
     1
102
RTVSPropertyOp13
 70
     1
102
RTVSPropertyOp14
 70
     1
102
RTVSPropertyOp15
 70
     1
102
RTVSPropertyOp16
 70
     1
102
RTVSPropertyOp17
 70
     1
102
RTVSPropertyOp18
 70
     1
102
RTVSPropertyOp19
 70
     1
102
RTVSPropertyOp20
 70
     1
102
RTVSPropertyOp21
 70
     1
102
RTVSPropertyOp22
 70
     1
102
RTVSPropertyOp23
 70
     1
102
RTVSPropertyOp24
 70
     1
102
RTVSPropertyOp25
 70
     1
102
RTVSPropertyOp26
 70
     1
102
RTVSPropertyOp27
 70
     1
102
RTVSPropertyOp28
 70
     1
102
RTVSPropertyOp29
 70
     1
102
RTVSPropertyOp30
 70
     1
102
RTVSPropertyOp31
 70
     1
102
RTVSPropertyOp32
 70
     1
102
RTVSPropertyOp33
 70
     1
102
RTVSPropertyOp34
 70
     1
102
RTVSPropertyOp35
 70
     1
102
RTVSPropertyOp36
 70
     1
102
RTVSPropertyOp37
 70
     1
102
RTVSPropertyOp38
 70
     1
102
RTVSPropertyOp39
 70
     1
102
RTVSPropertyOp40
 70
     1
102
RTVSPropertyOp41
 70
     1
102
RTVSPropertyOp42
 70
     1
102
RTVSPropertyOp43
 70
     1
102
RTVSPropertyOp44
 70
     1
102
RTVSPropertyOp45
 70
     1
102
RTVSPropertyOp46
 70
     1
102
RTVSPropertyOp47
 70
     1
102
RTVSPropertyOp48
 70
     1
102
RTVSPropertyOp49
 70
     1
102
RTVSPropertyOp50
 70
     1
102
RTVSPropertyOp51
 70
     0
102
RTVSPropertyOp52
 70
     0
102
RTVSPropertyOp53
 70
     1
102
RTVSPropertyOp54
 70
     1
102
RTVSPropertyOp55
 70
     1
102
RTVSPropertyOp56
 70
     1
102
RTVSPropertyOp57
 70
     1
102
RTVSPropertyOp58
 70
     1
102
RTVSPropertyOp59
 70
     1
102
RTVSPropertyOp60
 70
     1
102
RTVSPropertyOp61
 70
     1
102
RTVSPropertyOp62
 70
     1
  0
ENDSEC
  0
EOF
