  0
SECTION
  2
HEADER
  9
$ACADVER
  1
AC1018
  9
$ACADMAINTVER
 70
   104
  9
$DWGCODEPAGE
  3
ANSI_1250
  9
$LASTSAVEDBY
  1
EVA
  9
$INSBASE
 10
0.0
 20
0.0
 30
0.0
  9
$EXTMIN
 10
-1039.824266864157
 20
-1243.864095922973
 30
0.0
  9
$EXTMAX
 10
514.2576311287593
 20
1175.077461758875
 30
0.0
  9
$LIMMIN
 10
0.0
 20
0.0
  9
$LIMMAX
 10
271.6285070728513
 20
136.3429239280804
  9
$ORTHOMODE
 70
     1
  9
$REGENMODE
 70
     1
  9
$FILLMODE
 70
     1
  9
$QTEXTMODE
 70
     0
  9
$MIRRTEXT
 70
     0
  9
$LTSCALE
 40
15.0
  9
$ATTMODE
 70
     1
  9
$TEXTSIZE
 40
14.0
  9
$TRACEWID
 40
1.0
  9
$TEXTSTYLE
  7
ROMANS
  9
$CLAYER
  8
V35
  9
$CELTYPE
  6
AUSGEZOGEN
  9
$CECOLOR
 62
     6
  9
$CELTSCALE
 40
10.0
  9
$DISPSILH
 70
     0
  9
$DIMSCALE
 40
5.0
  9
$DIMASZ
 40
3.5
  9
$DIMEXO
 40
0.0
  9
$DIMDLI
 40
3.75
  9
$DIMRND
 40
0.0
  9
$DIMDLE
 40
0.0
  9
$DIMEXE
 40
1.25
  9
$DIMTP
 40
0.0
  9
$DIMTM
 40
0.0
  9
$DIMTXT
 40
3.5
  9
$DIMCEN
 40
3.5
  9
$DIMTSZ
 40
0.0
  9
$DIMTOL
 70
     0
  9
$DIMLIM
 70
     0
  9
$DIMTIH
 70
     0
  9
$DIMTOH
 70
     0
  9
$DIMSE1
 70
     0
  9
$DIMSE2
 70
     0
  9
$DIMTAD
 70
     1
  9
$DIMZIN
 70
     8
  9
$DIMBLK
  1

  9
$DIMASO
 70
     1
  9
$DIMSHO
 70
     1
  9
$DIMPOST
  1

  9
$DIMAPOST
  1

  9
$DIMALT
 70
     0
  9
$DIMALTD
 70
     4
  9
$DIMALTF
 40
0.0394
  9
$DIMLFAC
 40
1.0
  9
$DIMTOFL
 70
     0
  9
$DIMTVP
 40
0.0
  9
$DIMTIX
 70
     0
  9
$DIMSOXD
 70
     0
  9
$DIMSAH
 70
     0
  9
$DIMBLK1
  1

  9
$DIMBLK2
  1

  9
$DIMSTYLE
  2
18
  9
$DIMCLRD
 70
     0
  9
$DIMCLRE
 70
     0
  9
$DIMCLRT
 70
     2
  9
$DIMTFAC
 40
1.0
  9
$DIMGAP
 40
0.625
  9
$DIMJUST
 70
     0
  9
$DIMSD1
 70
     0
  9
$DIMSD2
 70
     0
  9
$DIMTOLJ
 70
     1
  9
$DIMTZIN
 70
     0
  9
$DIMALTZ
 70
     0
  9
$DIMALTTZ
 70
     0
  9
$DIMUPT
 70
     0
  9
$DIMDEC
 70
     0
  9
$DIMTDEC
 70
     4
  9
$DIMALTU
 70
     8
  9
$DIMALTTD
 70
     4
  9
$DIMTXSTY
  7
ROMANS
  9
$DIMAUNIT
 70
     0
  9
$DIMADEC
 70
     0
  9
$DIMALTRND
 40
0.0
  9
$DIMAZIN
 70
     0
  9
$DIMDSEP
 70
    46
  9
$DIMATFIT
 70
     3
  9
$DIMFRAC
 70
     0
  9
$DIMLDRBLK
  1

  9
$DIMLUNIT
 70
     6
  9
$DIMLWD
 70
    -2
  9
$DIMLWE
 70
    -2
  9
$DIMTMOVE
 70
     0
  9
$LUNITS
 70
     2
  9
$LUPREC
 70
     4
  9
$SKETCHINC
 40
3.0
  9
$FILLETRAD
 40
0.0
  9
$AUNITS
 70
     0
  9
$AUPREC
 70
     0
  9
$MENU
  1
.
  9
$ELEVATION
 40
0.0
  9
$PELEVATION
 40
0.0
  9
$THICKNESS
 40
0.0
  9
$LIMCHECK
 70
     0
  9
$CHAMFERA
 40
10.0
  9
$CHAMFERB
 40
10.0
  9
$CHAMFERC
 40
20.0
  9
$CHAMFERD
 40
0.0
  9
$SKPOLY
 70
     0
  9
$TDCREATE
 40
2451600.645418067
  9
$TDUCREATE
 40
2451600.562084734
  9
$TDUPDATE
 40
2457248.493105255
  9
$TDUUPDATE
 40
2457248.409771921
  9
$TDINDWG
 40
2.3273400116
  9
$TDUSRTIMER
 40
2.3273397801
  9
$USRTIMER
 70
     1
  9
$ANGBASE
 50
0.0
  9
$ANGDIR
 70
     0
  9
$PDMODE
 70
     0
  9
$PDSIZE
 40
0.0
  9
$PLINEWID
 40
0.0
  9
$SPLFRAME
 70
     0
  9
$SPLINETYPE
 70
     6
  9
$SPLINESEGS
 70
     8
  9
$HANDSEED
  5
3FE9
  9
$SURFTAB1
 70
     6
  9
$SURFTAB2
 70
     6
  9
$SURFTYPE
 70
     6
  9
$SURFU
 70
     6
  9
$SURFV
 70
     6
  9
$UCSBASE
  2

  9
$UCSNAME
  2

  9
$UCSORG
 10
0.0
 20
0.0
 30
0.0
  9
$UCSXDIR
 10
1.0
 20
0.0
 30
0.0
  9
$UCSYDIR
 10
0.0
 20
1.0
 30
0.0
  9
$UCSORTHOREF
  2

  9
$UCSORTHOVIEW
 70
     0
  9
$UCSORGTOP
 10
0.0
 20
0.0
 30
0.0
  9
$UCSORGBOTTOM
 10
0.0
 20
0.0
 30
0.0
  9
$UCSORGLEFT
 10
0.0
 20
0.0
 30
0.0
  9
$UCSORGRIGHT
 10
0.0
 20
0.0
 30
0.0
  9
$UCSORGFRONT
 10
0.0
 20
0.0
 30
0.0
  9
$UCSORGBACK
 10
0.0
 20
0.0
 30
0.0
  9
$PUCSBASE
  2

  9
$PUCSNAME
  2

  9
$PUCSORG
 10
0.0
 20
0.0
 30
0.0
  9
$PUCSXDIR
 10
1.0
 20
0.0
 30
0.0
  9
$PUCSYDIR
 10
0.0
 20
1.0
 30
0.0
  9
$PUCSORTHOREF
  2

  9
$PUCSORTHOVIEW
 70
     0
  9
$PUCSORGTOP
 10
0.0
 20
0.0
 30
0.0
  9
$PUCSORGBOTTOM
 10
0.0
 20
0.0
 30
0.0
  9
$PUCSORGLEFT
 10
0.0
 20
0.0
 30
0.0
  9
$PUCSORGRIGHT
 10
0.0
 20
0.0
 30
0.0
  9
$PUCSORGFRONT
 10
0.0
 20
0.0
 30
0.0
  9
$PUCSORGBACK
 10
0.0
 20
0.0
 30
0.0
  9
$USERI1
 70
     0
  9
$USERI2
 70
     0
  9
$USERI3
 70
     0
  9
$USERI4
 70
     0
  9
$USERI5
 70
     0
  9
$USERR1
 40
0.0
  9
$USERR2
 40
0.0
  9
$USERR3
 40
0.0
  9
$USERR4
 40
0.0
  9
$USERR5
 40
0.0
  9
$WORLDVIEW
 70
     1
  9
$SHADEDGE
 70
     3
  9
$SHADEDIF
 70
    70
  9
$TILEMODE
 70
     0
  9
$MAXACTVP
 70
    48
  9
$PINSBASE
 10
0.0
 20
0.0
 30
0.0
  9
$PLIMCHECK
 70
     0
  9
$PEXTMIN
 10
4.451200760342317
 20
3.332852861880712
 30
0.0
  9
$PEXTMAX
 10
195.1228331906801
 20
281.9662386458112
 30
0.0
  9
$PLIMMIN
 10
-6.043083
 20
-6.762742
  9
$PLIMMAX
 10
203.930245
 20
290.205581
  9
$UNITMODE
 70
     0
  9
$VISRETAIN
 70
     1
  9
$PLINEGEN
 70
     0
  9
$PSLTSCALE
 70
     0
  9
$TREEDEPTH
 70
  3020
  9
$CMLSTYLE
  2
STANDARD
  9
$CMLJUST
 70
     0
  9
$CMLSCALE
 40
20.0
  9
$PROXYGRAPHICS
 70
     1
  9
$MEASUREMENT
 70
     0
  9
$CELWEIGHT
370
    -1
  9
$ENDCAPS
280
     0
  9
$JOINSTYLE
280
     0
  9
$LWDISPLAY
290
     0
  9
$INSUNITS
 70
     0
  9
$HYPERLINKBASE
  1

  9
$STYLESHEET
  1

  9
$XEDIT
290
     1
  9
$CEPSNTYPE
380
     0
  9
$PSTYLEMODE
290
     1
  9
$FINGERPRINTGUID
  2
{9E2E0D10-E48E-11D3-BEBA-006008753510}
  9
$VERSIONGUID
  2
{EC12030A-409E-457D-BE59-11C8374EA51A}
  9
$EXTNAMES
290
     1
  9
$PSVPSCALE
 40
0.0
  9
$OLESTARTUP
290
     0
  9
$SORTENTS
280
    96
  9
$INDEXCTL
280
     0
  9
$HIDETEXT
280
     0
  9
$XCLIPFRAME
290
     0
  9
$HALOGAP
280
     0
  9
$OBSCOLOR
 70
   257
  9
$OBSLTYPE
280
     0
  9
$INTERSECTIONDISPLAY
280
     0
  9
$INTERSECTIONCOLOR
 70
   257
  9
$DIMASSOC
280
     1
  9
$PROJECTNAME
  1

  0
ENDSEC
  0
SECTION
  2
CLASSES
  0
CLASS
  1
ACDBDICTIONARYWDFLT
  2
AcDbDictionaryWithDefault
  3
ObjectDBX Classes
 90
        0
 91
        1
280
     0
281
     0
  0
CLASS
  1
RASTERVARIABLES
  2
AcDbRasterVariables
  3
ISM
 90
        0
 91
        1
280
     0
281
     0
  0
CLASS
  1
IMAGEDEF
  2
AcDbRasterImageDef
  3
ISM
 90
        0
 91
        1
280
     0
281
     0
  0
CLASS
  1
IMAGEDEF_REACTOR
  2
AcDbRasterImageDefReactor
  3
ISM
 90
        1
 91
        0
280
     0
281
     0
  0
CLASS
  1
IMAGE
  2
AcDbRasterImage
  3
ISM
 90
     2175
 91
        0
280
     0
281
     1
  0
CLASS
  1
DICTIONARYVAR
  2
AcDbDictionaryVar
  3
ObjectDBX Classes
 90
        0
 91
       13
280
     0
281
     0
  0
CLASS
  1
MATERIAL
  2
AcDbMaterial
  3
ObjectDBX Classes
 90
     1153
 91
        3
280
     0
281
     0
  0
CLASS
  1
VISUALSTYLE
  2
AcDbVisualStyle
  3
ObjectDBX Classes
 90
     4095
 91
       24
280
     0
281
     0
  0
CLASS
  1
TABLESTYLE
  2
AcDbTableStyle
  3
ObjectDBX Classes
 90
     4095
 91
        1
280
     0
281
     0
  0
CLASS
  1
SCALE
  2
AcDbScale
  3
ObjectDBX Classes
 90
     1153
 91
       17
280
     0
281
     0
  0
CLASS
  1
MLEADERSTYLE
  2
AcDbMLeaderStyle
  3
ACDB_MLEADERSTYLE_CLASS
 90
     4095
 91
        1
280
     0
281
     0
  0
CLASS
  1
ACDBSECTIONVIEWSTYLE
  2
AcDbSectionViewStyle
  3
ObjectDBX Classes
 90
     1025
 91
        1
280
     0
281
     0
  0
CLASS
  1
ACDBDETAILVIEWSTYLE
  2
AcDbDetailViewStyle
  3
ObjectDBX Classes
 90
     1025
 91
        1
280
     0
281
     0
  0
CLASS
  1
CELLSTYLEMAP
  2
AcDbCellStyleMap
  3
ObjectDBX Classes
 90
     1152
 91
        2
280
     0
281
     0
  0
ENDSEC
  0
SECTION
  2
TABLES
  0
TABLE
  2
VPORT
  5
8
330
0
100
AcDbSymbolTable
 70
     1
  0
VPORT
  5
3E44
330
8
100
AcDbSymbolTableRecord
100
AcDbViewportTableRecord
  2
*Active
 70
     0
 10
0.0
 20
0.0
 11
1.0
 21
1.0
 12
-72.83262754664656
 22
-681.8926133161507
 13
0.0
 23
0.0
 14
10.0
 24
10.0
 15
10.0
 25
10.0
 16
0.0
 26
0.0
 36
1.0
 17
0.0
 27
0.0
 37
0.0
 40
3370.83001895747
 41
1.581724581724581
 42
50.0
 43
0.0
 44
0.0
 50
0.0
 51
0.0
 71
     0
 72
 20000
 73
     1
 74
     0
 75
     0
 76
     0
 77
     0
 78
     0
281
     0
 65
     1
110
0.0
120
0.0
130
0.0
111
1.0
121
0.0
131
0.0
112
0.0
122
1.0
132
0.0
 79
     0
146
0.0
1001
ACAD_NAV_VCDISPLAY
1070
     3
  0
ENDTAB
  0
TABLE
  2
LTYPE
  5
5
330
0
100
AcDbSymbolTable
 70
     7
  0
LTYPE
  5
12
330
5
100
AcDbSymbolTableRecord
100
AcDbLinetypeTableRecord
  2
BYBLOCK
 70
     0
  3

 72
    65
 73
     0
 40
0.0
  0
LTYPE
  5
13
330
5
100
AcDbSymbolTableRecord
100
AcDbLinetypeTableRecord
  2
BYLAYER
 70
     0
  3

 72
    65
 73
     0
 40
0.0
  0
LTYPE
  5
14
330
5
100
AcDbSymbolTableRecord
100
AcDbLinetypeTableRecord
  2
CONTINUOUS
 70
     0
  3
Solid line
 72
    65
 73
     0
 40
0.0
  0
LTYPE
  5
113E
330
5
100
AcDbSymbolTableRecord
100
AcDbLinetypeTableRecord
  2
VERDECKTX2
 70
     0
  3
Verdeckt (2x) ____ ____ ____ ____ ____ ____ ___
 72
    65
 73
     2
 40
19.05
 49
12.7
 74
     0
 49
-6.349999999999999
 74
     0
  0
LTYPE
  5
11FB
330
5
100
AcDbSymbolTableRecord
100
AcDbLinetypeTableRecord
  2
GESTRICHELT
 70
     0
  3
__ __ __ __ __ __ __ __ __ __ __ __ __ __ __
 72
    65
 73
     2
 40
0.75
 49
0.5
 74
     0
 49
-0.25
 74
     0
  0
LTYPE
  5
11FC
330
5
100
AcDbSymbolTableRecord
100
AcDbLinetypeTableRecord
  2
STRICHPUNKT
 70
     0
  3
__ . __ . __ . __ . __ . __ . __ . __ . __ . __
 72
    65
 73
     4
 40
1.0
 49
0.5
 74
     0
 49
-0.25
 74
     0
 49
0.0
 74
     0
 49
-0.25
 74
     0
  0
LTYPE
  5
11FD
330
5
100
AcDbSymbolTableRecord
100
AcDbLinetypeTableRecord
  2
VERDECKT
 70
     0
  3
_ _ _ _ _ _ _ _ _ _ _ _ _ _ _ _ _ _ _ _ _ _ _
 72
    65
 73
     2
 40
0.375
 49
0.25
 74
     0
 49
-0.125
 74
     0
  0
LTYPE
  5
1F65
330
5
100
AcDbSymbolTableRecord
100
AcDbLinetypeTableRecord
  2
AUSGEZOGEN
 70
     0
  3
Ausgezogene Linie
 72
    65
 73
     0
 40
0.0
  0
LTYPE
  5
3EA8
330
5
100
AcDbSymbolTableRecord
100
AcDbLinetypeTableRecord
  2
PHANTOM2
 70
     0
  3
___ _ _ ___ _ _ ___ _ _ ___ _ _
 72
    65
 73
     6
 40
1.25
 49
0.625
 74
     0
 49
-0.125
 74
     0
 49
0.125
 74
     0
 49
-0.125
 74
     0
 49
0.125
 74
     0
 49
-0.125
 74
     0
  0
ENDTAB
  0
TABLE
  2
LAYER
  5
2
102
{ACAD_XDICTIONARY
360
3ED0
102
}
330
0
100
AcDbSymbolTable
 70
    10
  0
LAYER
  5
E
102
{ACAD_XDICTIONARY
360
3EB1
102
}
330
2
100
AcDbSymbolTableRecord
100
AcDbLayerTableRecord
  2
0
 70
     0
 62
     7
  6
CONTINUOUS
370
    -3
390
5E8
  0
LAYER
  5
28
330
2
100
AcDbSymbolTableRecord
100
AcDbLayerTableRecord
  2
DEFPOINTS
 70
     0
 62
     7
  6
CONTINUOUS
290
     0
370
    -3
390
5E8
  0
LAYER
  5
B7
102
{ACAD_XDICTIONARY
360
3EB3
102
}
330
2
100
AcDbSymbolTableRecord
100
AcDbLayerTableRecord
  2
V5
 70
     0
 62
     7
  6
CONTINUOUS
370
    -3
390
5E8
  0
LAYER
  5
8F4
102
{ACAD_XDICTIONARY
360
3EB5
102
}
330
2
100
AcDbSymbolTableRecord
100
AcDbLayerTableRecord
  2
Mansfen
 70
     0
 62
   253
  6
CONTINUOUS
290
     0
370
    -3
390
5E8
  0
LAYER
  5
9AF
102
{ACAD_XDICTIONARY
360
3EB7
102
}
330
2
100
AcDbSymbolTableRecord
100
AcDbLayerTableRecord
  2
TXT-E
 70
     0
 62
     1
  6
CONTINUOUS
370
    -3
390
5E8
  0
LAYER
  5
11FF
102
{ACAD_XDICTIONARY
360
3EB9
102
}
330
2
100
AcDbSymbolTableRecord
100
AcDbLayerTableRecord
  2
V35
 70
     0
 62
     3
  6
CONTINUOUS
370
    -3
390
5E8
  0
LAYER
  5
1200
102
{ACAD_XDICTIONARY
360
3EBB
102
}
330
2
100
AcDbSymbolTableRecord
100
AcDbLayerTableRecord
  2
V25
 70
     0
 62
     4
  6
CONTINUOUS
370
    -3
390
5E8
  0
LAYER
  5
1202
102
{ACAD_XDICTIONARY
360
3EBD
102
}
330
2
100
AcDbSymbolTableRecord
100
AcDbLayerTableRecord
  2
ACHS
 70
     0
 62
     4
  6
STRICHPUNKT
370
    -3
390
5E8
  0
LAYER
  5
1207
102
{ACAD_XDICTIONARY
360
3EBF
102
}
330
2
100
AcDbSymbolTableRecord
100
AcDbLayerTableRecord
  2
TXT-D
 70
     0
 62
     7
  6
CONTINUOUS
370
    -3
390
5E8
  0
LAYER
  5
1C60
102
{ACAD_XDICTIONARY
360
3EC1
102
}
330
2
100
AcDbSymbolTableRecord
100
AcDbLayerTableRecord
  2
INSULATION
 70
     0
 62
     4
  6
CONTINUOUS
370
    -3
390
5E8
  0
ENDTAB
  0
TABLE
  2
STYLE
  5
3
330
0
100
AcDbSymbolTable
 70
     3
  0
STYLE
  5
F
330
3
100
AcDbSymbolTableRecord
100
AcDbTextStyleTableRecord
  2
STANDARD
 70
     0
 40
0.0
 41
1.0
 50
0.0
 71
     0
 42
2.5
  3
txt
  4

  0
STYLE
  5
BF
330
3
100
AcDbSymbolTableRecord
100
AcDbTextStyleTableRecord
  2
ROMANS
 70
     0
 40
14.0
 41
1.0
 50
0.0
 71
     0
 42
14.0
  3
arial.ttf
  4

1001
ACAD
1000
Arial
1071
       34
  0
STYLE
  5
91F
330
3
100
AcDbSymbolTableRecord
100
AcDbTextStyleTableRecord
  2
Stil1
 70
     0
 40
3.0
 41
1.0
 50
0.0
 71
     0
 42
3.0
  3
arial.ttf
  4

1001
ACAD
1000
Arial
1071
       34
  0
ENDTAB
  0
TABLE
  2
VIEW
  5
6
330
0
100
AcDbSymbolTable
 70
     0
  0
ENDTAB
  0
TABLE
  2
UCS
  5
7
330
0
100
AcDbSymbolTable
 70
     0
  0
ENDTAB
  0
TABLE
  2
APPID
  5
9
330
0
100
AcDbSymbolTable
 70
     5
  0
APPID
  5
10
330
9
100
AcDbSymbolTableRecord
100
AcDbRegAppTableRecord
  2
ACAD
 70
     0
  0
APPID
  5
19C7
330
9
100
AcDbSymbolTableRecord
100
AcDbRegAppTableRecord
  2
CONTENTBLOCKICON
 70
     0
  0
APPID
  5
3ED5
330
9
100
AcDbSymbolTableRecord
100
AcDbRegAppTableRecord
  2
ACAD_EXEMPT_FROM_CAD_STANDARDS
 70
     0
  0
APPID
  5
3ED9
330
9
100
AcDbSymbolTableRecord
100
AcDbRegAppTableRecord
  2
ACAD_NAV_VCDISPLAY
 70
     0
  0
APPID
  5
3FDC
330
9
100
AcDbSymbolTableRecord
100
AcDbRegAppTableRecord
  2
ACAD_MLEADERVER
 70
     0
  0
ENDTAB
  0
TABLE
  2
DIMSTYLE
  5
A
330
0
100
AcDbSymbolTable
 70
     3
100
AcDbDimStyleTable
 71
     0
  0
DIMSTYLE
105
1D
330
A
100
AcDbSymbolTableRecord
100
AcDbDimStyleTableRecord
  2
STANDARD
 70
     0
340
F
  0
DIMSTYLE
105
280
330
A
100
AcDbSymbolTableRecord
100
AcDbDimStyleTableRecord
  2
18
 70
     0
 40
5.0
 41
3.5
 42
0.0
 43
3.75
 44
1.25
 73
     0
 74
     0
 77
     1
 78
     8
140
3.5
141
3.5
143
0.0394
147
0.625
171
     4
178
     2
271
     0
273
     8
274
     4
277
     6
340
BF
  0
DIMSTYLE
105
3ED8
330
A
100
AcDbSymbolTableRecord
100
AcDbDimStyleTableRecord
  2
350
 70
     0
 40
100.0
 41
3.5
 42
0.0
 43
3.75
 44
1.25
 73
     0
 74
     0
 77
     1
 78
     8
140
3.5
141
3.5
143
0.0394
147
0.625
171
     4
178
     2
271
     0
273
     8
274
     4
277
     6
340
BF
  0
ENDTAB
  0
TABLE
  2
BLOCK_RECORD
  5
1
330
0
100
AcDbSymbolTable
 70
     5
  0
BLOCK_RECORD
  5
18
102
{ACAD_XDICTIONARY
360
81C
102
}
330
1
100
AcDbSymbolTableRecord
100
AcDbBlockTableRecord
  2
*MODEL_SPACE
340
5EB
  0
BLOCK_RECORD
  5
15
102
{ACAD_XDICTIONARY
360
81A
102
}
330
1
100
AcDbSymbolTableRecord
100
AcDbBlockTableRecord
  2
*PAPER_SPACE
340
5EC
  0
BLOCK_RECORD
  5
1C6E
330
1
100
AcDbSymbolTableRecord
100
AcDbBlockTableRecord
  2
DAEMM
340
0
102
{BLKREFS
331
3D15
331
3D16
331
3D17
331
3D18
331
3D19
331
3D1A
331
3D1B
331
3D1C
331
3D1D
331
3D1E
331
3D1F
331
3D20
331
3D21
331
3D22
331
3D23
331
3D24
331
3D25
331
3D26
331
3D27
331
3D28
331
3D29
331
3D2A
331
3D2B
331
3D2C
331
3D2D
331
3D2E
331
3D2F
331
3D30
331
3D31
331
3D32
331
3D33
331
3D34
331
3D35
331
3D36
331
3D37
331
3D38
331
3D39
331
3D3A
331
3D3B
331
3D3C
331
3D3D
331
3D3E
331
3D3F
331
3D40
331
3D41
331
3D42
331
3D43
331
3D44
331
3D45
331
3D46
331
3D47
331
3D48
331
3D49
331
3D4A
331
3D4B
331
3D4C
331
3D4D
331
3D4E
331
3D4F
331
3D50
331
3D51
331
3D52
331
3D53
331
3D54
331
3D55
331
3D56
331
3D57
331
3D58
331
3D59
331
3D5A
331
3D5B
331
3D5C
331
3D5D
331
3D5E
331
3D5F
331
3D60
331
3D61
331
3D62
331
3D63
331
3D64
331
3D65
331
3D66
331
3D67
331
3D68
331
3D69
331
3D6A
331
3D6B
331
3D6C
331
3D6D
331
3D6E
331
3D6F
331
3D70
331
3D71
331
3D72
331
3D73
331
3D74
331
3D75
331
3D76
331
3D77
331
3D78
331
3D79
331
3D7A
331
3D7B
331
3D7C
331
3D7D
331
3D7E
331
3D7F
331
3D80
331
3D81
331
3D82
331
3D83
331
3D84
331
3D85
331
3D86
331
3D87
331
3D88
331
3D89
331
3D8A
331
3D8B
331
3D8C
331
3D8D
331
3D8E
331
3D8F
331
3D90
331
3D91
331
3D92
331
3D93
331
3D94
331
3D95
331
3D9B
331
3D9C
331
3D9E
331
3D9F
331
3DA0
331
3DA1
331
3DA2
331
3DA4
331
3DA5
331
3DA6
331
3DA7
331
3DA9
331
3DAA
331
3DAB
331
3DAC
331
3DAD
331
3DAF
331
3C9A
331
3C9B
331
3C9C
331
3C9D
331
3C9E
331
3C9F
331
3CA2
331
3CA3
331
3CA4
331
3CA5
331
3CA6
331
3CA7
331
3CA9
331
3CAC
331
3CAD
331
3CAE
331
3CAF
331
3CB0
331
3CB1
331
3CB2
331
3CB3
331
3CB4
331
3CB5
331
3CB6
331
3CB7
331
3CB8
331
3CB9
331
3CBC
331
3DB0
331
3DB1
331
3DB2
331
3DB4
331
3DB5
331
3DB6
102
}
  0
BLOCK_RECORD
  5
3C27
330
1
100
AcDbSymbolTableRecord
100
AcDbBlockTableRecord
  2
AluPers
340
0
102
{BLKREFS
331
3D10
331
3C68
102
}
  0
BLOCK_RECORD
  5
3CE7
330
1
100
AcDbSymbolTableRecord
100
AcDbBlockTableRecord
  2
e140
340
0
102
{BLKREFS
331
3D0C
331
3DB8
331
3DB9
331
3DBA
331
3DBB
102
}
  0
BLOCK_RECORD
  5
3EDA
102
{ACAD_XDICTIONARY
360
3EDF
102
}
330
1
100
AcDbSymbolTableRecord
100
AcDbBlockTableRecord
  2
A$C46166357
340
0
  0
BLOCK_RECORD
  5
3F10
102
{ACAD_XDICTIONARY
360
3F12
102
}
330
1
100
AcDbSymbolTableRecord
100
AcDbBlockTableRecord
  2
A$C435043AD
340
0
  0
ENDTAB
  0
ENDSEC
  0
SECTION
  2
BLOCKS
  0
BLOCK
  5
19
330
18
100
AcDbEntity
  8
0
100
AcDbBlockBegin
  2
*MODEL_SPACE
 70
     0
 10
0.0
 20
0.0
 30
0.0
  3
*MODEL_SPACE
  1

  0
ENDBLK
  5
1A
330
18
100
AcDbEntity
  8
0
100
AcDbBlockEnd
  0
BLOCK
  5
16
330
15
100
AcDbEntity
 67
     1
  8
0
100
AcDbBlockBegin
  2
*PAPER_SPACE
 70
     0
 10
0.0
 20
0.0
 30
0.0
  3
*PAPER_SPACE
  1

  0
ENDBLK
  5
17
330
15
100
AcDbEntity
 67
     1
  8
0
100
AcDbBlockEnd
  0
BLOCK
  5
1C70
330
1C6E
100
AcDbEntity
  8
0
 48
5.0
100
AcDbBlockBegin
  2
DAEMM
 70
     0
 10
0.0
 20
0.0
 30
0.0
  3
DAEMM
  1

  0
LWPOLYLINE
  5
1C6F
330
1C6E
100
AcDbEntity
  8
INSULATION
100
AcDbPolyline
 90
        6
 70
     0
 43
0.0
 10
0.0
 20
0.0
 42
0.5249926553343702
 10
1.869693845669928
 20
2.710102051443413
 10
0.1303061543300714
 20
7.289897948556586
 42
-1.449489742783175
 10
3.869693845669928
 20
7.289897948556586
 10
2.130306154330071
 20
2.710102051443413
 42
0.5249926553343702
 10
4.0
 20
0.0
  0
ENDBLK
  5
1C71
330
1C6E
100
AcDbEntity
  8
0
 48
5.0
100
AcDbBlockEnd
  0
BLOCK
  5
3C66
330
3C27
100
AcDbEntity
  8
0
 62
     6
 48
5.0
100
AcDbBlockBegin
  2
AluPers
 70
     0
 10
0.0
 20
0.0
 30
0.0
  3
AluPers
  1

  0
LINE
  5
3C28
330
3C27
100
AcDbEntity
  8
V35
100
AcDbLine
 10
-29.89554808916626
 20
25.04589002863531
 30
0.0
 11
-29.89554808916648
 21
95.39626789880129
 31
0.0
  0
LINE
  5
3C29
330
3C27
100
AcDbEntity
  8
V35
100
AcDbLine
 10
-33.18447226191722
 20
95.39626789881811
 30
0.0
 11
-33.18447226191722
 21
26.99863392913034
 31
0.0
  0
LINE
  5
3C2A
330
3C27
100
AcDbEntity
  8
V35
100
AcDbLine
 10
31.38800736035182
 20
76.46889880355854
 30
0.0
 11
31.3880073603516
 21
146.8192766737187
 31
0.0
  0
LINE
  5
3C2B
330
3C27
100
AcDbEntity
  8
V35
100
AcDbLine
 10
-29.89554808916626
 20
25.04589002863531
 30
0.0
 11
31.38800736035182
 21
76.46889880355854
 31
0.0
  0
LINE
  5
3C2C
330
3C27
100
AcDbEntity
  8
V35
100
AcDbLine
 10
-27.92160851914321
 20
22.22681216627757
 30
0.0
 11
33.36194693037487
 21
73.64982094120074
 31
0.0
  0
LINE
  5
3C2D
330
3C27
100
AcDbEntity
  8
V35
100
AcDbLine
 10
-0.9999999999998863
 20
12.42814800674205
 30
0.0
 11
60.28355544951842
 21
63.85115678166505
 31
0.0
  0
LINE
  5
3C2E
330
3C27
100
AcDbEntity
  8
V35
100
AcDbLine
 10
-0.1464739196949267
 20
9.690403305361883
 30
0.0
 11
65.61652019934718
 21
64.87210741576387
 31
0.0
  0
LINE
  5
3C2F
330
3C27
100
AcDbEntity
  8
V35
100
AcDbLine
 10
0.0
 20
-0.0000000000000568
 30
0.0
 11
65.61652019934718
 21
55.05879789840879
 31
0.0
  0
LINE
  5
3C30
330
3C27
100
AcDbEntity
  8
V35
100
AcDbLine
 10
-27.92160851914321
 20
22.22681216627757
 30
0.0
 11
-0.9999999999998863
 21
12.42814800674205
 31
0.0
  0
LINE
  5
3C31
330
3C27
100
AcDbEntity
  8
V35
100
AcDbLine
 10
-67.11484273953193
 20
34.06489619314334
 30
0.0
 11
-0.1464739196949267
 21
9.690403305361883
 31
0.0
  0
LINE
  5
3C32
330
3C27
100
AcDbEntity
  8
V35
100
AcDbLine
 10
-67.11484273953203
 20
24.42780503464684
 30
0.0
 11
0.0
 21
0.0
 31
0.0
  0
LINE
  5
3C33
330
3C27
100
AcDbEntity
  8
V35
100
AcDbLine
 10
-62.08002035108382
 20
34.65945732291044
 30
0.0
 11
-35.86851254856856
 21
25.11924868755853
 31
0.0
  0
LINE
  5
3C34
330
3C27
100
AcDbEntity
  8
V35
100
AcDbLine
 10
-67.11484273953193
 20
34.06489619314334
 30
0.0
 11
-67.11484273953203
 21
24.42780503464684
 31
0.0
  0
LINE
  5
3C35
330
3C27
100
AcDbEntity
  8
V35
100
AcDbLine
 10
-35.86851254856856
 20
25.11924868755853
 30
0.0
 11
-27.92160851914321
 21
22.22681216627757
 31
0.0
  0
ARC
  5
3C36
330
3C27
100
AcDbEntity
  8
V35
100
AcDbCircle
 10
-35.18447226191722
 20
26.99863392913034
 30
0.0
 40
2.0
100
AcDbArc
 50
250.0000000000035
 51
0.0
  0
ARC
  5
3C37
330
3C27
100
AcDbEntity
  8
V35
100
AcDbCircle
 10
-26.89554808916625
 20
25.04589002863531
 30
0.0
 40
3.0
100
AcDbArc
 50
180.0
 51
250.0000000000035
  0
LINE
  5
3C38
330
3C27
100
AcDbEntity
  8
V35
100
AcDbLine
 10
-62.08002035108382
 20
34.65945732291044
 30
0.0
 11
-34.20199861847334
 21
58.05189507669609
 31
0.0
  0
LINE
  5
3C39
330
3C27
100
AcDbEntity
  8
V35
100
AcDbLine
 10
-67.11484273953193
 20
34.06489619314334
 30
0.0
 11
-33.18447226191734
 21
62.53585754661816
 31
0.0
  0
ARC
  5
3C3A
330
3C27
100
AcDbEntity
  8
V35
100
AcDbCircle
 10
-43.66265221110109
 20
34.94144441771295
 30
0.0
 40
5.587272100864986
100
AcDbArc
 50
66.91493608821812
 51
133.0850639117745
  0
ARC
  5
3C3B
330
3C27
100
AcDbEntity
  8
V35
100
AcDbCircle
 10
-44.62229184647583
 20
40.38383123519821
 30
0.0
 40
5.32650415555179
100
AcDbArc
 50
245.0676949625394
 51
314.9323050374571
  0
ARC
  5
3C3C
330
3C27
100
AcDbEntity
  8
V35
100
AcDbCircle
 10
-46.40075828556939
 20
37.42413426265926
 30
0.0
 40
1.927807214538352
100
AcDbArc
 50
124.0161584341247
 51
255.9838415658691
  0
ARC
  5
3C3D
330
3C27
100
AcDbEntity
  8
V35
100
AcDbCircle
 10
-41.89968360636669
 20
38.21779517078648
 30
0.0
 40
1.911984123920333
100
AcDbArc
 50
302.9287501961396
 51
77.07124980385343
  0
LINE
  5
3C3E
330
3C27
100
AcDbEntity
  8
V35
100
AcDbLine
 10
0.0000000000001137
 20
9.637091158496616
 30
0.0
 11
0.0
 21
0.0
 31
0.0
  0
ARC
  5
3C3F
330
3C27
100
AcDbEntity
  8
V35
100
AcDbCircle
 10
-3.275816531895884
 20
25.33494492886877
 30
0.0
 40
5.32650415555179
100
AcDbArc
 50
245.0676949625394
 51
314.9323050374571
  0
ARC
  5
3C40
330
3C27
100
AcDbEntity
  8
V35
100
AcDbCircle
 10
-2.316176896521142
 20
19.89255811138349
 30
0.0
 40
5.587272100864986
100
AcDbArc
 50
66.91493608821812
 51
133.0850639117745
  0
ARC
  5
3C41
330
3C27
100
AcDbEntity
  8
V35
100
AcDbCircle
 10
-5.054282970989447
 20
22.37524795632993
 30
0.0
 40
1.927807214538352
100
AcDbArc
 50
124.0161584341247
 51
255.9838415658691
  0
ARC
  5
3C42
330
3C27
100
AcDbEntity
  8
V35
100
AcDbCircle
 10
-0.5532082917867456
 20
23.16890886445702
 30
0.0
 40
1.911984123920333
100
AcDbArc
 50
302.9287501961396
 51
77.07124980385343
  0
ARC
  5
3C43
330
3C27
100
AcDbEntity
  8
V35
100
AcDbCircle
 10
14.14091640935157
 20
46.74176639261526
 30
0.0
 40
6.391804986662148
100
AcDbArc
 50
245.0676949625394
 51
314.9323050374571
  0
ARC
  5
3C44
330
3C27
100
AcDbEntity
  8
V35
100
AcDbCircle
 10
15.29248397180129
 20
40.21090221163291
 30
0.0
 40
6.704726521037983
100
AcDbArc
 50
66.91493608821812
 51
133.0850639117745
  0
ARC
  5
3C45
330
3C27
100
AcDbEntity
  8
V35
100
AcDbCircle
 10
12.00675668243934
 20
43.19013002556864
 30
0.0
 40
2.313368657446023
100
AcDbArc
 50
124.0161584341247
 51
255.9838415658691
  0
ARC
  5
3C46
330
3C27
100
AcDbEntity
  8
V35
100
AcDbCircle
 10
17.40804629748254
 20
44.14252311532112
 30
0.0
 40
2.294380948704399
100
AcDbArc
 50
302.9287501961396
 51
77.07124980385343
  0
LINE
  5
3C47
330
3C27
100
AcDbEntity
  8
V35
100
AcDbLine
 10
33.36194693037487
 20
73.64982094120074
 30
0.0
 11
60.28355544951842
 21
63.85115678166505
 31
0.0
  0
LINE
  5
3C48
330
3C27
100
AcDbEntity
  8
V35
100
AcDbLine
 10
32.46440736352543
 20
76.93848969103743
 30
0.0
 11
65.61652019934718
 21
64.87210741576387
 31
0.0
  0
ARC
  5
3C49
330
3C27
100
AcDbEntity
  8
V35
100
AcDbCircle
 10
40.14233917303033
 20
60.29971692783573
 30
0.0
 40
1.927807214538352
100
AcDbArc
 50
124.0161584341247
 51
255.9838415658691
  0
ARC
  5
3C4A
330
3C27
100
AcDbEntity
  8
V35
100
AcDbCircle
 10
41.9208056121239
 20
63.25941390037456
 30
0.0
 40
5.32650415555179
100
AcDbArc
 50
245.0676949625394
 51
314.9323050374571
  0
ARC
  5
3C4B
330
3C27
100
AcDbEntity
  8
V35
100
AcDbCircle
 10
42.88044524749864
 20
57.81702708288929
 30
0.0
 40
5.587272100864986
100
AcDbArc
 50
66.91493608821812
 51
133.0850639117745
  0
ARC
  5
3C4C
330
3C27
100
AcDbEntity
  8
V35
100
AcDbCircle
 10
34.38800736035182
 20
76.46889880355849
 30
0.0
 40
3.0
100
AcDbArc
 50
180.0
 51
250.0000000000035
  0
ARC
  5
3C4D
330
3C27
100
AcDbEntity
  8
V35
100
AcDbCircle
 10
44.64341385223304
 20
61.09337783596282
 30
0.0
 40
1.911984123920333
100
AcDbArc
 50
302.9287501961396
 51
77.07124980385343
  0
LINE
  5
3C4E
330
3C27
100
AcDbEntity
  8
V35
100
AcDbLine
 10
65.61652019934718
 20
64.87210741576382
 30
0.0
 11
65.61652019934718
 21
55.05879789840879
 31
0.0
  0
ARC
  5
3C4F
330
3C27
100
AcDbEntity
  8
V35
100
AcDbCircle
 10
29.57621969208992
 20
230.2859305362722
 30
0.0
 40
2.661261520716134
100
AcDbArc
 50
86.39517671061895
 51
130.0000000000047
  0
LINE
  5
3C50
330
3C27
100
AcDbEntity
  8
V35
100
AcDbLine
 10
35.38170099869183
 20
222.8898057288926
 30
0.0
 11
-25.90185445082636
 21
171.4667969539694
 31
0.0
  0
LINE
  5
3C51
330
3C27
100
AcDbEntity
  8
V35
100
AcDbLine
 10
-25.90185445082636
 20
168.4667969539694
 30
0.0
 11
35.38170099869183
 21
219.8898057288925
 31
0.0
  0
LINE
  5
3C52
330
3C27
100
AcDbEntity
  8
V35
100
AcDbLine
 10
-28.72093231318411
 20
176.5860282948338
 30
0.0
 11
32.56262313633409
 21
228.0090370697569
 31
0.0
  0
LINE
  5
3C53
330
3C27
100
AcDbEntity
  8
V35
100
AcDbLine
 10
-33.41796168908024
 20
180.9015663609801
 30
0.0
 11
27.86559376043795
 21
232.3245751359032
 31
0.0
  0
LINE
  5
3C54
330
3C27
100
AcDbEntity
  8
V35
100
AcDbLine
 10
-30.22331497154198
 20
120.596676658276
 30
0.0
 11
-30.22331497154198
 21
170.0396799520664
 31
0.0
  0
LINE
  5
3C55
330
3C27
100
AcDbEntity
  8
V35
100
AcDbLine
 10
-32.85670537954172
 20
120.596676658276
 30
0.0
 11
-32.85670537954184
 21
170.9981556757805
 31
0.0
  0
LINE
  5
3C56
330
3C27
100
AcDbEntity
  8
V35
100
AcDbLine
 10
-29.89554808916648
 20
95.39626789880129
 30
0.0
 11
-30.22331497154198
 21
120.596676658276
 31
0.0
  0
LINE
  5
3C57
330
3C27
100
AcDbEntity
  8
V35
100
AcDbLine
 10
-33.18447226191722
 20
95.39626789881811
 30
0.0
 11
-32.85670537954172
 21
120.596676658276
 31
0.0
  0
LINE
  5
3C58
330
3C27
100
AcDbEntity
  8
V35
100
AcDbLine
 10
-37.17816590025734
 20
172.5710386738774
 30
0.0
 11
-37.17816590025734
 21
175.5710386738774
 31
0.0
  0
LINE
  5
3C59
330
3C27
100
AcDbEntity
  8
V35
100
AcDbLine
 10
-28.72093231318411
 20
176.5860282948338
 30
0.0
 11
-25.90185445082636
 21
171.4667969539694
 31
0.0
  0
LINE
  5
3C5A
330
3C27
100
AcDbEntity
  8
V35
100
AcDbLine
 10
-37.17816590025734
 20
172.5710386738774
 30
0.0
 11
-32.85670537954184
 21
170.9981556757805
 31
0.0
  0
LINE
  5
3C5B
330
3C27
100
AcDbEntity
  8
V35
100
AcDbLine
 10
-30.22331497154198
 20
170.0396799520664
 30
0.0
 11
-25.90185445082636
 21
168.4667969539694
 31
0.0
  0
LINE
  5
3C5C
330
3C27
100
AcDbEntity
  8
V35
100
AcDbLine
 10
-25.90185445082636
 20
168.4667969539694
 30
0.0
 11
-25.90185445082636
 21
171.4667969539694
 31
0.0
  0
ARC
  5
3C5D
330
3C27
100
AcDbEntity
  8
V35
100
AcDbCircle
 10
-31.7073357574285
 20
178.8629217613491
 30
0.0
 40
2.661261520716134
100
AcDbArc
 50
86.39517671061895
 51
184.8450266065807
  0
LINE
  5
3C5E
330
3C27
100
AcDbEntity
  8
V35
100
AcDbLine
 10
-37.17816590025734
 20
175.5710386738774
 30
0.0
 11
-34.3590880378996
 21
178.6381491547877
 31
0.0
  0
ARC
  5
3C5F
330
3C27
100
AcDbEntity
  8
V35
100
AcDbCircle
 10
-31.54001017554276
 20
181.5189178139233
 30
0.0
 40
0.0000000000008962
100
AcDbArc
 50
3.632950739488309
 51
14.70830632344464
  0
ARC
  5
3C60
330
3C27
100
AcDbEntity
  8
V35
100
AcDbCircle
 10
-32.79909271064673
 20
177.527392942712
 30
0.0
 40
4.185398383392873
100
AcDbArc
 50
347.0020390188705
 51
72.49269423793923
  0
LINE
  5
3C61
330
3C27
100
AcDbEntity
  8
V35
100
AcDbLine
 10
31.06024047797609
 20
172.0196854331993
 30
0.0
 11
31.06024047797609
 21
216.2636697998127
 31
0.0
  0
LINE
  5
3C62
330
3C27
100
AcDbEntity
  8
V35
100
AcDbLine
 10
31.3880073603516
 20
146.8192766737187
 30
0.0
 11
31.06024047797609
 21
172.0196854331993
 31
0.0
  0
LINE
  5
3C63
330
3C27
100
AcDbEntity
  8
V35
100
AcDbLine
 10
32.56262313633409
 20
228.009037069757
 30
0.0
 11
35.38170099869183
 21
222.8898057288926
 31
0.0
  0
LINE
  5
3C64
330
3C27
100
AcDbEntity
  8
V35
100
AcDbLine
 10
35.38170099869183
 20
219.8898057288925
 30
0.0
 11
35.38170099869183
 21
222.8898057288926
 31
0.0
  0
ARC
  5
3C65
330
3C27
100
AcDbEntity
  8
V35
100
AcDbCircle
 10
28.48446273887146
 20
228.9504017176351
 30
0.0
 40
4.185398383392873
100
AcDbArc
 50
347.0020390188705
 51
72.49269423793923
  0
ENDBLK
  5
3C67
330
3C27
100
AcDbEntity
  8
0
 62
     6
 48
5.0
100
AcDbBlockEnd
  0
BLOCK
  5
3D0A
330
3CE7
100
AcDbEntity
  8
0
 62
     6
 48
10.0
100
AcDbBlockBegin
  2
e140
 70
     0
 10
0.0
 20
0.0
 30
0.0
  3
e140
  1

  0
LINE
  5
3CE8
330
3CE7
100
AcDbEntity
  8
0
 62
     3
100
AcDbLine
 10
1.761882177941579
 20
146.0000000000004
 30
0.0
 11
25.48733180248865
 21
11.0
 31
0.0
  0
LINE
  5
3CE9
330
3CE7
100
AcDbEntity
  8
0
 62
     3
100
AcDbLine
 10
-1.761882177942503
 20
146.0000000000001
 30
0.0
 11
-25.48733180248864
 21
11.0
 31
0.0
  0
LINE
  5
3CEA
330
3CE7
100
AcDbEntity
  8
0
 62
     3
100
AcDbLine
 10
-4.705591908087658
 20
12.70737123184409
 30
0.0
 11
-2.000000000000454
 21
29.0
 31
0.0
  0
LINE
  5
3CEB
330
3CE7
100
AcDbEntity
  8
0
 62
     3
100
AcDbLine
 10
4.705591908087637
 20
12.70737123184401
 30
0.0
 11
1.999999999999545
 21
29.0
 31
0.0
  0
LINE
  5
3CEC
330
3CE7
100
AcDbEntity
  8
0
 62
     4
100
AcDbLine
 10
-21.99999999999864
 20
18.45272980605568
 30
0.0
 11
-21.99999999999973
 21
-19.91791965098093
 31
0.0
  0
LINE
  5
3CED
330
3CE7
100
AcDbEntity
  8
0
 62
     4
100
AcDbLine
 10
21.99999999999954
 20
18.45272980605341
 30
0.0
 11
21.99999999999954
 21
-19.91791965098093
 31
0.0
  0
LINE
  5
3CEE
330
3CE7
100
AcDbEntity
  8
0
 62
     3
100
AcDbLine
 10
-32.50000000000046
 20
0.0
 30
0.0
 11
32.50000000000046
 21
0.0
 31
0.0
  0
LINE
  5
3CEF
330
3CE7
100
AcDbEntity
  8
0
 62
     3
100
AcDbLine
 10
-6.684068191505676
 20
10.99999999999997
 30
0.0
 11
-32.00000000000045
 21
11.0
 31
0.0
  0
LINE
  5
3CF0
330
3CE7
100
AcDbEntity
  8
0
 62
     3
100
AcDbLine
 10
-32.50000000000046
 20
10.5
 30
0.0
 11
-32.50000000000046
 21
0.0
 31
0.0
  0
ARC
  5
3CF1
330
3CE7
100
AcDbEntity
  8
0
 62
     3
100
AcDbCircle
 10
-32.00000000000045
 20
10.5
 30
0.0
 40
0.5
100
AcDbArc
 50
90.0
 51
180.0
  0
LINE
  5
3CF2
330
3CE7
100
AcDbEntity
  8
0
 62
     3
100
AcDbLine
 10
6.684068191505641
 20
10.99999999999997
 30
0.0
 11
32.00000000000045
 21
11.0
 31
0.0
  0
ARC
  5
3CF3
330
3CE7
100
AcDbEntity
  8
0
 62
     3
100
AcDbCircle
 10
-6.684068191505676
 20
12.99999999999997
 30
0.0
 40
2.0
100
AcDbArc
 50
270.0
 51
351.5866003291716
  0
ARC
  5
3CF4
330
3CE7
100
AcDbEntity
  8
0
 62
     3
100
AcDbCircle
 10
6.684068191505641
 20
12.99999999999997
 30
0.0
 40
2.0
100
AcDbArc
 50
188.4133996708317
 51
270.0
  0
LINE
  5
3CF5
330
3CE7
100
AcDbEntity
  8
0
 62
     3
100
AcDbLine
 10
32.50000000000046
 20
10.5
 30
0.0
 11
32.50000000000046
 21
0.0
 31
0.0
  0
ARC
  5
3CF6
330
3CE7
100
AcDbEntity
  8
0
 62
     3
100
AcDbCircle
 10
32.00000000000045
 20
10.5
 30
0.0
 40
0.5
100
AcDbArc
 50
0.0
 51
90.0
  0
LINE
  5
3CF7
330
3CE7
100
AcDbEntity
  8
0
 62
     3
100
AcDbLine
 10
1.761882177941579
 20
146.0000000000004
 30
0.0
 11
1.999999999999545
 21
29.0
 31
0.0
  0
LINE
  5
3CF8
330
3CE7
100
AcDbEntity
  8
0
 62
     3
100
AcDbLine
 10
-1.761882177942503
 20
146.0000000000001
 30
0.0
 11
-2.000000000000454
 21
29.0
 31
0.0
  0
ARC
  5
3CF9
330
3CE7
100
AcDbEntity
  8
0
 62
     3
100
AcDbCircle
 10
-2.549919279120675
 20
189.2
 30
0.0
 40
0.8
100
AcDbArc
 50
359.9768564758476
 51
90.0
  0
ARC
  5
3CFA
330
3CE7
100
AcDbEntity
  8
0
 62
     3
100
AcDbCircle
 10
2.54991927911977
 20
189.2
 30
0.0
 40
0.8
100
AcDbArc
 50
90.0
 51
180.0231435241524
  0
LINE
  5
3CFB
330
3CE7
100
AcDbEntity
  8
0
 62
     3
100
AcDbLine
 10
1.749919344383773
 20
189.1996768554512
 30
0.0
 11
1.761882177941579
 21
146.0000000000004
 31
0.0
  0
LINE
  5
3CFC
330
3CE7
100
AcDbEntity
  8
0
 62
     3
100
AcDbLine
 10
-1.749919344384679
 20
189.1996768554512
 30
0.0
 11
-1.761882177942503
 21
146.0000000000001
 31
0.0
  0
ARC
  5
3CFD
330
3CE7
100
AcDbEntity
  8
0
 62
     3
100
AcDbCircle
 10
-0.0000000000004547
 20
198.0
 30
0.0
 40
3.0
100
AcDbArc
 50
0.0
 51
180.0
  0
LINE
  5
3CFE
330
3CE7
100
AcDbEntity
  8
0
 62
     3
100
AcDbLine
 10
-2.549919279120675
 20
190.0
 30
0.0
 11
-6.000000000000454
 21
190.0
 31
0.0
  0
LINE
  5
3CFF
330
3CE7
100
AcDbEntity
  8
0
 62
     3
100
AcDbLine
 10
-5.597271020094954
 20
193.5344394073002
 30
0.0
 11
-3.100682244976724
 21
196.847524613036
 31
0.0
  0
ARC
  5
3D00
330
3CE7
100
AcDbEntity
  8
0
 62
     3
100
AcDbCircle
 10
-4.000000000000451
 20
192.330809360996
 30
0.0
 40
2.0
100
AcDbArc
 50
142.9999999999953
 51
180.0
  0
LINE
  5
3D01
330
3CE7
100
AcDbEntity
  8
0
 62
     3
100
AcDbLine
 10
-6.000000000000454
 20
190.0
 30
0.0
 11
-6.000000000000451
 21
192.330809360996
 31
0.0
  0
LINE
  5
3D02
330
3CE7
100
AcDbEntity
  8
0
 62
     3
100
AcDbLine
 10
-3.000000000000454
 20
197.1484321246121
 30
0.0
 11
-3.000000000000454
 21
198.0
 31
0.0
  0
ARC
  5
3D03
330
3CE7
100
AcDbEntity
  8
0
 62
     3
100
AcDbCircle
 10
-3.500000000000454
 20
197.1484321246121
 30
0.0
 40
0.5
100
AcDbArc
 50
322.9999999999953
 51
0.0000000000032569
  0
ARC
  5
3D04
330
3CE7
100
AcDbEntity
  8
0
 62
     3
100
AcDbCircle
 10
3.999999999999545
 20
192.330809360996
 30
0.0
 40
2.0
100
AcDbArc
 50
0.0
 51
37.00000000000466
  0
LINE
  5
3D05
330
3CE7
100
AcDbEntity
  8
0
 62
     3
100
AcDbLine
 10
2.54991927911977
 20
190.0
 30
0.0
 11
5.999999999999545
 21
190.0
 31
0.0
  0
LINE
  5
3D06
330
3CE7
100
AcDbEntity
  8
0
 62
     3
100
AcDbLine
 10
5.597271020094048
 20
193.5344394073003
 30
0.0
 11
3.100682244975814
 21
196.847524613036
 31
0.0
  0
ARC
  5
3D07
330
3CE7
100
AcDbEntity
  8
0
 62
     3
100
AcDbCircle
 10
3.499999999999545
 20
197.1484321246121
 30
0.0
 40
0.5
100
AcDbArc
 50
179.9999999999967
 51
217.0000000000047
  0
LINE
  5
3D08
330
3CE7
100
AcDbEntity
  8
0
 62
     3
100
AcDbLine
 10
2.999999999999545
 20
197.1484321246121
 30
0.0
 11
2.999999999999545
 21
198.0
 31
0.0
  0
LINE
  5
3D09
330
3CE7
100
AcDbEntity
  8
0
 62
     3
100
AcDbLine
 10
5.999999999999545
 20
190.0
 30
0.0
 11
5.999999999999545
 21
192.330809360996
 31
0.0
  0
ENDBLK
  5
3D0B
330
3CE7
100
AcDbEntity
  8
0
 62
     6
 48
10.0
100
AcDbBlockEnd
  0
BLOCK
  5
3EE0
330
3EDA
100
AcDbEntity
  8
0
 62
     6
 48
10.0
100
AcDbBlockBegin
  2
A$C46166357
 70
     0
 10
0.0
 20
0.0
 30
0.0
  3
A$C46166357
  1

  0
TEXT
  5
3EDB
330
3EDA
100
AcDbEntity
  8
TXT-D
 62
     7
100
AcDbText
 10
17.5899691032323
 20
122.536077739277
 30
0.0
 40
28.0
  1
Kalzip
  7
ROMANS
100
AcDbText
  0
TEXT
  5
3EDC
330
3EDA
100
AcDbEntity
  8
TXT-D
 62
     0
100
AcDbText
 10
17.35531702660023
 20
12.08300212101028
 30
0.0
 40
28.0
  1
parotěsná vrstva 
  7
ROMANS
100
AcDbText
  0
TEXT
  5
3EDD
330
3EDA
100
AcDbEntity
  8
TXT-D
 62
     0
100
AcDbText
 10
17.5899691032323
 20
68.5428680669595
 30
0.0
 40
28.0
  1
tepelná izolace - minerální vlna
  7
ROMANS
100
AcDbText
  0
MTEXT
  5
3EDE
102
{ACAD_XDICTIONARY
360
3FDF
102
}
330
3EDA
100
AcDbEntity
  8
TXT-D
100
AcDbMText
 10
17.5899691032323
 20
301.2628553363547
 30
0.0
 40
28.0
 41
915.6684999999999
 71
     1
 72
     5
  1
{\C7;poplastovan\U+00E1 klipsa*\P(diagon\U+00E1ln\U+011B kladen\U+00E1)\Palternativn\U+011B: hlin\U+00EDkov\U+00E1 klipsa s termopodlo\U+017Ekou}
  7
ROMANS
 73
     1
 44
1.0
  0
ENDBLK
  5
3EE1
330
3EDA
100
AcDbEntity
  8
0
 62
     6
 48
10.0
100
AcDbBlockEnd
  0
BLOCK
  5
3F13
330
3F10
100
AcDbEntity
  8
0
 62
     6
 48
10.0
100
AcDbBlockBegin
  2
A$C435043AD
 70
     0
 10
0.0
 20
0.0
 30
0.0
  3
A$C435043AD
  1

  0
MTEXT
  5
3F11
102
{ACAD_XDICTIONARY
360
3FE7
102
}
330
3F10
100
AcDbEntity
  8
TXT-D
100
AcDbMText
 10
2.018523547789167
 20
-2.342959022199124
 30
0.0
 40
2.8
 41
106.1716
 71
     1
 72
     5
  1
{\C7;* Poplastovan\U+00E9 klipsy nejsou vyr\U+00E1b\U+011Bny ve v\U+0161ech velikostech}
  7
ROMANS
 73
     1
 44
1.0
  0
ENDBLK
  5
3F14
330
3F10
100
AcDbEntity
  8
0
 62
     6
 48
10.0
100
AcDbBlockEnd
  0
ENDSEC
  0
SECTION
  2
ENTITIES
  0
LINE
  5
15D3
330
18
100
AcDbEntity
  8
V25
100
AcDbLine
 10
513.9009977110568
 20
509.9836063773633
 30
0.0
 11
-1039.306572426419
 21
374.0955518876877
 31
0.0
  0
LINE
  5
15D4
330
18
100
AcDbEntity
  8
V25
100
AcDbLine
 10
513.9009977110568
 20
513.9988857275367
 30
0.0
 11
-1039.306572426419
 21
378.1108312378606
 31
0.0
  0
LINE
  5
15D5
330
18
100
AcDbEntity
  8
V25
100
AcDbLine
 10
513.9009977110547
 20
321.7245359108962
 30
0.0
 11
-1039.306572426419
 21
185.8364814212217
 31
0.0
  0
LINE
  5
15D6
330
18
100
AcDbEntity
  8
V25
100
AcDbLine
 10
513.9009977110547
 20
309.678697860376
 30
0.0
 11
-1039.306572426419
 21
173.790643370701
 31
0.0
  0
LWPOLYLINE
  5
15E5
330
18
100
AcDbEntity
  8
V35
100
AcDbPolyline
 90
        2
 70
     0
 43
0.0
 10
-1039.824266864157
 20
567.4932701973682
 10
513.9009977110543
 20
703.4266170815149
  0
LINE
  5
15F3
330
18
100
AcDbEntity
  8
ACHS
 62
     6
 48
6.0
100
AcDbLine
 10
513.9009977110545
 20
824.2534884529737
 30
0.0
 11
513.9009977110545
 21
11.23966907537124
 31
0.0
  0
LINE
  5
160E
330
18
100
AcDbEntity
  8
TXT-E
  6
VERDECKTX2
 48
5.0
100
AcDbLine
 10
-378.3550827678537
 20
879.3164349579429
 30
0.0
 11
-630.9768389168813
 21
879.3164349579349
 31
0.0
  0
LINE
  5
160F
330
18
100
AcDbEntity
  8
TXT-E
  6
VERDECKTX2
 48
5.0
100
AcDbLine
 10
-378.3550827678537
 20
822.759222420893
 30
0.0
 11
-530.9768389168811
 21
822.7592224208935
 31
0.0
  0
LINE
  5
1753
330
18
100
AcDbEntity
  8
ACHS
 62
     6
 48
6.0
100
AcDbLine
 10
-1039.306572426419
 20
688.3654339632993
 30
0.0
 11
-1039.306572426419
 21
-124.6483854143036
 31
0.0
  0
LINE
  5
17C2
330
18
100
AcDbEntity
  8
V35
100
AcDbLine
 10
513.9009977110548
 20
506.7931889075773
 30
0.0
 11
-1039.306572426419
 21
370.9051344179022
 31
0.0
  0
LINE
  5
17C3
330
18
100
AcDbEntity
  8
V25
100
AcDbLine
 10
513.9009977110547
 20
469.9691074938225
 30
0.0
 11
-1039.306572426419
 21
334.0810530041481
 31
0.0
  0
LINE
  5
17C7
330
18
100
AcDbEntity
  8
V25
 62
     4
100
AcDbLine
 10
337.3008327500065
 20
282.3991329705639
 30
0.0
 11
333.5153248379313
 21
325.6676863981021
 31
0.0
  0
LINE
  5
17C8
330
18
100
AcDbEntity
  8
V25
 62
     4
100
AcDbLine
 10
379.0994877921896
 20
286.0560414373857
 30
0.0
 11
375.3139798801144
 21
329.3245948649238
 31
0.0
  0
LWPOLYLINE
  5
18A1
330
18
100
AcDbEntity
  8
V5
  6
GESTRICHELT
 48
5.0
100
AcDbPolyline
 90
        2
 70
     0
 43
4.0
 10
-1039.30657242642
 20
376.1031915627736
 10
513.9009977110561
 20
511.9912460524499
  0
LWPOLYLINE
  5
1975
330
18
100
AcDbEntity
  8
V35
 62
     6
100
AcDbPolyline
 90
       18
 70
     1
 43
0.0
 10
307.6279823048904
 20
441.1014127365708
 10
334.6746683580814
 20
443.4676911521696
 42
-0.4142135623730951
 10
342.2581214439571
 20
437.1044184647611
 10
347.1475586121008
 20
381.2178959018142
 10
352.0369957802444
 20
325.3313733388673
 42
-0.4142135623730951
 10
345.6737230928358
 20
317.7479202529915
 10
318.6270370396449
 20
315.3816418373925
 10
319.2284116646037
 20
308.5078984205595
 10
391.9506246253011
 20
314.8702676411385
 10
391.3492500003423
 20
321.7440110579715
 10
364.3025639471514
 20
319.3777326423727
 42
-0.4142135623730951
 10
356.7191108612756
 20
325.7410053297813
 10
351.8296736931319
 20
381.6275278927282
 10
346.9402365249883
 20
437.514050455675
 42
-0.4142135623730951
 10
353.303509212397
 20
445.0975035415509
 10
380.3501952655878
 20
447.4637819571499
 10
379.748820640629
 20
454.3375253739829
 10
307.0266076799316
 20
447.9751561534039
  0
LINE
  5
1981
330
18
100
AcDbEntity
  8
V35
100
AcDbLine
 10
-1039.824266864157
 20
612.9878505132567
 30
0.0
 11
513.9009977110545
 21
748.9211973974038
 31
0.0
  0
LINE
  5
1982
330
18
100
AcDbEntity
  8
V35
100
AcDbLine
 10
-1039.824266864157
 20
573.516189222628
 30
0.0
 11
513.9009977110545
 21
709.4495361067757
 31
0.0
  0
LINE
  5
1983
330
18
100
AcDbEntity
  8
V35
100
AcDbLine
 10
-1039.824266864157
 20
633.0642472641255
 30
0.0
 11
513.9009977110545
 21
768.9975941482705
 31
0.0
  0
LINE
  5
1CCB
330
18
100
AcDbEntity
  8
V25
 62
     4
100
AcDbLine
 10
366.3133633122193
 20
432.202112993066
 30
0.0
 11
362.8491079996163
 21
471.7987324062364
 31
0.0
  0
LINE
  5
252D
330
18
100
AcDbEntity
  8
TXT-E
  6
VERDECKTX2
 48
5.0
100
AcDbLine
 10
-378.3550827678537
 20
766.8872970303759
 30
0.0
 11
-430.9768389168813
 21
766.887297030374
 31
0.0
  0
LINE
  5
2582
330
18
100
AcDbEntity
  8
V25
 62
     4
100
AcDbLine
 10
-792.6196849480452
 20
330.8086094847488
 30
0.0
 11
-796.0839402606482
 21
370.4052288979192
 31
0.0
  0
LINE
  5
2584
330
18
100
AcDbEntity
  8
V25
 62
     4
100
AcDbLine
 10
-821.6322155102579
 20
181.0056294622466
 30
0.0
 11
-825.4177234223332
 21
224.2741828897848
 31
0.0
  0
LINE
  5
2585
330
18
100
AcDbEntity
  8
V25
 62
     4
100
AcDbLine
 10
-779.8335604680748
 20
184.6625379290683
 30
0.0
 11
-783.61906838015
 21
227.9310913566065
 31
0.0
  0
LWPOLYLINE
  5
2586
330
18
100
AcDbEntity
  8
V35
 62
     6
100
AcDbPolyline
 90
       18
 70
     1
 43
0.0
 10
-851.3050659553741
 20
339.7079092282535
 10
-824.2583799021831
 20
342.0741876438523
 42
-0.4142135623730951
 10
-816.6749268163073
 20
335.7109149564438
 10
-811.7854896481638
 20
279.8243923934968
 10
-806.89605248002
 20
223.93786983055
 42
-0.4142135623730951
 10
-813.2593251674288
 20
216.3544167446742
 10
-840.3060112206196
 20
213.9881383290752
 10
-839.7046365956608
 20
207.1143949122421
 10
-766.9824236349634
 20
213.4767641328212
 10
-767.5837982599222
 20
220.3505075496542
 10
-794.6304843131131
 20
217.9842291340553
 42
-0.4142135623730951
 10
-802.2139373989888
 20
224.3475018214639
 10
-807.1033745671325
 20
280.2340243844108
 10
-811.9928117352761
 20
336.1205469473577
 42
-0.4142135623730951
 10
-805.6295390478675
 20
343.7040000332336
 10
-778.5828529946765
 20
346.0702784488325
 10
-779.1842276196355
 20
352.9440218656656
 10
-851.9064405803328
 20
346.5816526450865
  0
LINE
  5
2591
330
18
100
AcDbEntity
  8
V25
 62
     4
100
AcDbLine
 10
-890.5475081931903
 20
375.2346129437142
 30
0.0
 11
-892.9023580970707
 21
401.8691084978865
 31
0.0
  0
LINE
  5
2599
330
18
100
AcDbEntity
  8
V25
 62
     4
100
AcDbLine
 10
-762.651779783252
 20
385.5981861534301
 30
0.0
 11
-764.5654096470516
 21
412.2680135289384
 31
0.0
  0
LINE
  5
265D
330
18
100
AcDbEntity
  8
TXT-E
  6
VERDECKTX2
 48
5.0
100
AcDbLine
 10
-378.3550827678537
 20
935.8736474949928
 30
0.0
 11
-730.9768389168811
 21
935.8736474949816
 31
0.0
  0
LINE
  5
265F
330
18
100
AcDbEntity
  8
TXT-E
  6
VERDECKTX2
 48
5.0
100
AcDbLine
 10
-378.3550827678537
 20
1037.489197336364
 30
0.0
 11
-830.9768389168812
 21
1037.48919733635
 31
0.0
  0
LINE
  5
2660
330
18
100
AcDbEntity
  8
TXT-E
  6
VERDECKTX2
 48
5.0
100
AcDbLine
 10
-430.9768389168811
 20
766.8872970303741
 30
0.0
 11
-430.9768389168814
 21
431.3327866056917
 31
0.0
  0
LINE
  5
2665
330
18
100
AcDbEntity
  8
TXT-E
  6
VERDECKTX2
 48
5.0
100
AcDbLine
 10
-530.9768389168811
 20
822.7592224208935
 30
0.0
 11
-530.9768389168811
 21
463.7641178076282
 31
0.0
  0
LINE
  5
2666
330
18
100
AcDbEntity
  8
TXT-E
  6
VERDECKTX2
 48
5.0
100
AcDbLine
 10
-630.9768389168811
 20
879.3164349579349
 30
0.0
 11
-630.9768389168811
 21
626.4579966303244
 31
0.0
  0
LINE
  5
2667
330
18
100
AcDbEntity
  8
TXT-E
  6
VERDECKTX2
 48
5.0
100
AcDbLine
 10
-730.976838916881
 20
935.8736474949816
 30
0.0
 11
-730.9768389168814
 21
547.0994222279188
 31
0.0
  0
LINE
  5
2668
330
18
100
AcDbEntity
  8
TXT-E
  6
VERDECKTX2
 48
5.0
100
AcDbLine
 10
-830.976838916881
 20
1037.489197336351
 30
0.0
 11
-830.9768389168812
 21
606.582989256589
 31
0.0
  0
LINE
  5
2669
330
18
100
AcDbEntity
  8
TXT-E
  6
VERDECKTX2
 48
5.0
100
AcDbLine
 10
-780.1816735698371
 20
413.5267825048619
 30
0.0
 11
-730.9768389168814
 21
547.0994222279188
 31
0.0
  0
LINE
  5
267F
330
18
100
AcDbEntity
  8
TXT-E
  6
VERDECKTX2
 48
5.0
100
AcDbLine
 10
194.1265013237083
 20
205.8544105207021
 30
0.0
 11
194.1265013237082
 21
455.0241157809097
 31
0.0
  0
LINE
  5
2680
330
18
100
AcDbEntity
  8
TXT-E
  6
VERDECKTX2
 48
5.0
100
AcDbLine
 10
258.340802250494
 20
149.2971979836452
 30
0.0
 11
258.3408022504941
 21
337.8333590174257
 31
0.0
  0
LINE
  5
2681
330
18
100
AcDbEntity
  8
TXT-E
  6
VERDECKTX2
 48
5.0
100
AcDbLine
 10
194.1265013237084
 20
62.29996552846057
 30
0.0
 11
194.1265013237083
 21
92.73998544658935
 31
0.0
  0
LINE
  5
2682
330
18
100
AcDbEntity
  8
TXT-E
  6
VERDECKTX2
 48
5.0
100
AcDbLine
 10
78.80216882168702
 20
149.2971979836565
 30
0.0
 11
258.340802250494
 21
149.2971979836452
 31
0.0
  0
LINE
  5
2683
330
18
100
AcDbEntity
  8
TXT-E
  6
VERDECKTX2
 48
5.0
100
AcDbLine
 10
152.1595066217927
 20
205.8544105207065
 30
0.0
 11
194.1265013237083
 21
205.8544105207021
 31
0.0
  0
LINE
  5
2687
330
18
100
AcDbEntity
  8
TXT-E
  6
VERDECKTX2
 48
5.0
100
AcDbLine
 10
78.80216882168702
 20
92.73998544660662
 30
0.0
 11
194.1265013237083
 21
92.73998544658036
 31
0.0
  0
TEXT
  5
2689
330
18
100
AcDbEntity
  8
TXT-D
 62
     7
100
AcDbText
 10
-74.59710778987687
 20
137.663218379394
 30
0.0
 40
28.0
  1
vaznice
  7
ROMANS
100
AcDbText
  0
TEXT
  5
268A
330
18
100
AcDbEntity
  8
TXT-D
 62
     7
100
AcDbText
 10
-74.59710778987664
 20
81.10600584234408
 30
0.0
 40
28.0
  1
vazník
  7
ROMANS
100
AcDbText
  0
TEXT
  5
268B
330
18
100
AcDbEntity
  8
TXT-D
 62
     7
100
AcDbText
 10
-167.7303896947335
 20
194.220430916444
 30
0.0
 40
28.0
  1
trapézový plech
  7
ROMANS
100
AcDbText
  0
TEXT
  5
2698
330
18
100
AcDbEntity
  8
TXT-D
 62
     7
100
AcDbText
 10
-427.023836937907
 20
1133.418119685275
 30
0.0
 40
32.2
  1
PŘÍČNÝ ŘEZ
  7
ROMANS
100
AcDbText
  0
LINE
  5
2699
330
18
100
AcDbEntity
  8
TXT-D
 62
     7
100
AcDbLine
 10
-433.3858734398218
 20
1119.480647988816
 30
0.0
 11
-139.1397061370499
 21
1119.480647988816
 31
0.0
  0
LINE
  5
269B
330
18
100
AcDbEntity
  8
TXT-E
  6
VERDECKTX2
 48
5.0
100
AcDbLine
 10
346.6781899393479
 20
386.5828043806566
 30
0.0
 11
258.3408022504941
 21
337.8333590174257
 31
0.0
  0
LWPOLYLINE
  5
2BAD
330
18
100
AcDbEntity
  8
V25
  6
Continuous
100
AcDbPolyline
 90
        2
 70
   128
 43
0.0
 10
513.9009977110545
 20
-790.4206677042184
 10
-1039.306572426419
 20
-790.4206677042184
  0
LWPOLYLINE
  5
2BAE
330
18
100
AcDbEntity
  8
V25
  6
Continuous
100
AcDbPolyline
 90
        2
 70
   128
 43
0.0
 10
513.9009977110545
 20
-786.4206677042184
 10
-1039.306572426419
 20
-786.4206677042184
  0
LWPOLYLINE
  5
2BAF
330
18
100
AcDbEntity
  8
V5
  6
GESTRICHELT
 48
5.0
100
AcDbPolyline
 90
        2
 70
   128
 43
4.0
 10
513.9009977110545
 20
-788.4206677042184
 10
-1039.306572426419
 20
-788.420667704219
  0
LWPOLYLINE
  5
2BB0
330
18
100
AcDbEntity
  8
V35
100
AcDbPolyline
 90
       33
 70
     0
 43
0.0
 10
30.75081058313902
 20
-558.1608254213567
 42
-0.8518717637873237
 10
37.47867353204402
 20
-537.8479026904268
 42
-0.3441842485073744
 10
40.82627688410354
 20
-541.4584612557066
 10
40.85598227395974
 20
-541.8138653760407
 42
0.3077507175483973
 10
43.70114424778648
 20
-545.2976976335445
 42
-0.3559174951861054
 10
46.54696710012456
 20
-549.4748106143064
 42
-0.2401758746392449
 10
41.34145050588631
 20
-557.8289150890407
 42
0.2629884054316376
 10
39.88934997683816
 20
-560.3987413920898
 10
39.88934997686852
 20
-592.1381257308701
 42
0.2931365125316157
 10
40.48364994554503
 20
-593.0498014861562
 10
40.74789816689213
 20
-593.1700619830003
 42
-0.2939859278524366
 10
43.96966237121865
 20
-598.1759226925928
 42
0.4142135623730951
 10
48.06966237121867
 20
-602.2759226925928
 10
127.8093441069418
 20
-602.275922692593
 42
0.2446984432290329
 10
131.1678674885265
 20
-600.527586081632
 10
133.8332764885265
 20
-596.7209870816319
 42
-0.5205670505517518
 10
142.8439489757053
 20
-596.7209858235048
 10
145.5093589757055
 20
-600.5275848235048
 42
0.2446984432290355
 10
148.8678815076241
 20
-602.2759210666593
 10
229.8078815076242
 20
-602.2759210666593
 42
0.2446984432290357
 10
233.1664040395426
 20
-600.5275848235048
 10
235.8318140395427
 20
-596.7209858235048
 42
-0.5205670505517466
 10
244.8424865267216
 20
-596.720987081632
 10
247.5078955267215
 20
-600.527586081632
 42
0.2446984432290353
 10
250.8664189083065
 20
-602.2759226925928
 10
328.4304428704272
 20
-602.2759226925928
 42
0.4142135623731031
 10
332.5303428704271
 20
-598.1760226925928
 42
-0.2939817751607098
 10
335.7521070759819
 20
-593.1700619830003
 10
336.016355297329
 20
-593.0498014861562
 42
0.2931365125316157
 10
336.6106552660056
 20
-592.1381257308701
 10
336.6106552660341
 20
-565.0825565487342
 42
0.2992947414849744
 10
334.7997601908901
 20
-562.3282817843541
 42
-3.892127811935753
 10
349.2065162359896
 20
-560.949390986947
  0
LWPOLYLINE
  5
2C4A
330
18
100
AcDbEntity
  8
V35
100
AcDbPolyline
 90
       20
 70
     0
 43
0.0
 10
335.750810583139
 20
-558.1608254213567
 42
-0.8518717637873296
 10
342.478673532044
 20
-537.8479026904268
 42
-0.3441842485073744
 10
345.8262768841037
 20
-541.4584612557066
 10
345.8559822739598
 20
-541.8138653760407
 42
0.3077507175483973
 10
348.7011442477865
 20
-545.2976976335445
 42
-0.3559174951861054
 10
351.5469671001247
 20
-549.4748106143064
 42
-0.2401758746392449
 10
346.3414505058863
 20
-557.8289150890407
 42
0.2629884054316376
 10
344.8893499768382
 20
-560.3987413920898
 10
344.8893499768685
 20
-592.1381257308701
 42
0.2931365125316157
 10
345.4836499455451
 20
-593.0498014861562
 10
345.7478981668921
 20
-593.1700619830003
 42
-0.2939859278524366
 10
348.9696623712187
 20
-598.1759226925928
 42
0.4142135623730951
 10
353.0696623712188
 20
-602.2759226925928
 10
432.8093441069418
 20
-602.275922692593
 42
0.2446984432290329
 10
436.1678674885265
 20
-600.527586081632
 10
438.8332764885265
 20
-596.7209870816319
 42
-0.5205670505517518
 10
447.8439489757053
 20
-596.7209858235048
 10
450.5093589757055
 20
-600.5275848235048
 42
0.2446984432290355
 10
453.8678815076241
 20
-602.2759210666593
 10
513.9009977110545
 20
-602.2759210666593
  0
LINE
  5
2C50
330
18
100
AcDbEntity
  8
V35
  6
VERDECKTX2
 48
15.0
100
AcDbLine
 10
513.9009977110545
 20
-782.8710872284341
 30
0.0
 11
-50.62381766752365
 21
-782.8710872284337
 31
0.0
  0
LINE
  5
2C54
330
18
100
AcDbEntity
  8
V25
100
AcDbLine
 10
-1039.306572426419
 20
-970.6113779006379
 30
0.0
 11
513.9009977110545
 21
-970.6113779006384
 31
0.0
  0
LINE
  5
2C55
330
18
100
AcDbEntity
  8
V25
100
AcDbLine
 10
-1039.306572426419
 20
-846.8036344397248
 30
0.0
 11
513.9009977110545
 21
-846.8036344397251
 31
0.0
  0
LINE
  5
2C59
330
18
100
AcDbEntity
  8
V25
100
AcDbLine
 10
-1039.306572426419
 20
-978.8640959229729
 30
0.0
 11
513.9009977110545
 21
-978.8640959229738
 31
0.0
  0
LINE
  5
2C5A
330
18
100
AcDbEntity
  8
V25
100
AcDbLine
 10
-1039.306572426419
 20
-838.8640959229729
 30
0.0
 11
513.9009977110545
 21
-838.8640959229737
 31
0.0
  0
LINE
  5
2C71
102
{ACAD_REACTORS
330
3BAB
102
}
330
18
100
AcDbEntity
  8
V25
100
AcDbLine
 10
-345.3595734839291
 20
-962.0303122247744
 30
0.0
 11
-345.3595734839291
 21
-1010.961723465995
 31
0.0
  0
LINE
  5
2D29
330
18
100
AcDbEntity
  8
ACHS
 62
     6
 48
6.0
100
AcDbLine
 10
513.9009977110545
 20
-557.4433641467494
 30
0.0
 11
513.9009977110545
 21
-1012.465649681761
 31
0.0
  0
LINE
  5
2DE0
330
18
100
AcDbEntity
  8
ACHS
 62
     6
 48
6.0
100
AcDbLine
 10
-1039.306572426419
 20
-557.4433641467494
 30
0.0
 11
-1039.306572426419
 21
-1012.465649681761
 31
0.0
  0
LINE
  5
2E0B
330
18
100
AcDbEntity
  8
V25
100
AcDbLine
 10
-950.0990022889455
 20
-824.3737646936889
 30
0.0
 11
-950.0990022889455
 21
-857.1716388307827
 31
0.0
  0
LWPOLYLINE
  5
2E17
330
18
100
AcDbEntity
  8
V5
 48
5.0
100
AcDbPolyline
 90
       44
 70
     0
 43
2.5
 10
513.9009977110545
 20
-832.6796505023454
 10
493.9009977110544
 20
-832.6796505023454
 10
481.9009977110545
 20
-795.6796505023454
 10
362.9009977110546
 20
-795.6796505023454
 10
350.9009977110546
 20
-832.6796505023454
 10
330.9009977110545
 20
-832.6796505023454
 10
310.9009977110545
 20
-832.6796505023454
 10
298.9009977110545
 20
-795.6796505023454
 10
179.9009977110546
 20
-795.6796505023454
 10
167.9009977110546
 20
-832.6796505023454
 10
147.9009977110545
 20
-832.6796505023454
 10
127.9009977110545
 20
-832.6796505023454
 10
115.9009977110545
 20
-795.6796505023454
 10
-3.099002288945371
 20
-795.6796505023454
 10
-15.09900228894537
 20
-832.6796505023454
 10
-35.09900228894549
 20
-832.6796505023454
 10
-55.09900228894548
 20
-832.6796505023454
 10
-67.09900228894548
 20
-795.6796505023454
 10
-186.0990022889454
 20
-795.6796505023454
 10
-198.0990022889453
 20
-832.6796505023454
 10
-218.0990022889455
 20
-832.6796505023454
 10
-238.0990022889455
 20
-832.6796505023454
 10
-250.0990022889455
 20
-795.6796505023454
 10
-369.0990022889454
 20
-795.6796505023454
 10
-381.0990022889454
 20
-832.6796505023454
 10
-401.0990022889455
 20
-832.6796505023454
 10
-421.0990022889454
 20
-832.6796505023454
 10
-433.0990022889454
 20
-795.6796505023454
 10
-552.0990022889454
 20
-795.6796505023454
 10
-564.0990022889453
 20
-832.6796505023454
 10
-584.0990022889455
 20
-832.6796505023454
 10
-604.0990022889454
 20
-832.6796505023454
 10
-616.0990022889454
 20
-795.6796505023454
 10
-735.0990022889454
 20
-795.6796505023454
 10
-747.0990022889453
 20
-832.6796505023454
 10
-767.0990022889455
 20
-832.6796505023454
 10
-787.0990022889454
 20
-832.6796505023454
 10
-799.0990022889454
 20
-795.6796505023453
 10
-918.0990022889453
 20
-795.6796505023453
 10
-930.0990022889454
 20
-832.6796505023454
 10
-950.0990022889453
 20
-832.6796505023454
 10
-970.0990022889456
 20
-832.6796505023454
 10
-982.0990022889455
 20
-795.6796505023453
 10
-1039.306572426419
 20
-795.6796505023453
  0
LINE
  5
2E3D
102
{ACAD_REACTORS
330
3BAB
102
}
330
18
100
AcDbEntity
  8
V25
100
AcDbLine
 10
-180.0460012314361
 20
-962.0303122247744
 30
0.0
 11
-180.0460012314361
 21
-1010.961723465995
 31
0.0
  0
LINE
  5
2E3E
330
18
100
AcDbEntity
  8
V25
100
AcDbLine
 10
513.9009977110545
 20
60.73137814962592
 30
0.0
 11
-1039.306572426419
 21
-75.15667634004853
 31
0.0
  0
LINE
  5
2E3F
330
18
100
AcDbEntity
  8
V25
100
AcDbLine
 10
513.9009977110545
 20
72.77721620014609
 30
0.0
 11
-1039.306572426419
 21
-63.11083828952837
 31
0.0
  0
LWPOLYLINE
  5
2F36
330
18
100
AcDbEntity
  8
V35
100
AcDbPolyline
 90
       33
 70
     0
 43
0.0
 10
-274.249189416861
 20
-558.1608254213567
 42
-0.8518717637873237
 10
-267.521326467956
 20
-537.8479026904268
 42
-0.3441842485073744
 10
-264.1737231158964
 20
-541.4584612557066
 10
-264.1440177260403
 20
-541.8138653760407
 42
0.3077507175483973
 10
-261.2988557522135
 20
-545.2976976335445
 42
-0.3559174951861054
 10
-258.4530328998754
 20
-549.4748106143064
 42
-0.2401758746392449
 10
-263.6585494941137
 20
-557.8289150890407
 42
0.2629884054316376
 10
-265.1106500231618
 20
-560.3987413920898
 10
-265.1106500231315
 20
-592.1381257308701
 42
0.2931365125316157
 10
-264.5163500544549
 20
-593.0498014861562
 10
-264.2521018331079
 20
-593.1700619830003
 42
-0.2939859278524366
 10
-261.0303376287813
 20
-598.1759226925928
 42
0.4142135623730951
 10
-256.9303376287813
 20
-602.2759226925928
 10
-177.1906558930582
 20
-602.275922692593
 42
0.2446984432290329
 10
-173.8321325114734
 20
-600.527586081632
 10
-171.1667235114735
 20
-596.7209870816319
 42
-0.5205670505517518
 10
-162.1560510242947
 20
-596.7209858235048
 10
-159.4906410242945
 20
-600.5275848235048
 42
0.2446984432290355
 10
-156.1321184923758
 20
-602.2759210666593
 10
-75.19211849237581
 20
-602.2759210666593
 42
0.2446984432290357
 10
-71.83359596045739
 20
-600.5275848235048
 10
-69.16818596045732
 20
-596.7209858235048
 42
-0.5205670505517466
 10
-60.15751347327841
 20
-596.720987081632
 10
-57.49210447327846
 20
-600.527586081632
 42
0.2446984432290353
 10
-54.13358109169348
 20
-602.2759226925928
 10
23.43044287042721
 20
-602.2759226925928
 42
0.4142135623731031
 10
27.53034287042715
 20
-598.1760226925928
 42
-0.2939817751607098
 10
30.75210707598194
 20
-593.1700619830003
 10
31.01635529732903
 20
-593.0498014861562
 42
0.2931365125316157
 10
31.61065526600555
 20
-592.1381257308701
 10
31.61065526603409
 20
-565.0825565487342
 42
0.2992947414849744
 10
29.79976019089008
 20
-562.3282817843541
 42
-3.892127811935753
 10
44.20651623598963
 20
-560.949390986947
  0
LWPOLYLINE
  5
2F3A
330
18
100
AcDbEntity
  8
V35
100
AcDbPolyline
 90
       33
 70
     0
 43
0.0
 10
-579.249189416861
 20
-558.1608254213567
 42
-0.8518717637873237
 10
-572.521326467956
 20
-537.8479026904268
 42
-0.3441842485073744
 10
-569.1737231158964
 20
-541.4584612557066
 10
-569.1440177260402
 20
-541.8138653760407
 42
0.3077507175483973
 10
-566.2988557522135
 20
-545.2976976335445
 42
-0.3559174951861054
 10
-563.4530328998754
 20
-549.4748106143064
 42
-0.2401758746392449
 10
-568.6585494941136
 20
-557.8289150890407
 42
0.2629884054316376
 10
-570.1106500231618
 20
-560.3987413920898
 10
-570.1106500231315
 20
-592.1381257308701
 42
0.2931365125316157
 10
-569.5163500544549
 20
-593.0498014861562
 10
-569.2521018331079
 20
-593.1700619830003
 42
-0.2939859278524366
 10
-566.0303376287813
 20
-598.1759226925928
 42
0.4142135623730951
 10
-561.9303376287813
 20
-602.2759226925928
 10
-482.1906558930582
 20
-602.275922692593
 42
0.2446984432290329
 10
-478.8321325114734
 20
-600.527586081632
 10
-476.1667235114734
 20
-596.7209870816319
 42
-0.5205670505517518
 10
-467.1560510242946
 20
-596.7209858235048
 10
-464.4906410242945
 20
-600.5275848235048
 42
0.2446984432290355
 10
-461.1321184923759
 20
-602.2759210666593
 10
-380.1921184923758
 20
-602.2759210666593
 42
0.2446984432290357
 10
-376.8335959604574
 20
-600.5275848235048
 10
-374.1681859604573
 20
-596.7209858235048
 42
-0.5205670505517466
 10
-365.1575134732784
 20
-596.720987081632
 10
-362.4921044732785
 20
-600.527586081632
 42
0.2446984432290353
 10
-359.1335810916935
 20
-602.2759226925928
 10
-281.5695571295728
 20
-602.2759226925928
 42
0.4142135623731031
 10
-277.4696571295728
 20
-598.1760226925928
 42
-0.2939817751607098
 10
-274.247892924018
 20
-593.1700619830003
 10
-273.983644702671
 20
-593.0498014861562
 42
0.2931365125316157
 10
-273.3893447339944
 20
-592.1381257308701
 10
-273.3893447339659
 20
-565.0825565487342
 42
0.2992947414849744
 10
-275.2002398091099
 20
-562.3282817843541
 42
-3.892127811935753
 10
-260.7934837640104
 20
-560.949390986947
  0
LWPOLYLINE
  5
2F3E
330
18
100
AcDbEntity
  8
V35
100
AcDbPolyline
 90
       33
 70
     0
 43
0.0
 10
-884.249189416861
 20
-558.1608254213567
 42
-0.8518717637873237
 10
-877.521326467956
 20
-537.8479026904268
 42
-0.3441842485073744
 10
-874.1737231158964
 20
-541.4584612557066
 10
-874.1440177260402
 20
-541.8138653760407
 42
0.3077507175483973
 10
-871.2988557522136
 20
-545.2976976335445
 42
-0.3559174951861054
 10
-868.4530328998754
 20
-549.4748106143064
 42
-0.2401758746392449
 10
-873.6585494941136
 20
-557.8289150890407
 42
0.2629884054316376
 10
-875.1106500231617
 20
-560.3987413920898
 10
-875.1106500231314
 20
-592.1381257308701
 42
0.2931365125316157
 10
-874.5163500544549
 20
-593.0498014861562
 10
-874.2521018331078
 20
-593.1700619830003
 42
-0.2939859278524366
 10
-871.0303376287813
 20
-598.1759226925928
 42
0.4142135623730951
 10
-866.9303376287812
 20
-602.2759226925928
 10
-787.1906558930581
 20
-602.275922692593
 42
0.2446984432290329
 10
-783.8321325114734
 20
-600.527586081632
 10
-781.1667235114734
 20
-596.7209870816319
 42
-0.5205670505517518
 10
-772.1560510242946
 20
-596.7209858235048
 10
-769.4906410242944
 20
-600.5275848235048
 42
0.2446984432290355
 10
-766.1321184923759
 20
-602.2759210666593
 10
-685.1921184923758
 20
-602.2759210666593
 42
0.2446984432290357
 10
-681.8335959604573
 20
-600.5275848235048
 10
-679.1681859604572
 20
-596.7209858235048
 42
-0.5205670505517466
 10
-670.1575134732784
 20
-596.720987081632
 10
-667.4921044732784
 20
-600.527586081632
 42
0.2446984432290353
 10
-664.1335810916935
 20
-602.2759226925928
 10
-586.5695571295727
 20
-602.2759226925928
 42
0.4142135623731031
 10
-582.4696571295728
 20
-598.1760226925928
 42
-0.2939817751607098
 10
-579.247892924018
 20
-593.1700619830003
 10
-578.983644702671
 20
-593.0498014861562
 42
0.2931365125316157
 10
-578.3893447339944
 20
-592.1381257308701
 10
-578.3893447339659
 20
-565.0825565487342
 42
0.2992947414849744
 10
-580.2002398091099
 20
-562.3282817843541
 42
-3.892127811935753
 10
-565.7934837640103
 20
-560.949390986947
  0
LWPOLYLINE
  5
2F42
330
18
100
AcDbEntity
  8
V35
100
AcDbPolyline
 90
       15
 70
     0
 43
0.0
 10
-1039.306572426419
 20
-602.2759210666593
 10
-990.1921184923757
 20
-602.2759210666593
 42
0.2446984432290357
 10
-986.8335959604573
 20
-600.5275848235048
 10
-984.1681859604573
 20
-596.7209858235048
 42
-0.5205670505517466
 10
-975.1575134732783
 20
-596.720987081632
 10
-972.4921044732784
 20
-600.527586081632
 42
0.2446984432290353
 10
-969.1335810916935
 20
-602.2759226925928
 10
-891.5695571295728
 20
-602.2759226925928
 42
0.4142135623731031
 10
-887.4696571295729
 20
-598.1760226925928
 42
-0.2939817751607098
 10
-884.2478929240181
 20
-593.1700619830003
 10
-883.983644702671
 20
-593.0498014861562
 42
0.2931365125316157
 10
-883.3893447339944
 20
-592.1381257308701
 10
-883.389344733966
 20
-565.0825565487342
 42
0.2992947414849744
 10
-885.20023980911
 20
-562.3282817843541
 42
-3.892127811935753
 10
-870.7934837640104
 20
-560.949390986947
  0
LINE
  5
2F5B
330
18
100
AcDbEntity
  8
TXT-D
 62
     7
100
AcDbLine
 10
-433.385873439822
 20
-140.4449791229172
 30
0.0
 11
-102.9501195685679
 21
-140.4449791229172
 31
0.0
  0
TEXT
  5
2F5C
330
18
100
AcDbEntity
  8
TXT-D
 62
     7
100
AcDbText
 10
-427.0238369379073
 20
-126.507507426458
 30
0.0
 40
32.2
  1
PODÉLNÝ ŘEZ
  7
ROMANS
100
AcDbText
  0
LINE
  5
326C
330
18
100
AcDbEntity
  8
TXT-E
  6
VERDECKTX2
 48
5.0
100
AcDbLine
 10
-430.9768389168818
 20
-1096.113117168939
 30
0.0
 11
-430.9768389168814
 21
-907.5769561351593
 31
0.0
  0
LINE
  5
326D
330
18
100
AcDbEntity
  8
TXT-E
  6
VERDECKTX2
 48
5.0
100
AcDbLine
 10
-530.9768389168815
 20
-1039.555904631882
 30
0.0
 11
-530.9768389168815
 21
-795.6796505023454
 31
0.0
  0
LINE
  5
326E
330
18
100
AcDbEntity
  8
TXT-E
  6
VERDECKTX2
 48
5.0
100
AcDbLine
 10
-565.1080610966901
 20
-1039.555904631878
 30
0.0
 11
-530.9768389168815
 21
-1039.555904631882
 31
0.0
  0
LINE
  5
326F
330
18
100
AcDbEntity
  8
TXT-E
  6
VERDECKTX2
 48
5.0
100
AcDbLine
 10
-638.4653988967957
 20
-1096.113117168928
 30
0.0
 11
-430.9768389168818
 21
-1096.113117168939
 31
0.0
  0
LINE
  5
3270
330
18
100
AcDbEntity
  8
TXT-E
  6
VERDECKTX2
 48
5.0
100
AcDbLine
 10
-638.4653988967957
 20
-1152.670329705978
 30
0.0
 11
-355.1434130684938
 21
-1152.670329706005
 31
0.0
  0
LINE
  5
3274
330
18
100
AcDbEntity
  8
TXT-E
  6
VERDECKTX2
 48
5.0
100
AcDbLine
 10
-355.1434130684936
 20
-1226.364095922973
 30
0.0
 11
-355.1434130684938
 21
-1152.670329705996
 31
0.0
  0
LINE
  5
3276
330
18
100
AcDbEntity
  8
V25
100
AcDbLine
 10
-584.0990022889457
 20
-824.3737646936889
 30
0.0
 11
-584.0990022889457
 21
-857.1716388307827
 31
0.0
  0
LINE
  5
3278
330
18
100
AcDbEntity
  8
V25
100
AcDbLine
 10
-218.099002288946
 20
-824.3737646936889
 30
0.0
 11
-218.099002288946
 21
-857.1716388307827
 31
0.0
  0
LINE
  5
327A
330
18
100
AcDbEntity
  8
V25
100
AcDbLine
 10
147.9009977110537
 20
-824.3737646936889
 30
0.0
 11
147.9009977110537
 21
-857.1716388307827
 31
0.0
  0
LINE
  5
327C
330
18
100
AcDbEntity
  8
V25
100
AcDbLine
 10
513.9009977110535
 20
-824.3737646936889
 30
0.0
 11
513.9009977110535
 21
-857.1716388307827
 31
0.0
  0
LINE
  5
3288
330
18
100
AcDbEntity
  8
V25
100
AcDbLine
 10
-858.5990022889454
 20
-773.2497807563093
 30
0.0
 11
-858.5990022889454
 21
-806.0476548934031
 31
0.0
  0
LINE
  5
3289
330
18
100
AcDbEntity
  8
V25
100
AcDbLine
 10
-492.5990022889455
 20
-773.2497807563094
 30
0.0
 11
-492.5990022889455
 21
-806.0476548934033
 31
0.0
  0
LINE
  5
328B
330
18
100
AcDbEntity
  8
V25
100
AcDbLine
 10
239.4009977110545
 20
-773.2497807563094
 30
0.0
 11
239.4009977110545
 21
-806.0476548934033
 31
0.0
  0
LINE
  5
3352
330
18
100
AcDbEntity
  8
TXT-E
  6
VERDECKTX2
 48
5.0
100
AcDbLine
 10
-378.3550827678539
 20
-220.8787812509054
 30
0.0
 11
-879.1231886009427
 21
-220.878781250921
 31
0.0
  0
LINE
  5
3353
330
18
100
AcDbEntity
  8
TXT-E
  6
VERDECKTX2
 48
5.0
100
AcDbLine
 10
-879.1231886009429
 20
-220.878781250921
 30
0.0
 11
-879.1231886009427
 21
-549.6485494527941
 31
0.0
  0
LINE
  5
3354
330
18
100
AcDbEntity
  8
TXT-E
  6
VERDECKTX2
 48
5.0
100
AcDbLine
 10
-730.9768389168815
 20
-322.4943310922883
 30
0.0
 11
-730.9768389168818
 21
-747.8342904750245
 31
0.0
  0
LINE
  5
3355
330
18
100
AcDbEntity
  8
TXT-E
  6
VERDECKTX2
 48
5.0
100
AcDbLine
 10
-630.9768389168815
 20
-379.0515436293351
 30
0.0
 11
-630.9768389168815
 21
-602.2759226925928
 31
0.0
  0
LINE
  5
3356
330
18
100
AcDbEntity
  8
TXT-E
  6
VERDECKTX2
 48
5.0
100
AcDbLine
 10
-530.9768389168813
 20
-435.6087561663765
 30
0.0
 11
-530.9768389168815
 21
-632.0718986854908
 31
0.0
  0
TEXT
  5
335C
330
18
100
AcDbEntity
  8
TXT-D
100
AcDbText
 10
-358.1186595625436
 20
-390.6855232335897
 30
0.0
 40
28.0
  1
Kalzip
  7
ROMANS
100
AcDbText
  0
LINE
  5
335D
330
18
100
AcDbEntity
  8
TXT-E
  6
VERDECKTX2
 48
5.0
100
AcDbLine
 10
-378.3550827678539
 20
-322.4943310922772
 30
0.0
 11
-730.9768389168814
 21
-322.4943310922883
 31
0.0
  0
LINE
  5
335E
330
18
100
AcDbEntity
  8
TXT-E
  6
VERDECKTX2
 48
5.0
100
AcDbLine
 10
-378.3550827678539
 20
-435.6087561663771
 30
0.0
 11
-530.9768389168814
 21
-435.6087561663764
 31
0.0
  0
LINE
  5
335F
330
18
100
AcDbEntity
  8
TXT-E
  6
VERDECKTX2
 48
5.0
100
AcDbLine
 10
-378.3550827678539
 20
-379.0515436293272
 30
0.0
 11
-630.9768389168815
 21
-379.0515436293351
 31
0.0
  0
LINE
  5
3360
330
18
100
AcDbEntity
  8
TXT-E
  6
VERDECKTX2
 48
5.0
100
AcDbLine
 10
-378.3550827678539
 20
-491.480681556894
 30
0.0
 11
-430.9768389168815
 21
-491.480681556896
 31
0.0
  0
LWPOLYLINE
  5
33A8
102
{ACAD_REACTORS
330
3BAB
102
}
330
18
100
AcDbEntity
  8
0
 62
     6
100
AcDbPolyline
 90
       16
 70
     1
 43
0.0
 10
-267.7027873576826
 20
-1202.364095922973
 10
-267.7027873576825
 20
-1025.364095922973
 42
0.4142135623730951
 10
-291.7027873576826
 20
-1001.364095922973
 10
-392.7027873576826
 20
-1001.364095922973
 10
-392.7027873576826
 20
-983.8640959229733
 10
-132.7027873576826
 20
-983.8640959229733
 10
-132.7027873576826
 20
-1001.364095922973
 10
-233.7027873576826
 20
-1001.364095922973
 42
0.4142135623730951
 10
-257.7027873576826
 20
-1025.364095922973
 10
-257.7027873576825
 20
-1202.364095922973
 42
0.4142135623730951
 10
-233.7027873576826
 20
-1226.364095922973
 10
-132.7027873576826
 20
-1226.364095922973
 10
-132.7027873576826
 20
-1243.864095922973
 10
-392.7027873576826
 20
-1243.864095922973
 10
-392.7027873576826
 20
-1226.364095922973
 10
-291.7027873576826
 20
-1226.364095922973
 42
0.4142135623730951
  0
LWPOLYLINE
  5
33BE
330
18
100
AcDbEntity
  8
V35
100
AcDbPolyline
 90
        2
 70
     1
 43
6.032
 10
-834.2008389168814
 20
609.8069892565892
 42
1.0
 10
-827.7528389168811
 20
609.8069892565892
 42
1.0
  0
LWPOLYLINE
  5
33DF
330
18
100
AcDbEntity
  8
V35
100
AcDbPolyline
 90
        2
 70
     1
 43
6.032
 10
-783.4056735698372
 20
413.5267825048619
 42
1.0
 10
-776.9576735698369
 20
413.5267825048619
 42
1.0
  0
LWPOLYLINE
  5
33E0
330
18
100
AcDbEntity
  8
V35
100
AcDbPolyline
 90
        2
 70
     1
 43
6.032
 10
-634.2008389168815
 20
629.6819966303246
 42
1.0
 10
-627.7528389168812
 20
629.6819966303246
 42
1.0
  0
LWPOLYLINE
  5
33E1
330
18
100
AcDbEntity
  8
V35
100
AcDbPolyline
 90
        2
 70
     1
 43
6.032
 10
-534.2008389168815
 20
463.7641178076282
 42
1.0
 10
-527.7528389168812
 20
463.7641178076282
 42
1.0
  0
LWPOLYLINE
  5
33E2
330
18
100
AcDbEntity
  8
V35
100
AcDbPolyline
 90
        2
 70
     1
 43
6.032
 10
-434.2008389168816
 20
431.3327866056917
 42
1.0
 10
-427.7528389168812
 20
431.3327866056917
 42
1.0
  0
LWPOLYLINE
  5
33E3
330
18
100
AcDbEntity
  8
V35
100
AcDbPolyline
 90
        2
 70
     1
 43
6.032
 10
190.902501323708
 20
455.0241157809097
 42
1.0
 10
197.3505013237084
 20
455.0241157809097
 42
1.0
  0
LWPOLYLINE
  5
33E4
330
18
100
AcDbEntity
  8
V35
100
AcDbPolyline
 90
        2
 70
     1
 43
6.032
 10
343.4541899393478
 20
386.5828043806566
 42
1.0
 10
349.9021899393481
 20
386.5828043806566
 42
1.0
  0
LWPOLYLINE
  5
33E5
330
18
100
AcDbEntity
  8
V35
100
AcDbPolyline
 90
        2
 70
     1
 43
6.032
 10
190.9025013237083
 20
62.29996552846057
 42
1.0
 10
197.3505013237086
 20
62.29996552846057
 42
1.0
  0
LWPOLYLINE
  5
33E6
330
18
100
AcDbEntity
  8
V35
100
AcDbPolyline
 90
        2
 70
     1
 43
6.032
 10
-882.3471886009428
 20
-546.424549452794
 42
1.0
 10
-875.8991886009425
 20
-546.424549452794
 42
1.0
  0
LWPOLYLINE
  5
33E7
330
18
100
AcDbEntity
  8
V35
100
AcDbPolyline
 90
        2
 70
     1
 43
6.032
 10
-634.2008389168817
 20
-602.2759226925928
 42
1.0
 10
-627.7528389168813
 20
-602.2759226925928
 42
1.0
  0
LWPOLYLINE
  5
33E8
330
18
100
AcDbEntity
  8
V35
100
AcDbPolyline
 90
        2
 70
     1
 43
6.032
 10
-734.2008389168819
 20
-746.0785356404397
 42
1.0
 10
-727.7528389168816
 20
-746.0785356404397
 42
1.0
  0
LWPOLYLINE
  5
33E9
330
18
100
AcDbEntity
  8
V35
100
AcDbPolyline
 90
        2
 70
     1
 43
6.032
 10
-534.2008389168817
 20
-628.8478986854906
 42
1.0
 10
-527.7528389168813
 20
-628.8478986854906
 42
1.0
  0
LWPOLYLINE
  5
33EA
330
18
100
AcDbEntity
  8
V35
100
AcDbPolyline
 90
        2
 70
     1
 43
6.032
 10
-434.2008389168817
 20
-786.4206677042184
 42
1.0
 10
-427.7528389168814
 20
-786.4206677042184
 42
1.0
  0
LWPOLYLINE
  5
33EB
330
18
100
AcDbEntity
  8
V35
100
AcDbPolyline
 90
        2
 70
     1
 43
6.032
 10
-534.2008389168817
 20
-795.6796505023454
 42
1.0
 10
-527.7528389168813
 20
-795.6796505023454
 42
1.0
  0
LWPOLYLINE
  5
33EC
330
18
100
AcDbEntity
  8
V35
100
AcDbPolyline
 90
        2
 70
     1
 43
6.032
 10
-434.2008389168816
 20
-907.5769561351593
 42
1.0
 10
-427.7528389168812
 20
-907.5769561351593
 42
1.0
  0
LWPOLYLINE
  5
33ED
102
{ACAD_REACTORS
330
3BAB
102
}
330
18
100
AcDbEntity
  8
V35
100
AcDbPolyline
 90
        2
 70
     1
 43
6.032
 10
-358.3674130684938
 20
-1226.364095922973
 42
1.0
 10
-351.9194130684935
 20
-1226.364095922973
 42
1.0
  0
LINE
  5
3434
330
18
100
AcDbEntity
  8
V35
  6
VERDECKTX2
 48
15.0
100
AcDbLine
 10
513.9009977110545
 20
-744.9991966648497
 30
0.0
 11
-1039.306572426419
 21
-744.9991966648497
 31
0.0
  0
LINE
  5
3435
330
18
100
AcDbEntity
  8
V35
  6
VERDECKTX2
 48
15.0
100
AcDbLine
 10
513.9009977110545
 20
-747.9991966648496
 30
0.0
 11
-1039.306572426419
 21
-747.9991966648496
 31
0.0
  0
LINE
  5
3436
330
18
100
AcDbEntity
  8
V35
  6
VERDECKTX2
 48
15.0
100
AcDbLine
 10
-50.62381766752364
 20
-782.8710872284337
 30
0.0
 11
-1039.306572426419
 21
-782.8710872284329
 31
0.0
  0
HATCH
  5
3BAB
330
18
100
AcDbEntity
  8
0
 62
     1
100
AcDbHatch
 10
0.0
 20
0.0
 30
0.0
210
0.0
220
0.0
230
1.0
  2
ANSI31
 70
     0
 71
     1
 91
        3
 92
        7
 72
     1
 73
     1
 93
       18
 10
-132.7027873576826
 20
-1243.864095922973
 42
0.0
 10
-132.7027873576826
 20
-1226.364095922973
 42
0.0
 10
-233.7027873576825
 20
-1226.364095922973
 42
-0.4142135623730958
 10
-257.7027873576825
 20
-1202.364095922973
 42
0.0
 10
-257.7027873576826
 20
-1025.364095922973
 42
-0.4142135623730951
 10
-233.7027873576826
 20
-1001.364095922973
 42
0.0
 10
-180.0460012314361
 20
-1001.364095922973
 42
0.0
 10
-180.0460012314361
 20
-983.8640959229733
 42
0.0
 10
-345.3595734839292
 20
-983.8640959229733
 42
0.0
 10
-345.3595734839292
 20
-1001.364095922973
 42
0.0
 10
-291.7027873576826
 20
-1001.364095922973
 42
-0.4142135623730959
 10
-267.7027873576825
 20
-1025.364095922973
 42
0.0
 10
-267.7027873576826
 20
-1202.364095922973
 42
-0.4142135623730958
 10
-291.7027873576826
 20
-1226.364095922973
 42
0.0
 10
-351.9194130684935
 20
-1226.364095922973
 42
-1.0
 10
-358.3674130684938
 20
-1226.364095922973
 42
0.0
 10
-392.7027873576826
 20
-1226.364095922973
 42
0.0
 10
-392.7027873576826
 20
-1243.864095922973
 42
0.0
 97
        4
330
33A8
330
2E3D
330
2C71
330
33ED
 92
        7
 72
     0
 73
     1
 93
        4
 10
-345.3595734839292
 20
-1001.364095922973
 10
-345.3595734839292
 20
-983.8640959229733
 10
-392.7027873576826
 20
-983.8640959229731
 10
-392.7027873576826
 20
-1001.364095922973
 97
        2
330
33A8
330
2C71
 92
       23
 72
     0
 73
     1
 93
        4
 10
-132.7027873576826
 20
-1001.364095922973
 10
-132.7027873576826
 20
-983.8640959229733
 10
-180.0460012314361
 20
-983.8640959229731
 10
-180.0460012314361
 20
-1001.364095922973
 97
        2
330
33A8
330
2E3D
 75
     0
 76
     1
 52
0.0
 41
5.0
 77
     0
 78
     1
 53
45.0
 43
0.0
 44
0.0
 45
-11.22532015133644
 46
11.22532015133644
 79
     0
 47
0.943231260534109
 98
        3
 10
-265.6608278711829
 20
-1231.83933806221
 10
-362.3463801401686
 20
-997.3961125691449
 10
-152.9283466312754
 20
-993.7976240878434
  0
HATCH
  5
3BCE
330
18
100
AcDbEntity
  8
V35
 62
     1
100
AcDbHatch
 10
0.0
 20
0.0
 30
0.0
210
0.0
220
0.0
230
1.0
  2
ANSI31
 70
     0
 71
     0
 91
        5
 92
        7
 72
     1
 73
     1
 93
       18
 10
-782.2377105812358
 20
212.1420994661873
 42
0.0
 10
-782.8390852061946
 20
219.0158428830205
 42
0.0
 10
-794.6304843131131
 20
217.9842291340553
 42
-0.4142135623730973
 10
-802.2139373989888
 20
224.347501821464
 42
0.0
 10
-807.1033745671325
 20
280.2340243844108
 42
0.0
 10
-811.9928117352761
 20
336.1205469473577
 42
-0.4142135623730951
 10
-805.6295390478675
 20
343.7040000332336
 42
0.0
 10
-793.838139940949
 20
344.7356137821987
 42
0.0
 10
-794.4395145659077
 20
351.6093571990317
 42
0.0
 10
-836.2381696080909
 20
347.95244873221
 42
0.0
 10
-835.6367949831319
 20
341.0787053153769
 42
0.0
 10
-824.2583799021829
 20
342.0741876438523
 42
-0.4142135623730921
 10
-816.6749268163073
 20
335.7109149564437
 42
0.0
 10
-811.7854896481638
 20
279.8243923934968
 42
0.0
 10
-806.89605248002
 20
223.93786983055
 42
-0.4142135623730977
 10
-813.2593251674288
 20
216.3544167446742
 42
0.0
 10
-824.6377402483775
 20
215.3589344161987
 42
0.0
 10
-824.0363656234187
 20
208.4851909993656
 42
0.0
 97
        0
 92
        7
 72
     0
 73
     1
 93
        4
 10
-782.237710581236
 20
212.1420994661873
 10
-766.9824236349633
 20
213.4767641328211
 10
-767.583798259922
 20
220.3505075496542
 10
-782.8390852061946
 20
219.0158428830204
 97
        0
 92
        7
 72
     0
 73
     1
 93
        4
 10
-824.0363656234187
 20
208.4851909993655
 10
-824.6377402483775
 20
215.3589344161987
 10
-840.3060112206196
 20
213.9881383290752
 10
-839.7046365956608
 20
207.1143949122422
 97
        0
 92
        7
 72
     0
 73
     1
 93
        4
 10
-835.6367949831319
 20
341.0787053153768
 10
-836.2381696080909
 20
347.95244873221
 10
-851.9064405803327
 20
346.5816526450865
 10
-851.3050659553741
 20
339.7079092282536
 97
        0
 92
        7
 72
     0
 73
     1
 93
        4
 10
-794.4395145659078
 20
351.6093571990318
 10
-793.8381399409488
 20
344.7356137821986
 10
-778.5828529946765
 20
346.0702784488326
 10
-779.1842276196355
 20
352.9440218656655
 97
        0
 75
     0
 76
     1
 52
0.0
 41
5.0
 77
     0
 78
     1
 53
45.0
 43
0.0
 44
-40.92312006025895
 45
-11.22532015133644
 46
11.22532015133644
 79
     0
 47
1.423942764312562
 98
        5
 10
-803.811960542287
 20
211.9703863743179
 10
-780.0130345880625
 20
216.525325868337
 10
-827.104523510019
 20
209.4398610575699
 10
-839.2571740899711
 20
343.0515005638063
 10
-785.5829907819516
 20
350.1369653745733
  0
HATCH
  5
3BF4
330
18
100
AcDbEntity
  8
V35
  6
AUSGEZOGEN
 62
     1
 48
5.0
100
AcDbHatch
 10
0.0
 20
0.0
 30
0.0
210
0.0
220
0.0
230
1.0
  2
ANSI31
 70
     0
 71
     0
 91
        5
 92
        7
 72
     1
 73
     1
 93
       21
 10
376.6953376790288
 20
313.5356029745047
 42
0.0
 10
376.09396305407
 20
320.4093463913376
 42
0.0
 10
364.3025639471513
 20
319.3777326423727
 42
-0.4142135623730898
 10
356.7191108612756
 20
325.7410053297813
 42
0.0
 10
351.8296736931319
 20
381.6275278927282
 42
0.0
 10
346.9402365249883
 20
437.514050455675
 42
-0.4142135623730951
 10
353.303509212397
 20
445.0975035415509
 42
0.0
 10
365.0949083193156
 20
446.129117290516
 42
0.0
 10
364.4935336943567
 20
453.002860707349
 42
0.0
 10
322.6948786521736
 20
449.3459522405273
 42
0.0
 10
323.2962532771324
 20
442.4722088236942
 42
0.0
 10
334.6746683580814
 20
443.4676911521696
 42
-0.4142135623730926
 10
342.2581214439571
 20
437.1044184647611
 42
0.0
 10
346.3971998247295
 20
389.7945360873046
 42
-0.4400105308918269
 10
349.9021899393481
 20
386.5828043806566
 42
-0.3888787318529867
 10
346.9591800539664
 20
383.3710726740087
 42
0.0
 10
347.1475586121008
 20
381.2178959018142
 42
0.0
 10
352.0369957802444
 20
325.3313733388673
 42
-0.4142135623730931
 10
345.6737230928358
 20
317.7479202529915
 42
0.0
 10
334.2953080118868
 20
316.7524379245161
 42
0.0
 10
334.8966826368457
 20
309.8786945076829
 42
0.0
 97
        0
 92
        7
 72
     0
 73
     1
 93
        4
 10
376.6953376790287
 20
313.5356029745046
 10
391.9506246253012
 20
314.8702676411385
 10
391.3492500003422
 20
321.7440110579715
 10
376.09396305407
 20
320.4093463913377
 97
        0
 92
        7
 72
     0
 73
     1
 93
        4
 10
334.8966826368457
 20
309.8786945076829
 10
334.2953080118869
 20
316.752437924516
 10
318.6270370396449
 20
315.3816418373925
 10
319.2284116646038
 20
308.5078984205595
 97
        0
 92
        7
 72
     0
 73
     1
 93
        4
 10
307.0266076799316
 20
447.9751561534039
 10
307.6279823048903
 20
441.1014127365708
 10
323.2962532771324
 20
442.4722088236943
 10
322.6948786521736
 20
449.3459522405273
 97
        0
 92
        7
 72
     0
 73
     1
 93
        4
 10
380.3501952655879
 20
447.4637819571498
 10
379.748820640629
 20
454.3375253739829
 10
364.4935336943567
 20
453.002860707349
 10
365.0949083193157
 20
446.1291172905161
 97
        0
 75
     0
 76
     1
 52
0.0
 41
5.0
 77
     0
 78
     1
 53
45.0
 43
0.0
 44
-40.92312006025895
 45
-11.22532015133644
 46
11.22532015133644
 79
     0
 47
0.2854016990596695
 98
        5
 10
352.5302247377222
 20
315.3110261581278
 10
379.3715197910406
 20
317.5942378467516
 10
331.3998341661591
 20
311.6008052653233
 10
317.6936365277397
 20
446.310408821535
 10
374.8027913179612
 20
448.8790238700276
  0
INSERT
  5
3C68
330
18
100
AcDbEntity
  8
V35
  6
AUSGEZOGEN
 62
     6
 48
5.0
100
AcDbBlockReference
  2
AluPers
 10
420.5785990751673
 20
1010.645446989014
 30
0.0
 41
0.7
 42
0.7
 43
0.7
 50
4.999999999999969
  0
LINE
  5
3C85
330
18
100
AcDbEntity
  8
V5
100
AcDbLine
 10
-906.342414650464
 20
393.7083841936788
 30
0.0
 11
-877.4558405674831
 21
396.2725692650709
 31
0.0
  0
LINE
  5
3C86
330
18
100
AcDbEntity
  8
V5
100
AcDbLine
 10
-877.4558405674831
 20
396.2725692650709
 30
0.0
 11
-874.0228974669919
 21
437.7835818751097
 31
0.0
  0
LINE
  5
3C87
330
18
100
AcDbEntity
  8
V5
100
AcDbLine
 10
-874.0228974669919
 20
437.7835818751097
 30
0.0
 11
-788.3609188724749
 21
444.6431835432987
 31
0.0
  0
LINE
  5
3C88
330
18
100
AcDbEntity
  8
V5
100
AcDbLine
 10
-788.3609188724749
 20
444.6431835432987
 30
0.0
 11
-777.7992799594401
 21
404.4634139091535
 31
0.0
  0
LINE
  5
3C89
330
18
100
AcDbEntity
  8
V5
100
AcDbLine
 10
-777.7992799594401
 20
404.4634139091535
 30
0.0
 11
-748.9127058764593
 21
407.0275989805459
 31
0.0
  0
LINE
  5
3C92
330
18
100
AcDbEntity
  8
V5
100
AcDbLine
 10
385.0102227791756
 20
506.1960632389989
 30
0.0
 11
413.8967968621564
 21
508.7602483103912
 31
0.0
  0
LINE
  5
3C93
330
18
100
AcDbEntity
  8
V5
100
AcDbLine
 10
288.7866052716238
 20
539.516231204955
 30
0.0
 11
374.4485838661407
 21
546.375832873144
 31
0.0
  0
LINE
  5
3C95
330
18
100
AcDbEntity
  8
V5
100
AcDbLine
 10
285.3536621711326
 20
498.0052185949161
 30
0.0
 11
288.7866052716238
 21
539.516231204955
 31
0.0
  0
LINE
  5
3C96
330
18
100
AcDbEntity
  8
V25
 62
     4
100
AcDbLine
 10
272.2619945454254
 20
476.9672622735595
 30
0.0
 11
269.9071446415449
 21
503.6017578277319
 31
0.0
  0
LINE
  5
3C97
330
18
100
AcDbEntity
  8
V5
100
AcDbLine
 10
256.4670880881517
 20
495.441033523524
 30
0.0
 11
285.3536621711326
 21
498.0052185949161
 31
0.0
  0
LINE
  5
3C98
330
18
100
AcDbEntity
  8
V25
 62
     4
100
AcDbLine
 10
400.1577229553636
 20
487.3308354832754
 30
0.0
 11
398.244093091564
 21
514.0006628587837
 31
0.0
  0
LINE
  5
3C99
330
18
100
AcDbEntity
  8
V5
100
AcDbLine
 10
374.4485838661407
 20
546.375832873144
 30
0.0
 11
385.0102227791756
 21
506.1960632389989
 31
0.0
  0
INSERT
  5
3C9A
330
18
100
AcDbEntity
  8
INSULATION
  6
AUSGEZOGEN
 62
     6
 48
5.0
100
AcDbBlockReference
  2
DAEMM
 10
291.5586044377174
 20
498.359331254589
 30
0.0
 41
3.599706092438045
 42
3.591558956681457
 43
3.599706092438045
 50
5.000006140937967
  0
INSERT
  5
3C9B
330
18
100
AcDbEntity
  8
INSULATION
  6
AUSGEZOGEN
 62
     6
 48
5.0
100
AcDbBlockReference
  2
DAEMM
 10
305.9026369336191
 20
499.6142714872278
 30
0.0
 41
3.599706092438045
 42
3.591558956681457
 43
3.599706092438045
 50
5.000006140937967
  0
INSERT
  5
3C9C
330
18
100
AcDbEntity
  8
INSULATION
  6
AUSGEZOGEN
 62
     6
 48
5.0
100
AcDbBlockReference
  2
DAEMM
 10
320.2466694295201
 20
500.8692117198668
 30
0.0
 41
3.599706092438045
 42
3.591558956681457
 43
3.599706092438045
 50
5.000006140937967
  0
INSERT
  5
3C9D
330
18
100
AcDbEntity
  8
INSULATION
  6
AUSGEZOGEN
 62
     6
 48
5.0
100
AcDbBlockReference
  2
DAEMM
 10
334.5907019254219
 20
502.1241519525054
 30
0.0
 41
3.599706092438045
 42
3.591558956681457
 43
3.599706092438045
 50
5.000006140937967
  0
INSERT
  5
3C9E
330
18
100
AcDbEntity
  8
INSULATION
  6
AUSGEZOGEN
 62
     6
 48
5.0
100
AcDbBlockReference
  2
DAEMM
 10
348.9347344213229
 20
503.3790921851442
 30
0.0
 41
3.599706092438045
 42
3.591558956681457
 43
3.599706092438045
 50
5.000006140937967
  0
INSERT
  5
3C9F
330
18
100
AcDbEntity
  8
INSULATION
  6
AUSGEZOGEN
 62
     6
 48
5.0
100
AcDbBlockReference
  2
DAEMM
 10
363.2787669172246
 20
504.634032417783
 30
0.0
 41
3.599706092438045
 42
3.591558956681457
 43
3.599706092438045
 50
5.000006140937967
  0
INSERT
  5
3CA2
330
18
100
AcDbEntity
  8
INSULATION
  6
AUSGEZOGEN
 62
     6
 48
5.0
100
AcDbBlockReference
  2
DAEMM
 10
-798.8274735229108
 20
402.9629105665401
 30
0.0
 41
3.599706092438045
 42
3.591558956681457
 43
3.599706092438045
 50
5.000006140937967
  0
INSERT
  5
3CA3
330
18
100
AcDbEntity
  8
INSULATION
  6
AUSGEZOGEN
 62
     6
 48
5.0
100
AcDbBlockReference
  2
DAEMM
 10
-827.5155385147137
 20
400.4530301012626
 30
0.0
 41
3.599706092438045
 42
3.591558956681457
 43
3.599706092438045
 50
5.000006140937967
  0
INSERT
  5
3CA4
330
18
100
AcDbEntity
  8
INSULATION
  6
AUSGEZOGEN
 62
     6
 48
5.0
100
AcDbBlockReference
  2
DAEMM
 10
-856.2036035065164
 20
397.9431496359849
 30
0.0
 41
3.599706092438045
 42
3.591558956681457
 43
3.599706092438045
 50
5.000006140937967
  0
INSERT
  5
3CA5
330
18
100
AcDbEntity
  8
INSULATION
  6
AUSGEZOGEN
 62
     6
 48
5.0
100
AcDbBlockReference
  2
DAEMM
 10
-870.5476360024182
 20
396.6882094033461
 30
0.0
 41
3.599706092438045
 42
3.591558956681457
 43
3.599706092438045
 50
5.000006140937967
  0
INSERT
  5
3CA6
330
18
100
AcDbEntity
  8
INSULATION
  6
AUSGEZOGEN
 62
     6
 48
5.0
100
AcDbBlockReference
  2
DAEMM
 10
-841.8595710106153
 20
399.1980898686239
 30
0.0
 41
3.599706092438045
 42
3.591558956681457
 43
3.599706092438045
 50
5.000006140937967
  0
INSERT
  5
3CA7
330
18
100
AcDbEntity
  8
INSULATION
  6
AUSGEZOGEN
 62
     6
 48
5.0
100
AcDbBlockReference
  2
DAEMM
 10
-813.1715060188126
 20
401.7079703339013
 30
0.0
 41
3.599706092438045
 42
3.591558956681457
 43
3.599706092438045
 50
5.000006140937967
  0
INSERT
  5
3CA9
330
18
100
AcDbEntity
  8
INSULATION
  6
AUSGEZOGEN
 62
     6
 48
5.0
100
AcDbBlockReference
  2
DAEMM
 10
-977.7785562439985
 20
386.8761811229886
 30
0.0
 41
18.21748522227784
 42
18.20108622367073
 43
18.21748522227784
 50
4.999999999999972
  0
INSERT
  5
3CAC
330
18
100
AcDbEntity
  8
INSULATION
  6
AUSGEZOGEN
 62
     6
 48
5.0
100
AcDbBlockReference
  2
DAEMM
 10
-760.0006099520237
 20
405.9292825894938
 30
0.0
 41
18.21748522227784
 42
18.20108622367073
 43
18.21748522227784
 50
4.999999999999972
  0
INSERT
  5
3CAD
330
18
100
AcDbEntity
  8
INSULATION
  6
AUSGEZOGEN
 62
     6
 48
5.0
100
AcDbBlockReference
  2
DAEMM
 10
-687.4079611880318
 20
412.2803164116622
 30
0.0
 41
18.21748522227784
 42
18.20108622367073
 43
18.21748522227784
 50
4.999999999999972
  0
INSERT
  5
3CAE
330
18
100
AcDbEntity
  8
INSULATION
  6
AUSGEZOGEN
 62
     6
 48
5.0
100
AcDbBlockReference
  2
DAEMM
 10
-614.8153124240402
 20
418.6313502338306
 30
0.0
 41
18.21748522227784
 42
18.20108622367073
 43
18.21748522227784
 50
4.999999999999972
  0
INSERT
  5
3CAF
330
18
100
AcDbEntity
  8
INSULATION
  6
AUSGEZOGEN
 62
     6
 48
5.0
100
AcDbBlockReference
  2
DAEMM
 10
-542.2226636600485
 20
424.982384055999
 30
0.0
 41
18.21748522227784
 42
18.20108622367073
 43
18.21748522227784
 50
4.999999999999972
  0
INSERT
  5
3CB0
330
18
100
AcDbEntity
  8
INSULATION
  6
AUSGEZOGEN
 62
     6
 48
5.0
100
AcDbBlockReference
  2
DAEMM
 10
-469.6300148960567
 20
431.3334178781674
 30
0.0
 41
18.21748522227784
 42
18.20108622367073
 43
18.21748522227784
 50
4.999999999999972
  0
INSERT
  5
3CB1
330
18
100
AcDbEntity
  8
INSULATION
  6
AUSGEZOGEN
 62
     6
 48
5.0
100
AcDbBlockReference
  2
DAEMM
 10
-397.037366132065
 20
437.6844517003359
 30
0.0
 41
18.21748522227784
 42
18.20108622367073
 43
18.21748522227784
 50
4.999999999999972
  0
INSERT
  5
3CB2
330
18
100
AcDbEntity
  8
INSULATION
  6
AUSGEZOGEN
 62
     6
 48
5.0
100
AcDbBlockReference
  2
DAEMM
 10
-324.4447173680733
 20
444.0354855225042
 30
0.0
 41
18.21748522227784
 42
18.20108622367073
 43
18.21748522227784
 50
4.999999999999972
  0
INSERT
  5
3CB3
330
18
100
AcDbEntity
  8
INSULATION
  6
AUSGEZOGEN
 62
     6
 48
5.0
100
AcDbBlockReference
  2
DAEMM
 10
-251.8520686040815
 20
450.3865193446726
 30
0.0
 41
18.21748522227784
 42
18.20108622367073
 43
18.21748522227784
 50
4.999999999999972
  0
INSERT
  5
3CB4
330
18
100
AcDbEntity
  8
INSULATION
  6
AUSGEZOGEN
 62
     6
 48
5.0
100
AcDbBlockReference
  2
DAEMM
 10
-179.2594198400897
 20
456.737553166841
 30
0.0
 41
18.21748522227784
 42
18.20108622367073
 43
18.21748522227784
 50
4.999999999999972
  0
INSERT
  5
3CB5
330
18
100
AcDbEntity
  8
INSULATION
  6
AUSGEZOGEN
 62
     6
 48
5.0
100
AcDbBlockReference
  2
DAEMM
 10
-106.6667710760982
 20
463.0885869890095
 30
0.0
 41
18.21748522227784
 42
18.20108622367073
 43
18.21748522227784
 50
4.999999999999972
  0
INSERT
  5
3CB6
330
18
100
AcDbEntity
  8
INSULATION
  6
AUSGEZOGEN
 62
     6
 48
5.0
100
AcDbBlockReference
  2
DAEMM
 10
-34.07412231210628
 20
469.4396208111779
 30
0.0
 41
18.21748522227784
 42
18.20108622367073
 43
18.21748522227784
 50
4.999999999999972
  0
INSERT
  5
3CB7
330
18
100
AcDbEntity
  8
INSULATION
  6
AUSGEZOGEN
 62
     6
 48
5.0
100
AcDbBlockReference
  2
DAEMM
 10
38.51852645188478
 20
475.7906546333463
 30
0.0
 41
18.21748522227784
 42
18.20108622367073
 43
18.21748522227784
 50
4.999999999999972
  0
INSERT
  5
3CB8
330
18
100
AcDbEntity
  8
INSULATION
  6
AUSGEZOGEN
 62
     6
 48
5.0
100
AcDbBlockReference
  2
DAEMM
 10
111.1111752158767
 20
482.1416884555149
 30
0.0
 41
18.21748522227784
 42
18.20108622367073
 43
18.21748522227784
 50
4.999999999999972
  0
INSERT
  5
3CB9
330
18
100
AcDbEntity
  8
INSULATION
  6
AUSGEZOGEN
 62
     6
 48
5.0
100
AcDbBlockReference
  2
DAEMM
 10
183.7038239798685
 20
488.4927222776831
 30
0.0
 41
18.21748522227784
 42
18.20108622367073
 43
18.21748522227784
 50
4.999999999999972
  0
INSERT
  5
3CBC
330
18
100
AcDbEntity
  8
INSULATION
  6
AUSGEZOGEN
 62
     6
 48
5.0
100
AcDbBlockReference
  2
DAEMM
 10
401.4817702718437
 20
507.5458237441884
 30
0.0
 41
18.21748522227784
 42
18.20108622367073
 43
18.21748522227784
 50
4.999999999999972
  0
ELLIPSE
  5
3CBE
330
18
100
AcDbEntity
  8
INSULATION
100
AcDbEllipse
 10
325.7164631305752
 20
537.4584411130834
 30
0.0
 11
36.29632438199369
 21
3.175516911116025
 31
0.0
210
0.0
220
0.0
230
1.0
 40
0.9990998209463572
 41
6.413582681592864
 42
6.646153955784356
  0
LINE
  5
3CBF
330
18
100
AcDbEntity
  8
INSULATION
  6
VERDECKT
 48
2.0
100
AcDbLine
 10
358.5215146781874
 20
553.3025098776215
 30
0.0
 11
319.6897608331302
 21
633.5808428328175
 31
0.0
  0
ELLIPSE
  5
3CC0
330
18
100
AcDbEntity
  8
INSULATION
100
AcDbEllipse
 10
352.4948123807422
 20
649.4249115973552
 30
0.0
 11
36.29632438199929
 21
3.175516911048728
 31
0.0
210
0.0
220
0.0
230
1.0
 40
0.9990998209463615
 41
-0.362968648604659
 42
1.248864483211106
  0
LINE
  5
3CC1
330
18
100
AcDbEntity
  8
INSULATION
100
AcDbLine
 10
387.5527751505872
 20
639.5180872582924
 30
0.0
 11
363.251149124722
 21
553.716299274315
 31
0.0
  0
ELLIPSE
  5
3CC2
330
18
100
AcDbEntity
  8
INSULATION
100
AcDbEllipse
 10
398.3091118945671
 20
543.809474935252
 30
0.0
 11
36.29632438199902
 21
3.175516911054746
 31
0.0
210
0.0
220
0.0
230
1.0
 40
0.9990998209463572
 41
2.778624004984962
 42
3.011321300681854
  0
ELLIPSE
  5
3CC3
330
18
100
AcDbEntity
  8
INSULATION
100
AcDbEllipse
 10
253.1238143665834
 20
531.1074072909153
 30
0.0
 11
36.29632438199678
 21
3.175516911080594
 31
0.0
210
0.0
220
0.0
230
0.9999999999999998
 40
0.9990998209463576
 41
-1.570796326794792
 42
-0.4657348754881729
  0
LINE
  5
3CC4
330
18
100
AcDbEntity
  8
INSULATION
100
AcDbLine
 10
285.9288659141956
 20
546.9514760554532
 30
0.0
 11
247.0971120691384
 21
627.2298090106493
 31
0.0
  0
ELLIPSE
  5
3CC5
330
18
100
AcDbEntity
  8
INSULATION
  6
VERDECKT
 48
2.0
100
AcDbEllipse
 10
279.9021636167505
 20
643.073877775187
 30
0.0
 11
36.29632438199737
 21
3.17551691107082
 31
0.0
210
0.0
220
0.0
230
1.0
 40
0.9990998209463578
 41
-0.362968648605269
 42
1.504822256022365
  0
LINE
  5
3CC6
330
18
100
AcDbEntity
  8
INSULATION
  6
VERDECKT
 48
2.0
100
AcDbLine
 10
314.9601263865954
 20
633.1670534361242
 30
0.0
 11
290.6585003607303
 21
547.3652654521467
 31
0.0
  0
ELLIPSE
  5
3CC7
330
18
100
AcDbEntity
  8
INSULATION
100
AcDbEllipse
 10
325.7164631305754
 20
537.4584411130837
 30
0.0
 11
36.29632438199902
 21
3.175516911054746
 31
0.0
210
0.0
220
0.0
230
1.0
 40
0.9990998209463572
 41
2.778624004984962
 42
2.996463183903935
  0
ELLIPSE
  5
3CC8
330
18
100
AcDbEntity
  8
INSULATION
100
AcDbEllipse
 10
470.9017606585584
 20
550.1605087574204
 30
0.0
 11
36.29632438199369
 21
3.175516911116025
 31
0.0
210
0.0
220
0.0
230
1.0
 40
0.9990998209463572
 41
4.712388980383819
 42
6.646153955784356
  0
LINE
  5
3CC9
330
18
100
AcDbEntity
  8
INSULATION
100
AcDbLine
 10
503.7068122061706
 20
566.0045775219584
 30
0.0
 11
464.8750583611135
 21
646.2829104771544
 31
0.0
  0
ELLIPSE
  5
3CCA
330
18
100
AcDbEntity
  8
INSULATION
100
AcDbEllipse
 10
497.6801099087254
 20
662.1269792416922
 30
0.0
 11
36.29632438200334
 21
3.175516911002874
 31
0.0
210
0.0
220
0.0
230
1.0
 40
0.9990998209463606
 41
1.022205825002166
 42
3.504561302197674
  0
LINE
  5
3CCB
330
18
100
AcDbEntity
  8
INSULATION
100
AcDbLine
 10
513.9009977110545
 20
585.7120656545752
 30
0.0
 11
508.4364466527053
 21
566.4183669186519
 31
0.0
  0
ELLIPSE
  5
3CCC
330
18
100
AcDbEntity
  8
INSULATION
100
AcDbEllipse
 10
543.4944094225503
 20
556.5115425795888
 30
0.0
 11
36.29632438199911
 21
3.175516911052822
 31
0.0
210
0.0
220
0.0
230
1.0
 40
0.9990998209463592
 41
2.778624004985015
 42
3.677234055730245
  0
ELLIPSE
  5
3CCE
330
18
100
AcDbEntity
  8
INSULATION
100
AcDbEllipse
 10
279.9021636167505
 20
643.073877775187
 30
0.0
 11
36.29632438199737
 21
3.17551691107082
 31
0.0
210
0.0
220
0.0
230
1.0
 40
0.9990998209463578
 41
1.710290617815448
 42
3.504561302195801
  0
ELLIPSE
  5
3CCF
330
18
100
AcDbEntity
  8
INSULATION
  6
VERDECKT
 48
2.0
100
AcDbEllipse
 10
352.4948123807422
 20
649.4249115973552
 30
0.0
 11
36.29632438199929
 21
3.175516911048728
 31
0.0
210
0.0
220
0.0
230
1.0
 40
0.9990998209463615
 41
1.373627691708934
 42
3.504561302196409
  0
ELLIPSE
  5
3CD0
330
18
100
AcDbEntity
  8
INSULATION
100
AcDbEllipse
 10
-908.3585658572832
 20
429.4908661362206
 30
0.0
 11
36.29632438199151
 21
3.175516911140562
 31
0.0
210
0.0
220
0.0
230
1.0
 40
0.9990998209463583
 41
4.712388980383143
 42
5.711968017089687
  0
LINE
  5
3CD1
330
18
100
AcDbEntity
  8
INSULATION
100
AcDbLine
 10
-875.5535143096713
 20
445.3349349007585
 30
0.0
 11
-914.3852681547283
 21
525.6132678559546
 31
0.0
  0
ELLIPSE
  5
3CD2
330
18
100
AcDbEntity
  8
INSULATION
  6
VERDECKT
 48
2.0
100
AcDbEllipse
 10
-881.5802166071163
 20
541.4573366204924
 30
0.0
 11
36.29632438199535
 21
3.175516911094454
 31
0.0
210
0.0
220
0.0
230
1.0
 40
0.9990998209463571
 41
-0.3629686486059207
 42
1.296650324729447
  0
LINE
  5
3CD3
330
18
100
AcDbEntity
  8
INSULATION
  6
VERDECKT
 48
2.0
100
AcDbLine
 10
-846.5222538372714
 20
531.5505122814295
 30
0.0
 11
-870.8238798631365
 21
445.748724297452
 31
0.0
  0
ELLIPSE
  5
3CD4
330
18
100
AcDbEntity
  8
INSULATION
100
AcDbEllipse
 10
-835.7659170932915
 20
435.841899958389
 30
0.0
 11
36.29632438199749
 21
3.175516911071609
 31
0.0
210
0.0
220
0.0
230
1.0
 40
0.9990998209463606
 41
2.778624004984498
 42
2.996735081314722
  0
ELLIPSE
  5
3CD5
330
18
100
AcDbEntity
  8
INSULATION
100
AcDbEllipse
 10
-835.7659170932917
 20
435.841899958389
 30
0.0
 11
36.29632438199354
 21
3.175516911116938
 31
0.0
210
0.0
220
0.0
230
1.0
 40
0.9990998209463604
 41
6.413310784181576
 42
6.646153955784326
  0
LINE
  5
3CD6
330
18
100
AcDbEntity
  8
INSULATION
  6
VERDECKT
 48
2.0
100
AcDbLine
 10
-802.9608655456796
 20
451.685968722927
 30
0.0
 11
-841.7926193907369
 21
531.964301678123
 31
0.0
  0
ELLIPSE
  5
3CD7
330
18
100
AcDbEntity
  8
INSULATION
100
AcDbEllipse
 10
-808.9875678431248
 20
547.8083704426608
 30
0.0
 11
36.29632438199746
 21
3.175516911070454
 31
0.0
210
0.0
220
0.0
230
1.0
 40
0.9990998209463565
 41
-0.3629686486052632
 42
1.305781899313447
  0
LINE
  5
3CD8
330
18
100
AcDbEntity
  8
INSULATION
100
AcDbLine
 10
-773.9296050732798
 20
537.9015461035979
 30
0.0
 11
-798.2312310991451
 21
452.0997581196205
 31
0.0
  0
ELLIPSE
  5
3CD9
330
18
100
AcDbEntity
  8
INSULATION
100
AcDbEllipse
 10
-763.1732683292999
 20
442.1929337805574
 30
0.0
 11
36.29632438199749
 21
3.175516911071609
 31
0.0
210
0.0
220
0.0
230
1.0
 40
0.9990998209463606
 41
2.778624004984498
 42
3.011592669627016
  0
ELLIPSE
  5
3CDA
330
18
100
AcDbEntity
  8
INSULATION
100
AcDbEllipse
 10
-1053.543863385267
 20
416.7887984918837
 30
0.0
 11
36.29632438199151
 21
3.175516911140562
 31
0.0
210
0.0
220
0.0
230
1.0
 40
0.9990998209463583
 41
5.026659534265797
 42
6.646153955783677
  0
LINE
  5
3CDB
330
18
100
AcDbEntity
  8
INSULATION
100
AcDbLine
 10
-1020.738811837655
 20
432.6328672564217
 30
0.0
 11
-1039.306572426419
 21
471.0186912067091
 31
0.0
  0
ELLIPSE
  5
3CDC
330
18
100
AcDbEntity
  8
INSULATION
100
AcDbEllipse
 10
-1026.7655141351
 20
528.7552689761555
 30
0.0
 11
36.2963243820029
 21
3.175516911008574
 31
0.0
210
0.0
220
0.0
230
1.0
 40
0.9990998209463587
 41
-0.3629686486035517
 42
1.835001250636232
  0
LINE
  5
3CDD
330
18
100
AcDbEntity
  8
INSULATION
100
AcDbLine
 10
-991.7075513652548
 20
518.8484446370927
 30
0.0
 11
-1016.00917739112
 21
433.0466566531153
 31
0.0
  0
ELLIPSE
  5
3CDE
330
18
100
AcDbEntity
  8
INSULATION
100
AcDbEllipse
 10
-980.951214621275
 20
423.1398323140522
 30
0.0
 11
36.29632438199749
 21
3.175516911071609
 31
0.0
210
0.0
220
0.0
230
1.0
 40
0.9990998209463606
 41
2.778624004984498
 42
4.712388980385034
  0
ELLIPSE
  5
3CDF
330
18
100
AcDbEntity
  8
INSULATION
100
AcDbEllipse
 10
-881.5802166071163
 20
541.4573366204924
 30
0.0
 11
36.29632438199535
 21
3.175516911094454
 31
0.0
210
0.0
220
0.0
230
1.0
 40
0.9990998209463571
 41
1.452285816986689
 42
3.504561302195149
  0
ELLIPSE
  5
3CE0
330
18
100
AcDbEntity
  8
INSULATION
  6
VERDECKT
 48
2.0
100
AcDbEllipse
 10
-808.9875678431248
 20
547.8083704426608
 30
0.0
 11
36.29632438199746
 21
3.175516911070454
 31
0.0
210
0.0
220
0.0
230
1.0
 40
0.9990998209463565
 41
1.470652966322783
 42
3.504561302195811
  0
ELLIPSE
  5
3CE1
330
18
100
AcDbEntity
  8
INSULATION
100
AcDbEllipse
 10
-908.3585658572832
 20
429.4908661362206
 30
0.0
 11
36.29632438199151
 21
3.175516911140562
 31
0.0
210
0.0
220
0.0
230
1.0
 40
0.9990998209463583
 41
6.428198981982683
 42
6.646153955783677
  0
ELLIPSE
  5
3CE2
330
18
100
AcDbEntity
  8
INSULATION
100
AcDbEllipse
 10
253.1238143665834
 20
531.1074072909153
 30
0.0
 11
36.29632438199678
 21
3.175516911080594
 31
0.0
210
0.0
220
0.0
230
0.9999999999999998
 40
0.9990998209463576
 41
0.1264781569855664
 42
0.3629686486057433
  0
INSERT
  5
3D0C
330
18
100
AcDbEntity
  8
V35
  6
AUSGEZOGEN
 62
     6
 48
10.0
100
AcDbBlockReference
  2
e140
 10
-879.322666615309
 20
-741.4553322170588
 30
0.0
  0
INSERT
  5
3D10
330
18
100
AcDbEntity
  8
V35
  6
AUSGEZOGEN
 62
     6
 48
5.0
100
AcDbBlockReference
  2
AluPers
 10
427.2892828729824
 20
-245.1190128438065
 30
0.0
 41
0.7
 42
0.7
 43
0.7
 50
4.999999999999969
  0
LINE
  5
3D11
330
18
100
AcDbEntity
  8
TXT-E
  6
VERDECKTX2
 48
5.0
100
AcDbLine
 10
-430.9768389168815
 20
-491.480681556896
 30
0.0
 11
-430.9768389168816
 21
-786.4206677042184
 31
0.0
  0
INSERT
  5
3D15
330
18
100
AcDbEntity
  8
INSULATION
  6
AUSGEZOGEN
 62
     6
 48
10.0
100
AcDbBlockReference
  2
DAEMM
 10
-1029.733389860354
 20
-780.0874614525219
 30
0.0
 41
2.992230660831618
 42
2.976849063668579
 43
2.992230660831618
  0
INSERT
  5
3D16
330
18
100
AcDbEntity
  8
INSULATION
  6
AUSGEZOGEN
 62
     6
 48
10.0
100
AcDbBlockReference
  2
DAEMM
 10
-1017.764467217028
 20
-780.0874614525219
 30
0.0
 41
2.992230660831618
 42
2.976849063668579
 43
2.992230660831618
  0
INSERT
  5
3D17
330
18
100
AcDbEntity
  8
INSULATION
  6
AUSGEZOGEN
 62
     6
 48
10.0
100
AcDbBlockReference
  2
DAEMM
 10
-1005.795544573702
 20
-780.0874614525219
 30
0.0
 41
2.992230660831618
 42
2.976849063668579
 43
2.992230660831618
  0
INSERT
  5
3D18
330
18
100
AcDbEntity
  8
INSULATION
  6
AUSGEZOGEN
 62
     6
 48
10.0
100
AcDbBlockReference
  2
DAEMM
 10
-993.8266219303754
 20
-780.0874614525219
 30
0.0
 41
2.992230660831618
 42
2.976849063668579
 43
2.992230660831618
  0
INSERT
  5
3D19
330
18
100
AcDbEntity
  8
INSULATION
  6
AUSGEZOGEN
 62
     6
 48
10.0
100
AcDbBlockReference
  2
DAEMM
 10
-981.857699287049
 20
-780.0874614525219
 30
0.0
 41
2.992230660831618
 42
2.976849063668579
 43
2.992230660831618
  0
INSERT
  5
3D1A
330
18
100
AcDbEntity
  8
INSULATION
  6
AUSGEZOGEN
 62
     6
 48
10.0
100
AcDbBlockReference
  2
DAEMM
 10
-969.8887766437225
 20
-780.0874614525219
 30
0.0
 41
2.992230660831618
 42
2.976849063668579
 43
2.992230660831618
  0
INSERT
  5
3D1B
330
18
100
AcDbEntity
  8
INSULATION
  6
AUSGEZOGEN
 62
     6
 48
10.0
100
AcDbBlockReference
  2
DAEMM
 10
-957.9198540003961
 20
-780.0874614525219
 30
0.0
 41
2.992230660831618
 42
2.976849063668579
 43
2.992230660831618
  0
INSERT
  5
3D1C
330
18
100
AcDbEntity
  8
INSULATION
  6
AUSGEZOGEN
 62
     6
 48
10.0
100
AcDbBlockReference
  2
DAEMM
 10
-945.9509313570697
 20
-780.0874614525219
 30
0.0
 41
2.992230660831618
 42
2.976849063668579
 43
2.992230660831618
  0
INSERT
  5
3D1D
330
18
100
AcDbEntity
  8
INSULATION
  6
AUSGEZOGEN
 62
     6
 48
10.0
100
AcDbBlockReference
  2
DAEMM
 10
-933.9820087137432
 20
-780.0874614525219
 30
0.0
 41
2.992230660831618
 42
2.976849063668579
 43
2.992230660831618
  0
INSERT
  5
3D1E
330
18
100
AcDbEntity
  8
INSULATION
  6
AUSGEZOGEN
 62
     6
 48
10.0
100
AcDbBlockReference
  2
DAEMM
 10
-922.0130860704168
 20
-780.0874614525219
 30
0.0
 41
2.992230660831618
 42
2.976849063668579
 43
2.992230660831618
  0
INSERT
  5
3D1F
330
18
100
AcDbEntity
  8
INSULATION
  6
AUSGEZOGEN
 62
     6
 48
10.0
100
AcDbBlockReference
  2
DAEMM
 10
-910.0441634270904
 20
-780.0874614525219
 30
0.0
 41
2.992230660831618
 42
2.976849063668579
 43
2.992230660831618
  0
INSERT
  5
3D20
330
18
100
AcDbEntity
  8
INSULATION
  6
AUSGEZOGEN
 62
     6
 48
10.0
100
AcDbBlockReference
  2
DAEMM
 10
-898.0752407837639
 20
-780.0874614525219
 30
0.0
 41
2.992230660831618
 42
2.976849063668579
 43
2.992230660831618
  0
INSERT
  5
3D21
330
18
100
AcDbEntity
  8
INSULATION
  6
AUSGEZOGEN
 62
     6
 48
10.0
100
AcDbBlockReference
  2
DAEMM
 10
-886.1063181404373
 20
-780.0874614525219
 30
0.0
 41
2.992230660831618
 42
2.976849063668579
 43
2.992230660831618
  0
INSERT
  5
3D22
330
18
100
AcDbEntity
  8
INSULATION
  6
AUSGEZOGEN
 62
     6
 48
10.0
100
AcDbBlockReference
  2
DAEMM
 10
-874.1373954971109
 20
-780.0874614525219
 30
0.0
 41
2.992230660831618
 42
2.976849063668579
 43
2.992230660831618
  0
INSERT
  5
3D23
330
18
100
AcDbEntity
  8
INSULATION
  6
AUSGEZOGEN
 62
     6
 48
10.0
100
AcDbBlockReference
  2
DAEMM
 10
-862.1684728537845
 20
-780.0874614525219
 30
0.0
 41
2.992230660831618
 42
2.976849063668579
 43
2.992230660831618
  0
INSERT
  5
3D24
330
18
100
AcDbEntity
  8
INSULATION
  6
AUSGEZOGEN
 62
     6
 48
10.0
100
AcDbBlockReference
  2
DAEMM
 10
-850.199550210458
 20
-780.0874614525219
 30
0.0
 41
2.992230660831618
 42
2.976849063668579
 43
2.992230660831618
  0
INSERT
  5
3D25
330
18
100
AcDbEntity
  8
INSULATION
  6
AUSGEZOGEN
 62
     6
 48
10.0
100
AcDbBlockReference
  2
DAEMM
 10
-838.2306275671316
 20
-780.0874614525219
 30
0.0
 41
2.992230660831618
 42
2.976849063668579
 43
2.992230660831618
  0
INSERT
  5
3D26
330
18
100
AcDbEntity
  8
INSULATION
  6
AUSGEZOGEN
 62
     6
 48
10.0
100
AcDbBlockReference
  2
DAEMM
 10
-826.2617049238052
 20
-780.0874614525219
 30
0.0
 41
2.992230660831618
 42
2.976849063668579
 43
2.992230660831618
  0
INSERT
  5
3D27
330
18
100
AcDbEntity
  8
INSULATION
  6
AUSGEZOGEN
 62
     6
 48
10.0
100
AcDbBlockReference
  2
DAEMM
 10
-814.2927822804788
 20
-780.0874614525219
 30
0.0
 41
2.992230660831618
 42
2.976849063668579
 43
2.992230660831618
  0
INSERT
  5
3D28
330
18
100
AcDbEntity
  8
INSULATION
  6
AUSGEZOGEN
 62
     6
 48
10.0
100
AcDbBlockReference
  2
DAEMM
 10
-802.3238596371523
 20
-780.0874614525219
 30
0.0
 41
2.992230660831618
 42
2.976849063668579
 43
2.992230660831618
  0
INSERT
  5
3D29
330
18
100
AcDbEntity
  8
INSULATION
  6
AUSGEZOGEN
 62
     6
 48
10.0
100
AcDbBlockReference
  2
DAEMM
 10
-790.3549369938259
 20
-780.0874614525219
 30
0.0
 41
2.992230660831618
 42
2.976849063668579
 43
2.992230660831618
  0
INSERT
  5
3D2A
330
18
100
AcDbEntity
  8
INSULATION
  6
AUSGEZOGEN
 62
     6
 48
10.0
100
AcDbBlockReference
  2
DAEMM
 10
-778.3860143504995
 20
-780.0874614525219
 30
0.0
 41
2.992230660831618
 42
2.976849063668579
 43
2.992230660831618
  0
INSERT
  5
3D2B
330
18
100
AcDbEntity
  8
INSULATION
  6
AUSGEZOGEN
 62
     6
 48
10.0
100
AcDbBlockReference
  2
DAEMM
 10
-766.417091707173
 20
-780.0874614525219
 30
0.0
 41
2.992230660831618
 42
2.976849063668579
 43
2.992230660831618
  0
INSERT
  5
3D2C
330
18
100
AcDbEntity
  8
INSULATION
  6
AUSGEZOGEN
 62
     6
 48
10.0
100
AcDbBlockReference
  2
DAEMM
 10
-754.4481690638466
 20
-780.0874614525219
 30
0.0
 41
2.992230660831618
 42
2.976849063668579
 43
2.992230660831618
  0
INSERT
  5
3D2D
330
18
100
AcDbEntity
  8
INSULATION
  6
AUSGEZOGEN
 62
     6
 48
10.0
100
AcDbBlockReference
  2
DAEMM
 10
-742.4792464205202
 20
-780.0874614525219
 30
0.0
 41
2.992230660831618
 42
2.976849063668579
 43
2.992230660831618
  0
INSERT
  5
3D2E
330
18
100
AcDbEntity
  8
INSULATION
  6
AUSGEZOGEN
 62
     6
 48
10.0
100
AcDbBlockReference
  2
DAEMM
 10
-730.5103237771938
 20
-780.0874614525219
 30
0.0
 41
2.992230660831618
 42
2.976849063668579
 43
2.992230660831618
  0
INSERT
  5
3D2F
330
18
100
AcDbEntity
  8
INSULATION
  6
AUSGEZOGEN
 62
     6
 48
10.0
100
AcDbBlockReference
  2
DAEMM
 10
-718.5414011338673
 20
-780.0874614525219
 30
0.0
 41
2.992230660831618
 42
2.976849063668579
 43
2.992230660831618
  0
INSERT
  5
3D30
330
18
100
AcDbEntity
  8
INSULATION
  6
AUSGEZOGEN
 62
     6
 48
10.0
100
AcDbBlockReference
  2
DAEMM
 10
-706.5724784905409
 20
-780.0874614525219
 30
0.0
 41
2.992230660831618
 42
2.976849063668579
 43
2.992230660831618
  0
INSERT
  5
3D31
330
18
100
AcDbEntity
  8
INSULATION
  6
AUSGEZOGEN
 62
     6
 48
10.0
100
AcDbBlockReference
  2
DAEMM
 10
-694.6035558472145
 20
-780.0874614525219
 30
0.0
 41
2.992230660831618
 42
2.976849063668579
 43
2.992230660831618
  0
INSERT
  5
3D32
330
18
100
AcDbEntity
  8
INSULATION
  6
AUSGEZOGEN
 62
     6
 48
10.0
100
AcDbBlockReference
  2
DAEMM
 10
-682.634633203888
 20
-780.0874614525219
 30
0.0
 41
2.992230660831618
 42
2.976849063668579
 43
2.992230660831618
  0
INSERT
  5
3D33
330
18
100
AcDbEntity
  8
INSULATION
  6
AUSGEZOGEN
 62
     6
 48
10.0
100
AcDbBlockReference
  2
DAEMM
 10
-670.6657105605615
 20
-780.0874614525219
 30
0.0
 41
2.992230660831618
 42
2.976849063668579
 43
2.992230660831618
  0
INSERT
  5
3D34
330
18
100
AcDbEntity
  8
INSULATION
  6
AUSGEZOGEN
 62
     6
 48
10.0
100
AcDbBlockReference
  2
DAEMM
 10
-658.6967879172351
 20
-780.0874614525219
 30
0.0
 41
2.992230660831618
 42
2.976849063668579
 43
2.992230660831618
  0
INSERT
  5
3D35
330
18
100
AcDbEntity
  8
INSULATION
  6
AUSGEZOGEN
 62
     6
 48
10.0
100
AcDbBlockReference
  2
DAEMM
 10
-646.7278652739087
 20
-780.0874614525219
 30
0.0
 41
2.992230660831618
 42
2.976849063668579
 43
2.992230660831618
  0
INSERT
  5
3D36
330
18
100
AcDbEntity
  8
INSULATION
  6
AUSGEZOGEN
 62
     6
 48
10.0
100
AcDbBlockReference
  2
DAEMM
 10
-634.7589426305822
 20
-780.0874614525219
 30
0.0
 41
2.992230660831618
 42
2.976849063668579
 43
2.992230660831618
  0
INSERT
  5
3D37
330
18
100
AcDbEntity
  8
INSULATION
  6
AUSGEZOGEN
 62
     6
 48
10.0
100
AcDbBlockReference
  2
DAEMM
 10
-622.7900199872558
 20
-780.0874614525219
 30
0.0
 41
2.992230660831618
 42
2.976849063668579
 43
2.992230660831618
  0
INSERT
  5
3D38
330
18
100
AcDbEntity
  8
INSULATION
  6
AUSGEZOGEN
 62
     6
 48
10.0
100
AcDbBlockReference
  2
DAEMM
 10
-610.8210973439294
 20
-780.0874614525219
 30
0.0
 41
2.992230660831618
 42
2.976849063668579
 43
2.992230660831618
  0
INSERT
  5
3D39
330
18
100
AcDbEntity
  8
INSULATION
  6
AUSGEZOGEN
 62
     6
 48
10.0
100
AcDbBlockReference
  2
DAEMM
 10
-598.8521747006029
 20
-780.0874614525219
 30
0.0
 41
2.992230660831618
 42
2.976849063668579
 43
2.992230660831618
  0
INSERT
  5
3D3A
330
18
100
AcDbEntity
  8
INSULATION
  6
AUSGEZOGEN
 62
     6
 48
10.0
100
AcDbBlockReference
  2
DAEMM
 10
-586.8832520572765
 20
-780.0874614525219
 30
0.0
 41
2.992230660831618
 42
2.976849063668579
 43
2.992230660831618
  0
INSERT
  5
3D3B
330
18
100
AcDbEntity
  8
INSULATION
  6
AUSGEZOGEN
 62
     6
 48
10.0
100
AcDbBlockReference
  2
DAEMM
 10
-574.9143294139501
 20
-780.0874614525219
 30
0.0
 41
2.992230660831618
 42
2.976849063668579
 43
2.992230660831618
  0
INSERT
  5
3D3C
330
18
100
AcDbEntity
  8
INSULATION
  6
AUSGEZOGEN
 62
     6
 48
10.0
100
AcDbBlockReference
  2
DAEMM
 10
-562.9454067706237
 20
-780.0874614525219
 30
0.0
 41
2.992230660831618
 42
2.976849063668579
 43
2.992230660831618
  0
INSERT
  5
3D3D
330
18
100
AcDbEntity
  8
INSULATION
  6
AUSGEZOGEN
 62
     6
 48
10.0
100
AcDbBlockReference
  2
DAEMM
 10
-550.9764841272972
 20
-780.0874614525219
 30
0.0
 41
2.992230660831618
 42
2.976849063668579
 43
2.992230660831618
  0
INSERT
  5
3D3E
330
18
100
AcDbEntity
  8
INSULATION
  6
AUSGEZOGEN
 62
     6
 48
10.0
100
AcDbBlockReference
  2
DAEMM
 10
-539.0075614839708
 20
-780.0874614525219
 30
0.0
 41
2.992230660831618
 42
2.976849063668579
 43
2.992230660831618
  0
INSERT
  5
3D3F
330
18
100
AcDbEntity
  8
INSULATION
  6
AUSGEZOGEN
 62
     6
 48
10.0
100
AcDbBlockReference
  2
DAEMM
 10
-527.0386388406443
 20
-780.0874614525219
 30
0.0
 41
2.992230660831618
 42
2.976849063668579
 43
2.992230660831618
  0
INSERT
  5
3D40
330
18
100
AcDbEntity
  8
INSULATION
  6
AUSGEZOGEN
 62
     6
 48
10.0
100
AcDbBlockReference
  2
DAEMM
 10
-515.0697161973178
 20
-780.0874614525219
 30
0.0
 41
2.992230660831618
 42
2.976849063668579
 43
2.992230660831618
  0
INSERT
  5
3D41
330
18
100
AcDbEntity
  8
INSULATION
  6
AUSGEZOGEN
 62
     6
 48
10.0
100
AcDbBlockReference
  2
DAEMM
 10
-503.1007935539914
 20
-780.0874614525219
 30
0.0
 41
2.992230660831618
 42
2.976849063668579
 43
2.992230660831618
  0
INSERT
  5
3D42
330
18
100
AcDbEntity
  8
INSULATION
  6
AUSGEZOGEN
 62
     6
 48
10.0
100
AcDbBlockReference
  2
DAEMM
 10
-491.1318709106649
 20
-780.0874614525219
 30
0.0
 41
2.992230660831618
 42
2.976849063668579
 43
2.992230660831618
  0
INSERT
  5
3D43
330
18
100
AcDbEntity
  8
INSULATION
  6
AUSGEZOGEN
 62
     6
 48
10.0
100
AcDbBlockReference
  2
DAEMM
 10
-479.1629482673384
 20
-780.0874614525219
 30
0.0
 41
2.992230660831618
 42
2.976849063668579
 43
2.992230660831618
  0
INSERT
  5
3D44
330
18
100
AcDbEntity
  8
INSULATION
  6
AUSGEZOGEN
 62
     6
 48
10.0
100
AcDbBlockReference
  2
DAEMM
 10
-467.1940256240119
 20
-780.0874614525219
 30
0.0
 41
2.992230660831618
 42
2.976849063668579
 43
2.992230660831618
  0
INSERT
  5
3D45
330
18
100
AcDbEntity
  8
INSULATION
  6
AUSGEZOGEN
 62
     6
 48
10.0
100
AcDbBlockReference
  2
DAEMM
 10
-455.2251029806854
 20
-780.0874614525219
 30
0.0
 41
2.992230660831618
 42
2.976849063668579
 43
2.992230660831618
  0
INSERT
  5
3D46
330
18
100
AcDbEntity
  8
INSULATION
  6
AUSGEZOGEN
 62
     6
 48
10.0
100
AcDbBlockReference
  2
DAEMM
 10
-443.2561803373589
 20
-780.0874614525219
 30
0.0
 41
2.992230660831618
 42
2.976849063668579
 43
2.992230660831618
  0
INSERT
  5
3D47
330
18
100
AcDbEntity
  8
INSULATION
  6
AUSGEZOGEN
 62
     6
 48
10.0
100
AcDbBlockReference
  2
DAEMM
 10
-431.2872576940324
 20
-780.0874614525219
 30
0.0
 41
2.992230660831618
 42
2.976849063668579
 43
2.992230660831618
  0
INSERT
  5
3D48
330
18
100
AcDbEntity
  8
INSULATION
  6
AUSGEZOGEN
 62
     6
 48
10.0
100
AcDbBlockReference
  2
DAEMM
 10
-419.318335050706
 20
-780.0874614525219
 30
0.0
 41
2.992230660831618
 42
2.976849063668579
 43
2.992230660831618
  0
INSERT
  5
3D49
330
18
100
AcDbEntity
  8
INSULATION
  6
AUSGEZOGEN
 62
     6
 48
10.0
100
AcDbBlockReference
  2
DAEMM
 10
-407.3494124073794
 20
-780.0874614525219
 30
0.0
 41
2.992230660831618
 42
2.976849063668579
 43
2.992230660831618
  0
INSERT
  5
3D4A
330
18
100
AcDbEntity
  8
INSULATION
  6
AUSGEZOGEN
 62
     6
 48
10.0
100
AcDbBlockReference
  2
DAEMM
 10
-395.380489764053
 20
-780.0874614525219
 30
0.0
 41
2.992230660831618
 42
2.976849063668579
 43
2.992230660831618
  0
INSERT
  5
3D4B
330
18
100
AcDbEntity
  8
INSULATION
  6
AUSGEZOGEN
 62
     6
 48
10.0
100
AcDbBlockReference
  2
DAEMM
 10
-383.4115671207265
 20
-780.0874614525219
 30
0.0
 41
2.992230660831618
 42
2.976849063668579
 43
2.992230660831618
  0
INSERT
  5
3D4C
330
18
100
AcDbEntity
  8
INSULATION
  6
AUSGEZOGEN
 62
     6
 48
10.0
100
AcDbBlockReference
  2
DAEMM
 10
-371.4426444774
 20
-780.0874614525219
 30
0.0
 41
2.992230660831618
 42
2.976849063668579
 43
2.992230660831618
  0
INSERT
  5
3D4D
330
18
100
AcDbEntity
  8
INSULATION
  6
AUSGEZOGEN
 62
     6
 48
10.0
100
AcDbBlockReference
  2
DAEMM
 10
-359.4737218340735
 20
-780.0874614525219
 30
0.0
 41
2.992230660831618
 42
2.976849063668579
 43
2.992230660831618
  0
INSERT
  5
3D4E
330
18
100
AcDbEntity
  8
INSULATION
  6
AUSGEZOGEN
 62
     6
 48
10.0
100
AcDbBlockReference
  2
DAEMM
 10
-347.504799190747
 20
-780.0874614525219
 30
0.0
 41
2.992230660831618
 42
2.976849063668579
 43
2.992230660831618
  0
INSERT
  5
3D4F
330
18
100
AcDbEntity
  8
INSULATION
  6
AUSGEZOGEN
 62
     6
 48
10.0
100
AcDbBlockReference
  2
DAEMM
 10
-335.5358765474205
 20
-780.0874614525219
 30
0.0
 41
2.992230660831618
 42
2.976849063668579
 43
2.992230660831618
  0
INSERT
  5
3D50
330
18
100
AcDbEntity
  8
INSULATION
  6
AUSGEZOGEN
 62
     6
 48
10.0
100
AcDbBlockReference
  2
DAEMM
 10
-323.566953904094
 20
-780.0874614525219
 30
0.0
 41
2.992230660831618
 42
2.976849063668579
 43
2.992230660831618
  0
INSERT
  5
3D51
330
18
100
AcDbEntity
  8
INSULATION
  6
AUSGEZOGEN
 62
     6
 48
10.0
100
AcDbBlockReference
  2
DAEMM
 10
-311.5980312607675
 20
-780.0874614525219
 30
0.0
 41
2.992230660831618
 42
2.976849063668579
 43
2.992230660831618
  0
INSERT
  5
3D52
330
18
100
AcDbEntity
  8
INSULATION
  6
AUSGEZOGEN
 62
     6
 48
10.0
100
AcDbBlockReference
  2
DAEMM
 10
-299.629108617441
 20
-780.0874614525219
 30
0.0
 41
2.992230660831618
 42
2.976849063668579
 43
2.992230660831618
  0
INSERT
  5
3D53
330
18
100
AcDbEntity
  8
INSULATION
  6
AUSGEZOGEN
 62
     6
 48
10.0
100
AcDbBlockReference
  2
DAEMM
 10
-287.6601859741145
 20
-780.0874614525219
 30
0.0
 41
2.992230660831618
 42
2.976849063668579
 43
2.992230660831618
  0
INSERT
  5
3D54
330
18
100
AcDbEntity
  8
INSULATION
  6
AUSGEZOGEN
 62
     6
 48
10.0
100
AcDbBlockReference
  2
DAEMM
 10
-275.6912633307881
 20
-780.0874614525219
 30
0.0
 41
2.992230660831618
 42
2.976849063668579
 43
2.992230660831618
  0
INSERT
  5
3D55
330
18
100
AcDbEntity
  8
INSULATION
  6
AUSGEZOGEN
 62
     6
 48
10.0
100
AcDbBlockReference
  2
DAEMM
 10
-263.7223406874615
 20
-780.0874614525219
 30
0.0
 41
2.992230660831618
 42
2.976849063668579
 43
2.992230660831618
  0
INSERT
  5
3D56
330
18
100
AcDbEntity
  8
INSULATION
  6
AUSGEZOGEN
 62
     6
 48
10.0
100
AcDbBlockReference
  2
DAEMM
 10
-251.7534180441351
 20
-780.0874614525219
 30
0.0
 41
2.992230660831618
 42
2.976849063668579
 43
2.992230660831618
  0
INSERT
  5
3D57
330
18
100
AcDbEntity
  8
INSULATION
  6
AUSGEZOGEN
 62
     6
 48
10.0
100
AcDbBlockReference
  2
DAEMM
 10
-239.7844954008086
 20
-780.0874614525219
 30
0.0
 41
2.992230660831618
 42
2.976849063668579
 43
2.992230660831618
  0
INSERT
  5
3D58
330
18
100
AcDbEntity
  8
INSULATION
  6
AUSGEZOGEN
 62
     6
 48
10.0
100
AcDbBlockReference
  2
DAEMM
 10
-227.8155727574822
 20
-780.0874614525219
 30
0.0
 41
2.992230660831618
 42
2.976849063668579
 43
2.992230660831618
  0
INSERT
  5
3D59
330
18
100
AcDbEntity
  8
INSULATION
  6
AUSGEZOGEN
 62
     6
 48
10.0
100
AcDbBlockReference
  2
DAEMM
 10
-215.8466501141557
 20
-780.0874614525219
 30
0.0
 41
2.992230660831618
 42
2.976849063668579
 43
2.992230660831618
  0
INSERT
  5
3D5A
330
18
100
AcDbEntity
  8
INSULATION
  6
AUSGEZOGEN
 62
     6
 48
10.0
100
AcDbBlockReference
  2
DAEMM
 10
-203.8777274708292
 20
-780.0874614525219
 30
0.0
 41
2.992230660831618
 42
2.976849063668579
 43
2.992230660831618
  0
INSERT
  5
3D5B
330
18
100
AcDbEntity
  8
INSULATION
  6
AUSGEZOGEN
 62
     6
 48
10.0
100
AcDbBlockReference
  2
DAEMM
 10
-191.9088048275027
 20
-780.0874614525219
 30
0.0
 41
2.992230660831618
 42
2.976849063668579
 43
2.992230660831618
  0
INSERT
  5
3D5C
330
18
100
AcDbEntity
  8
INSULATION
  6
AUSGEZOGEN
 62
     6
 48
10.0
100
AcDbBlockReference
  2
DAEMM
 10
-179.9398821841763
 20
-780.0874614525219
 30
0.0
 41
2.992230660831618
 42
2.976849063668579
 43
2.992230660831618
  0
INSERT
  5
3D5D
330
18
100
AcDbEntity
  8
INSULATION
  6
AUSGEZOGEN
 62
     6
 48
10.0
100
AcDbBlockReference
  2
DAEMM
 10
-167.9709595408498
 20
-780.0874614525219
 30
0.0
 41
2.992230660831618
 42
2.976849063668579
 43
2.992230660831618
  0
INSERT
  5
3D5E
330
18
100
AcDbEntity
  8
INSULATION
  6
AUSGEZOGEN
 62
     6
 48
10.0
100
AcDbBlockReference
  2
DAEMM
 10
-156.0020368975233
 20
-780.0874614525219
 30
0.0
 41
2.992230660831618
 42
2.976849063668579
 43
2.992230660831618
  0
INSERT
  5
3D5F
330
18
100
AcDbEntity
  8
INSULATION
  6
AUSGEZOGEN
 62
     6
 48
10.0
100
AcDbBlockReference
  2
DAEMM
 10
-144.0331142541969
 20
-780.0874614525219
 30
0.0
 41
2.992230660831618
 42
2.976849063668579
 43
2.992230660831618
  0
INSERT
  5
3D60
330
18
100
AcDbEntity
  8
INSULATION
  6
AUSGEZOGEN
 62
     6
 48
10.0
100
AcDbBlockReference
  2
DAEMM
 10
-132.0641916108704
 20
-780.0874614525219
 30
0.0
 41
2.992230660831618
 42
2.976849063668579
 43
2.992230660831618
  0
INSERT
  5
3D61
330
18
100
AcDbEntity
  8
INSULATION
  6
AUSGEZOGEN
 62
     6
 48
10.0
100
AcDbBlockReference
  2
DAEMM
 10
-120.0952689675439
 20
-780.0874614525219
 30
0.0
 41
2.992230660831618
 42
2.976849063668579
 43
2.992230660831618
  0
INSERT
  5
3D62
330
18
100
AcDbEntity
  8
INSULATION
  6
AUSGEZOGEN
 62
     6
 48
10.0
100
AcDbBlockReference
  2
DAEMM
 10
-108.1263463242175
 20
-780.0874614525219
 30
0.0
 41
2.992230660831618
 42
2.976849063668579
 43
2.992230660831618
  0
INSERT
  5
3D63
330
18
100
AcDbEntity
  8
INSULATION
  6
AUSGEZOGEN
 62
     6
 48
10.0
100
AcDbBlockReference
  2
DAEMM
 10
-96.15742368089104
 20
-780.0874614525219
 30
0.0
 41
2.992230660831618
 42
2.976849063668579
 43
2.992230660831618
  0
INSERT
  5
3D64
330
18
100
AcDbEntity
  8
INSULATION
  6
AUSGEZOGEN
 62
     6
 48
10.0
100
AcDbBlockReference
  2
DAEMM
 10
-84.18850103756458
 20
-780.0874614525219
 30
0.0
 41
2.992230660831618
 42
2.976849063668579
 43
2.992230660831618
  0
INSERT
  5
3D65
330
18
100
AcDbEntity
  8
INSULATION
  6
AUSGEZOGEN
 62
     6
 48
10.0
100
AcDbBlockReference
  2
DAEMM
 10
-72.21957839423811
 20
-780.0874614525219
 30
0.0
 41
2.992230660831618
 42
2.976849063668579
 43
2.992230660831618
  0
INSERT
  5
3D66
330
18
100
AcDbEntity
  8
INSULATION
  6
AUSGEZOGEN
 62
     6
 48
10.0
100
AcDbBlockReference
  2
DAEMM
 10
-60.25065575091164
 20
-780.0874614525219
 30
0.0
 41
2.992230660831618
 42
2.976849063668579
 43
2.992230660831618
  0
INSERT
  5
3D67
330
18
100
AcDbEntity
  8
INSULATION
  6
AUSGEZOGEN
 62
     6
 48
10.0
100
AcDbBlockReference
  2
DAEMM
 10
-48.28173310758517
 20
-780.0874614525219
 30
0.0
 41
2.992230660831618
 42
2.976849063668579
 43
2.992230660831618
  0
INSERT
  5
3D68
330
18
100
AcDbEntity
  8
INSULATION
  6
AUSGEZOGEN
 62
     6
 48
10.0
100
AcDbBlockReference
  2
DAEMM
 10
-36.3128104642587
 20
-780.0874614525219
 30
0.0
 41
2.992230660831618
 42
2.976849063668579
 43
2.992230660831618
  0
INSERT
  5
3D69
330
18
100
AcDbEntity
  8
INSULATION
  6
AUSGEZOGEN
 62
     6
 48
10.0
100
AcDbBlockReference
  2
DAEMM
 10
-24.34388782093222
 20
-780.0874614525219
 30
0.0
 41
2.992230660831618
 42
2.976849063668579
 43
2.992230660831618
  0
INSERT
  5
3D6A
330
18
100
AcDbEntity
  8
INSULATION
  6
AUSGEZOGEN
 62
     6
 48
10.0
100
AcDbBlockReference
  2
DAEMM
 10
-12.37496517760575
 20
-780.0874614525219
 30
0.0
 41
2.992230660831618
 42
2.976849063668579
 43
2.992230660831618
  0
INSERT
  5
3D6B
330
18
100
AcDbEntity
  8
INSULATION
  6
AUSGEZOGEN
 62
     6
 48
10.0
100
AcDbBlockReference
  2
DAEMM
 10
-0.4060425342792833
 20
-780.0874614525219
 30
0.0
 41
2.992230660831618
 42
2.976849063668579
 43
2.992230660831618
  0
INSERT
  5
3D6C
330
18
100
AcDbEntity
  8
INSULATION
  6
AUSGEZOGEN
 62
     6
 48
10.0
100
AcDbBlockReference
  2
DAEMM
 10
11.56288010904718
 20
-780.0874614525219
 30
0.0
 41
2.992230660831618
 42
2.976849063668579
 43
2.992230660831618
  0
INSERT
  5
3D6D
330
18
100
AcDbEntity
  8
INSULATION
  6
AUSGEZOGEN
 62
     6
 48
10.0
100
AcDbBlockReference
  2
DAEMM
 10
23.53180275237366
 20
-780.0874614525219
 30
0.0
 41
2.992230660831618
 42
2.976849063668579
 43
2.992230660831618
  0
INSERT
  5
3D6E
330
18
100
AcDbEntity
  8
INSULATION
  6
AUSGEZOGEN
 62
     6
 48
10.0
100
AcDbBlockReference
  2
DAEMM
 10
35.50072539570013
 20
-780.0874614525219
 30
0.0
 41
2.992230660831618
 42
2.976849063668579
 43
2.992230660831618
  0
INSERT
  5
3D6F
330
18
100
AcDbEntity
  8
INSULATION
  6
AUSGEZOGEN
 62
     6
 48
10.0
100
AcDbBlockReference
  2
DAEMM
 10
47.4696480390266
 20
-780.0874614525219
 30
0.0
 41
2.992230660831618
 42
2.976849063668579
 43
2.992230660831618
  0
INSERT
  5
3D70
330
18
100
AcDbEntity
  8
INSULATION
  6
AUSGEZOGEN
 62
     6
 48
10.0
100
AcDbBlockReference
  2
DAEMM
 10
59.43857068235307
 20
-780.0874614525219
 30
0.0
 41
2.992230660831618
 42
2.976849063668579
 43
2.992230660831618
  0
INSERT
  5
3D71
330
18
100
AcDbEntity
  8
INSULATION
  6
AUSGEZOGEN
 62
     6
 48
10.0
100
AcDbBlockReference
  2
DAEMM
 10
71.40749332567954
 20
-780.0874614525219
 30
0.0
 41
2.992230660831618
 42
2.976849063668579
 43
2.992230660831618
  0
INSERT
  5
3D72
330
18
100
AcDbEntity
  8
INSULATION
  6
AUSGEZOGEN
 62
     6
 48
10.0
100
AcDbBlockReference
  2
DAEMM
 10
83.37641596900601
 20
-780.0874614525219
 30
0.0
 41
2.992230660831618
 42
2.976849063668579
 43
2.992230660831618
  0
INSERT
  5
3D73
330
18
100
AcDbEntity
  8
INSULATION
  6
AUSGEZOGEN
 62
     6
 48
10.0
100
AcDbBlockReference
  2
DAEMM
 10
95.34533861233247
 20
-780.0874614525219
 30
0.0
 41
2.992230660831618
 42
2.976849063668579
 43
2.992230660831618
  0
INSERT
  5
3D74
330
18
100
AcDbEntity
  8
INSULATION
  6
AUSGEZOGEN
 62
     6
 48
10.0
100
AcDbBlockReference
  2
DAEMM
 10
107.3142612556589
 20
-780.0874614525219
 30
0.0
 41
2.992230660831618
 42
2.976849063668579
 43
2.992230660831618
  0
INSERT
  5
3D75
330
18
100
AcDbEntity
  8
INSULATION
  6
AUSGEZOGEN
 62
     6
 48
10.0
100
AcDbBlockReference
  2
DAEMM
 10
119.2831838989854
 20
-780.0874614525219
 30
0.0
 41
2.992230660831618
 42
2.976849063668579
 43
2.992230660831618
  0
INSERT
  5
3D76
330
18
100
AcDbEntity
  8
INSULATION
  6
AUSGEZOGEN
 62
     6
 48
10.0
100
AcDbBlockReference
  2
DAEMM
 10
131.2521065423118
 20
-780.0874614525219
 30
0.0
 41
2.992230660831618
 42
2.976849063668579
 43
2.992230660831618
  0
INSERT
  5
3D77
330
18
100
AcDbEntity
  8
INSULATION
  6
AUSGEZOGEN
 62
     6
 48
10.0
100
AcDbBlockReference
  2
DAEMM
 10
143.2210291856383
 20
-780.0874614525219
 30
0.0
 41
2.992230660831618
 42
2.976849063668579
 43
2.992230660831618
  0
INSERT
  5
3D78
330
18
100
AcDbEntity
  8
INSULATION
  6
AUSGEZOGEN
 62
     6
 48
10.0
100
AcDbBlockReference
  2
DAEMM
 10
155.1899518289648
 20
-780.0874614525219
 30
0.0
 41
2.992230660831618
 42
2.976849063668579
 43
2.992230660831618
  0
INSERT
  5
3D79
330
18
100
AcDbEntity
  8
INSULATION
  6
AUSGEZOGEN
 62
     6
 48
10.0
100
AcDbBlockReference
  2
DAEMM
 10
167.1588744722912
 20
-780.0874614525219
 30
0.0
 41
2.992230660831618
 42
2.976849063668579
 43
2.992230660831618
  0
INSERT
  5
3D7A
330
18
100
AcDbEntity
  8
INSULATION
  6
AUSGEZOGEN
 62
     6
 48
10.0
100
AcDbBlockReference
  2
DAEMM
 10
179.1277971156177
 20
-780.0874614525219
 30
0.0
 41
2.992230660831618
 42
2.976849063668579
 43
2.992230660831618
  0
INSERT
  5
3D7B
330
18
100
AcDbEntity
  8
INSULATION
  6
AUSGEZOGEN
 62
     6
 48
10.0
100
AcDbBlockReference
  2
DAEMM
 10
191.0967197589442
 20
-780.0874614525219
 30
0.0
 41
2.992230660831618
 42
2.976849063668579
 43
2.992230660831618
  0
INSERT
  5
3D7C
330
18
100
AcDbEntity
  8
INSULATION
  6
AUSGEZOGEN
 62
     6
 48
10.0
100
AcDbBlockReference
  2
DAEMM
 10
203.0656424022707
 20
-780.0874614525219
 30
0.0
 41
2.992230660831618
 42
2.976849063668579
 43
2.992230660831618
  0
INSERT
  5
3D7D
330
18
100
AcDbEntity
  8
INSULATION
  6
AUSGEZOGEN
 62
     6
 48
10.0
100
AcDbBlockReference
  2
DAEMM
 10
215.0345650455971
 20
-780.0874614525219
 30
0.0
 41
2.992230660831618
 42
2.976849063668579
 43
2.992230660831618
  0
INSERT
  5
3D7E
330
18
100
AcDbEntity
  8
INSULATION
  6
AUSGEZOGEN
 62
     6
 48
10.0
100
AcDbBlockReference
  2
DAEMM
 10
227.0034876889236
 20
-780.0874614525219
 30
0.0
 41
2.992230660831618
 42
2.976849063668579
 43
2.992230660831618
  0
INSERT
  5
3D7F
330
18
100
AcDbEntity
  8
INSULATION
  6
AUSGEZOGEN
 62
     6
 48
10.0
100
AcDbBlockReference
  2
DAEMM
 10
238.97241033225
 20
-780.0874614525219
 30
0.0
 41
2.992230660831618
 42
2.976849063668579
 43
2.992230660831618
  0
INSERT
  5
3D80
330
18
100
AcDbEntity
  8
INSULATION
  6
AUSGEZOGEN
 62
     6
 48
10.0
100
AcDbBlockReference
  2
DAEMM
 10
250.9413329755765
 20
-780.0874614525219
 30
0.0
 41
2.992230660831618
 42
2.976849063668579
 43
2.992230660831618
  0
INSERT
  5
3D81
330
18
100
AcDbEntity
  8
INSULATION
  6
AUSGEZOGEN
 62
     6
 48
10.0
100
AcDbBlockReference
  2
DAEMM
 10
262.910255618903
 20
-780.0874614525219
 30
0.0
 41
2.992230660831618
 42
2.976849063668579
 43
2.992230660831618
  0
INSERT
  5
3D82
330
18
100
AcDbEntity
  8
INSULATION
  6
AUSGEZOGEN
 62
     6
 48
10.0
100
AcDbBlockReference
  2
DAEMM
 10
274.8791782622295
 20
-780.0874614525219
 30
0.0
 41
2.992230660831618
 42
2.976849063668579
 43
2.992230660831618
  0
INSERT
  5
3D83
330
18
100
AcDbEntity
  8
INSULATION
  6
AUSGEZOGEN
 62
     6
 48
10.0
100
AcDbBlockReference
  2
DAEMM
 10
286.848100905556
 20
-780.0874614525219
 30
0.0
 41
2.992230660831618
 42
2.976849063668579
 43
2.992230660831618
  0
INSERT
  5
3D84
330
18
100
AcDbEntity
  8
INSULATION
  6
AUSGEZOGEN
 62
     6
 48
10.0
100
AcDbBlockReference
  2
DAEMM
 10
298.8170235488825
 20
-780.0874614525219
 30
0.0
 41
2.992230660831618
 42
2.976849063668579
 43
2.992230660831618
  0
INSERT
  5
3D85
330
18
100
AcDbEntity
  8
INSULATION
  6
AUSGEZOGEN
 62
     6
 48
10.0
100
AcDbBlockReference
  2
DAEMM
 10
310.785946192209
 20
-780.0874614525219
 30
0.0
 41
2.992230660831618
 42
2.976849063668579
 43
2.992230660831618
  0
INSERT
  5
3D86
330
18
100
AcDbEntity
  8
INSULATION
  6
AUSGEZOGEN
 62
     6
 48
10.0
100
AcDbBlockReference
  2
DAEMM
 10
322.7548688355355
 20
-780.0874614525219
 30
0.0
 41
2.992230660831618
 42
2.976849063668579
 43
2.992230660831618
  0
INSERT
  5
3D87
330
18
100
AcDbEntity
  8
INSULATION
  6
AUSGEZOGEN
 62
     6
 48
10.0
100
AcDbBlockReference
  2
DAEMM
 10
334.723791478862
 20
-780.0874614525219
 30
0.0
 41
2.992230660831618
 42
2.976849063668579
 43
2.992230660831618
  0
INSERT
  5
3D88
330
18
100
AcDbEntity
  8
INSULATION
  6
AUSGEZOGEN
 62
     6
 48
10.0
100
AcDbBlockReference
  2
DAEMM
 10
346.6927141221885
 20
-780.0874614525219
 30
0.0
 41
2.992230660831618
 42
2.976849063668579
 43
2.992230660831618
  0
INSERT
  5
3D89
330
18
100
AcDbEntity
  8
INSULATION
  6
AUSGEZOGEN
 62
     6
 48
10.0
100
AcDbBlockReference
  2
DAEMM
 10
358.661636765515
 20
-780.0874614525219
 30
0.0
 41
2.992230660831618
 42
2.976849063668579
 43
2.992230660831618
  0
INSERT
  5
3D8A
330
18
100
AcDbEntity
  8
INSULATION
  6
AUSGEZOGEN
 62
     6
 48
10.0
100
AcDbBlockReference
  2
DAEMM
 10
370.6305594088415
 20
-780.0874614525219
 30
0.0
 41
2.992230660831618
 42
2.976849063668579
 43
2.992230660831618
  0
INSERT
  5
3D8B
330
18
100
AcDbEntity
  8
INSULATION
  6
AUSGEZOGEN
 62
     6
 48
10.0
100
AcDbBlockReference
  2
DAEMM
 10
382.599482052168
 20
-780.0874614525219
 30
0.0
 41
2.992230660831618
 42
2.976849063668579
 43
2.992230660831618
  0
INSERT
  5
3D8C
330
18
100
AcDbEntity
  8
INSULATION
  6
AUSGEZOGEN
 62
     6
 48
10.0
100
AcDbBlockReference
  2
DAEMM
 10
394.5684046954945
 20
-780.0874614525219
 30
0.0
 41
2.992230660831618
 42
2.976849063668579
 43
2.992230660831618
  0
INSERT
  5
3D8D
330
18
100
AcDbEntity
  8
INSULATION
  6
AUSGEZOGEN
 62
     6
 48
10.0
100
AcDbBlockReference
  2
DAEMM
 10
406.5373273388209
 20
-780.0874614525219
 30
0.0
 41
2.992230660831618
 42
2.976849063668579
 43
2.992230660831618
  0
INSERT
  5
3D8E
330
18
100
AcDbEntity
  8
INSULATION
  6
AUSGEZOGEN
 62
     6
 48
10.0
100
AcDbBlockReference
  2
DAEMM
 10
418.5062499821474
 20
-780.0874614525219
 30
0.0
 41
2.992230660831618
 42
2.976849063668579
 43
2.992230660831618
  0
INSERT
  5
3D8F
330
18
100
AcDbEntity
  8
INSULATION
  6
AUSGEZOGEN
 62
     6
 48
10.0
100
AcDbBlockReference
  2
DAEMM
 10
430.4751726254739
 20
-780.0874614525219
 30
0.0
 41
2.992230660831618
 42
2.976849063668579
 43
2.992230660831618
  0
INSERT
  5
3D90
330
18
100
AcDbEntity
  8
INSULATION
  6
AUSGEZOGEN
 62
     6
 48
10.0
100
AcDbBlockReference
  2
DAEMM
 10
442.4440952688004
 20
-780.0874614525219
 30
0.0
 41
2.992230660831618
 42
2.976849063668579
 43
2.992230660831618
  0
INSERT
  5
3D91
330
18
100
AcDbEntity
  8
INSULATION
  6
AUSGEZOGEN
 62
     6
 48
10.0
100
AcDbBlockReference
  2
DAEMM
 10
454.4130179121268
 20
-780.0874614525219
 30
0.0
 41
2.992230660831618
 42
2.976849063668579
 43
2.992230660831618
  0
INSERT
  5
3D92
330
18
100
AcDbEntity
  8
INSULATION
  6
AUSGEZOGEN
 62
     6
 48
10.0
100
AcDbBlockReference
  2
DAEMM
 10
466.3819405554534
 20
-780.0874614525219
 30
0.0
 41
2.992230660831618
 42
2.976849063668579
 43
2.992230660831618
  0
INSERT
  5
3D93
330
18
100
AcDbEntity
  8
INSULATION
  6
AUSGEZOGEN
 62
     6
 48
10.0
100
AcDbBlockReference
  2
DAEMM
 10
478.3508631987799
 20
-780.0874614525219
 30
0.0
 41
2.992230660831618
 42
2.976849063668579
 43
2.992230660831618
  0
INSERT
  5
3D94
330
18
100
AcDbEntity
  8
INSULATION
  6
AUSGEZOGEN
 62
     6
 48
10.0
100
AcDbBlockReference
  2
DAEMM
 10
490.3197858421064
 20
-780.0874614525219
 30
0.0
 41
2.992230660831618
 42
2.976849063668579
 43
2.992230660831618
  0
INSERT
  5
3D95
330
18
100
AcDbEntity
  8
INSULATION
  6
AUSGEZOGEN
 62
     6
 48
10.0
100
AcDbBlockReference
  2
DAEMM
 10
502.2887084854328
 20
-780.0874614525219
 30
0.0
 41
2.992230660831618
 42
2.976849063668579
 43
2.992230660831618
  0
INSERT
  5
3D9B
330
18
100
AcDbEntity
  8
INSULATION
  6
AUSGEZOGEN
 62
     6
 48
10.0
100
AcDbBlockReference
  2
DAEMM
 10
-1021.452670111363
 20
-741.8136837554575
 30
0.0
 41
13.70663284600273
 42
13.60845479272111
 43
13.70663284600273
  0
INSERT
  5
3D9C
330
18
100
AcDbEntity
  8
INSULATION
  6
AUSGEZOGEN
 62
     6
 48
10.0
100
AcDbBlockReference
  2
DAEMM
 10
-966.626138727352
 20
-741.8136837554575
 30
0.0
 41
13.70663284600273
 42
13.60845479272111
 43
13.70663284600273
  0
INSERT
  5
3D9E
330
18
100
AcDbEntity
  8
INSULATION
  6
AUSGEZOGEN
 62
     6
 48
10.0
100
AcDbBlockReference
  2
DAEMM
 10
-856.9730759593303
 20
-741.8136837554575
 30
0.0
 41
13.70663284600273
 42
13.60845479272111
 43
13.70663284600273
  0
INSERT
  5
3D9F
330
18
100
AcDbEntity
  8
INSULATION
  6
AUSGEZOGEN
 62
     6
 48
10.0
100
AcDbBlockReference
  2
DAEMM
 10
-802.1465445753195
 20
-741.8136837554575
 30
0.0
 41
13.70663284600273
 42
13.60845479272111
 43
13.70663284600273
  0
INSERT
  5
3DA0
330
18
100
AcDbEntity
  8
INSULATION
  6
AUSGEZOGEN
 62
     6
 48
10.0
100
AcDbBlockReference
  2
DAEMM
 10
-747.3200131913086
 20
-741.8136837554575
 30
0.0
 41
13.70663284600273
 42
13.60845479272111
 43
13.70663284600273
  0
INSERT
  5
3DA1
330
18
100
AcDbEntity
  8
INSULATION
  6
AUSGEZOGEN
 62
     6
 48
10.0
100
AcDbBlockReference
  2
DAEMM
 10
-692.4934818072976
 20
-741.8136837554575
 30
0.0
 41
13.70663284600273
 42
13.60845479272111
 43
13.70663284600273
  0
INSERT
  5
3DA2
330
18
100
AcDbEntity
  8
INSULATION
  6
VERDECKT
 48
2.0
100
AcDbBlockReference
  2
DAEMM
 10
-637.6669504232868
 20
-741.8136837554575
 30
0.0
 41
13.70663284600273
 42
13.60845479272111
 43
13.70663284600273
  0
INSERT
  5
3DA4
330
18
100
AcDbEntity
  8
INSULATION
  6
AUSGEZOGEN
 62
     6
 48
10.0
100
AcDbBlockReference
  2
DAEMM
 10
-528.013887655265
 20
-741.8136837554575
 30
0.0
 41
13.70663284600273
 42
13.60845479272111
 43
13.70663284600273
  0
INSERT
  5
3DA5
330
18
100
AcDbEntity
  8
INSULATION
  6
AUSGEZOGEN
 62
     6
 48
10.0
100
AcDbBlockReference
  2
DAEMM
 10
-473.1873562712541
 20
-741.8136837554575
 30
0.0
 41
13.70663284600273
 42
13.60845479272111
 43
13.70663284600273
  0
INSERT
  5
3DA6
330
18
100
AcDbEntity
  8
INSULATION
  6
AUSGEZOGEN
 62
     6
 48
10.0
100
AcDbBlockReference
  2
DAEMM
 10
-418.3608248872432
 20
-741.8136837554575
 30
0.0
 41
13.70663284600273
 42
13.60845479272111
 43
13.70663284600273
  0
INSERT
  5
3DA7
330
18
100
AcDbEntity
  8
INSULATION
  6
AUSGEZOGEN
 62
     6
 48
10.0
100
AcDbBlockReference
  2
DAEMM
 10
-363.5342935032323
 20
-741.8136837554575
 30
0.0
 41
13.70663284600273
 42
13.60845479272111
 43
13.70663284600273
  0
INSERT
  5
3DA9
330
18
100
AcDbEntity
  8
INSULATION
  6
AUSGEZOGEN
 62
     6
 48
10.0
100
AcDbBlockReference
  2
DAEMM
 10
-253.8812307352104
 20
-741.8136837554575
 30
0.0
 41
13.70663284600273
 42
13.60845479272111
 43
13.70663284600273
  0
INSERT
  5
3DAA
330
18
100
AcDbEntity
  8
INSULATION
  6
AUSGEZOGEN
 62
     6
 48
10.0
100
AcDbBlockReference
  2
DAEMM
 10
-199.0546993511994
 20
-741.8136837554575
 30
0.0
 41
13.70663284600273
 42
13.60845479272111
 43
13.70663284600273
  0
INSERT
  5
3DAB
330
18
100
AcDbEntity
  8
INSULATION
  6
AUSGEZOGEN
 62
     6
 48
10.0
100
AcDbBlockReference
  2
DAEMM
 10
-144.2281679671885
 20
-741.8136837554575
 30
0.0
 41
13.70663284600273
 42
13.60845479272111
 43
13.70663284600273
  0
INSERT
  5
3DAC
330
18
100
AcDbEntity
  8
INSULATION
  6
AUSGEZOGEN
 62
     6
 48
10.0
100
AcDbBlockReference
  2
DAEMM
 10
-89.40163658317763
 20
-741.8136837554575
 30
0.0
 41
13.70663284600273
 42
13.60845479272111
 43
13.70663284600273
  0
INSERT
  5
3DAD
330
18
100
AcDbEntity
  8
INSULATION
  6
AUSGEZOGEN
 62
     6
 48
10.0
100
AcDbBlockReference
  2
DAEMM
 10
-34.5751051991667
 20
-741.8136837554575
 30
0.0
 41
13.70663284600273
 42
13.60845479272111
 43
13.70663284600273
  0
INSERT
  5
3DAF
330
18
100
AcDbEntity
  8
INSULATION
  6
AUSGEZOGEN
 62
     6
 48
10.0
100
AcDbBlockReference
  2
DAEMM
 10
75.07795756885514
 20
-741.8136837554575
 30
0.0
 41
13.70663284600273
 42
13.60845479272111
 43
13.70663284600273
  0
INSERT
  5
3DB0
330
18
100
AcDbEntity
  8
INSULATION
  6
AUSGEZOGEN
 62
     6
 48
10.0
100
AcDbBlockReference
  2
DAEMM
 10
129.9044889528661
 20
-741.8136837554575
 30
0.0
 41
13.70663284600273
 42
13.60845479272111
 43
13.70663284600273
  0
INSERT
  5
3DB1
330
18
100
AcDbEntity
  8
INSULATION
  6
AUSGEZOGEN
 62
     6
 48
10.0
100
AcDbBlockReference
  2
DAEMM
 10
184.731020336877
 20
-741.8136837554575
 30
0.0
 41
13.70663284600273
 42
13.60845479272111
 43
13.70663284600273
  0
INSERT
  5
3DB2
330
18
100
AcDbEntity
  8
INSULATION
  6
AUSGEZOGEN
 62
     6
 48
10.0
100
AcDbBlockReference
  2
DAEMM
 10
239.5575517208879
 20
-741.8136837554575
 30
0.0
 41
13.70663284600273
 42
13.60845479272111
 43
13.70663284600273
  0
INSERT
  5
3DB4
330
18
100
AcDbEntity
  8
INSULATION
  6
AUSGEZOGEN
 62
     6
 48
10.0
100
AcDbBlockReference
  2
DAEMM
 10
349.2106144889098
 20
-741.8136837554575
 30
0.0
 41
13.70663284600273
 42
13.60845479272111
 43
13.70663284600273
  0
INSERT
  5
3DB5
330
18
100
AcDbEntity
  8
INSULATION
  6
AUSGEZOGEN
 62
     6
 48
10.0
100
AcDbBlockReference
  2
DAEMM
 10
404.0371458729207
 20
-741.8136837554575
 30
0.0
 41
13.70663284600273
 42
13.60845479272111
 43
13.70663284600273
  0
INSERT
  5
3DB6
330
18
100
AcDbEntity
  8
INSULATION
  6
AUSGEZOGEN
 62
     6
 48
10.0
100
AcDbBlockReference
  2
DAEMM
 10
458.8636772569317
 20
-741.8136837554575
 30
0.0
 41
13.70663284600273
 42
13.60845479272111
 43
13.70663284600273
  0
INSERT
  5
3DB8
330
18
100
AcDbEntity
  8
V35
  6
AUSGEZOGEN
 62
     6
 48
10.0
100
AcDbBlockReference
  2
e140
 10
-574.322666615309
 20
-741.4553322170588
 30
0.0
  0
INSERT
  5
3DB9
330
18
100
AcDbEntity
  8
V35
  6
AUSGEZOGEN
 62
     6
 48
10.0
100
AcDbBlockReference
  2
e140
 10
-269.3226666153091
 20
-741.4553322170588
 30
0.0
  0
INSERT
  5
3DBA
330
18
100
AcDbEntity
  8
V35
  6
AUSGEZOGEN
 62
     6
 48
10.0
100
AcDbBlockReference
  2
e140
 10
35.67733338469088
 20
-741.4553322170588
 30
0.0
  0
INSERT
  5
3DBB
330
18
100
AcDbEntity
  8
V35
  6
AUSGEZOGEN
 62
     6
 48
10.0
100
AcDbBlockReference
  2
e140
 10
340.6773333846909
 20
-741.4553322170588
 30
0.0
  0
ELLIPSE
  5
3DBC
330
18
100
AcDbEntity
  8
INSULATION
100
AcDbEllipse
 10
-1041.702312503681
 20
-774.1337633251846
 30
0.0
 11
-5.984461321663346
 21
0.0000000000090097
 31
0.0
210
0.0
220
0.0
230
1.0
 40
0.9948594881523021
 41
1.98266973704016
 42
3.504561302196952
  0
LINE
  5
3DBD
330
18
100
AcDbEntity
  8
INSULATION
100
AcDbLine
 10
-1036.107757252299
 20
-772.0198966982362
 30
0.0
 11
-1039.306572426419
 21
-763.6407339663392
 31
0.0
  0
ELLIPSE
  5
3DBE
330
18
100
AcDbEntity
  8
INSULATION
100
AcDbEllipse
 10
-1035.717851182018
 20
-756.2726689431733
 30
0.0
 11
5.984461321663329
 21
0.0000000000000854
 31
0.0
210
0.0
220
0.0
230
1.0
 40
0.9948594881522861
 41
-0.3629686486056682
 42
2.213889034334818
  0
LINE
  5
3DBF
330
18
100
AcDbEntity
  8
INSULATION
100
AcDbLine
 10
-1030.123295930636
 20
-758.3865355701217
 30
0.0
 11
-1035.327945111736
 21
-772.0198966982362
 31
0.0
  0
ELLIPSE
  5
3DC0
330
18
100
AcDbEntity
  8
INSULATION
100
AcDbEllipse
 10
-1029.733389860354
 20
-774.1337633251846
 30
0.0
 11
5.984461321663347
 21
0.0000000000090004
 31
0.0
210
0.0
220
0.0
230
1.0
 40
0.9948594881523021
 41
2.778624004982635
 42
4.712388980383193
  0
ELLIPSE
  5
3DC3
330
18
100
AcDbEntity
  8
INSULATION
100
AcDbEllipse
 10
-1048.865935803368
 20
-632.9460454136892
 30
0.0
 11
27.41326569200581
 21
0.0000000000224078
 31
0.0
210
0.0
220
0.0
230
1.0
 40
0.9928371866099649
 41
-0.3629686486064638
 42
1.214598721734946
  0
LINE
  5
3DC4
330
18
100
AcDbEntity
  8
INSULATION
100
AcDbLine
 10
-1023.23872872634
 20
-642.6094370789749
 30
0.0
 11
-1039.306572426419
 21
-684.6129259405654
 31
0.0
  0
ELLIPSE
  5
3DC5
330
18
100
AcDbEntity
  8
INSULATION
100
AcDbEllipse
 10
-1021.452670111363
 20
-714.5967741700149
 30
0.0
 11
-27.41326569200579
 21
0.0000000000095826
 31
0.0
210
0.0
220
0.0
230
1.0
 40
0.9928371866099698
 41
0.8615171536479335
 42
1.570796326795243
  0
ELLIPSE
  5
3DE1
330
18
100
AcDbEntity
  8
INSULATION
  6
VERDECKT
 48
2.0
100
AcDbEllipse
 10
-911.7996073433413
 20
-714.5967741700149
 30
0.0
 11
27.41326569200595
 21
0.0000000000021869
 31
0.0
210
0.0
220
0.0
230
1.0
 40
0.9928371866099642
 41
4.712388980384614
 42
6.646153955785148
  0
LINE
  5
3DE2
330
18
100
AcDbEntity
  8
INSULATION
  6
VERDECKT
 48
2.0
100
AcDbLine
 10
-886.1724002663125
 20
-704.9333825047291
 30
0.0
 11
-894.3602105737481
 21
-683.5293530986253
 31
0.0
  0
ELLIPSE
  5
3DE3
330
18
100
AcDbEntity
  8
INSULATION
100
AcDbEllipse
 10
-884.3863416513357
 20
-632.9460454136892
 30
0.0
 11
-27.41326569200579
 21
0.0000000000002147
 31
0.0
210
0.0
220
0.0
230
1.0
 40
0.9928371866099654
 41
2.77862400498416
 42
6.646153955785234
  0
LINE
  5
3DE4
330
18
100
AcDbEntity
  8
INSULATION
  6
VERDECKT
 48
2.0
100
AcDbLine
 10
-858.7591345743071
 20
-642.6094370789749
 30
0.0
 11
-882.6002830363588
 21
-704.9333825047291
 31
0.0
  0
ELLIPSE
  5
3DE5
330
18
100
AcDbEntity
  8
INSULATION
  6
VERDECKT
 48
2.0
100
AcDbEllipse
 10
-856.9730759593301
 20
-714.5967741700149
 30
0.0
 11
-27.41326569200583
 21
0.0000000000006712
 31
0.0
210
0.0
220
0.0
230
1.0
 40
0.9928371866099682
 41
-0.3629686486056187
 42
1.57079632679492
  0
ELLIPSE
  5
3DE6
330
18
100
AcDbEntity
  8
INSULATION
  6
VERDECKT
 48
2.0
100
AcDbEllipse
 10
-582.8404190392761
 20
-714.5967741700149
 30
0.0
 11
27.41326569200595
 21
0.0000000000021869
 31
0.0
210
0.0
220
0.0
230
1.0
 40
0.9928371866099642
 41
4.712388980384614
 42
6.646153955785148
  0
LINE
  5
3DE7
330
18
100
AcDbEntity
  8
INSULATION
  6
VERDECKT
 48
2.0
100
AcDbLine
 10
-557.2132119622473
 20
-704.9333825047291
 30
0.0
 11
-581.0543604242991
 21
-642.6094370789749
 31
0.0
  0
ELLIPSE
  5
3DE8
330
18
100
AcDbEntity
  8
INSULATION
100
AcDbEllipse
 10
-555.4271533472705
 20
-632.9460454136892
 30
0.0
 11
-27.41326569200579
 21
0.0000000000002147
 31
0.0
210
0.0
220
0.0
230
1.0
 40
0.9928371866099654
 41
2.77862400498416
 42
6.646153955785234
  0
LINE
  5
3DE9
330
18
100
AcDbEntity
  8
INSULATION
100
AcDbLine
 10
-529.7999462702419
 20
-642.6094370789749
 30
0.0
 11
-553.6410947322935
 21
-704.9333825047291
 31
0.0
  0
ELLIPSE
  5
3DEA
330
18
100
AcDbEntity
  8
INSULATION
100
AcDbEllipse
 10
-528.013887655265
 20
-714.5967741700149
 30
0.0
 11
-27.41326569200583
 21
0.0000000000006712
 31
0.0
210
0.0
220
0.0
230
1.0
 40
0.9928371866099682
 41
-0.3629686486056187
 42
1.57079632679492
  0
ELLIPSE
  5
3DEB
330
18
100
AcDbEntity
  8
INSULATION
  6
VERDECKT
 48
2.0
100
AcDbEllipse
 10
-308.7077621192215
 20
-714.5967741700149
 30
0.0
 11
27.41326569200595
 21
0.0000000000021869
 31
0.0
210
0.0
220
0.0
230
1.0
 40
0.9928371866099642
 41
4.712388980384614
 42
6.646153955785148
  0
LINE
  5
3DEC
330
18
100
AcDbEntity
  8
INSULATION
100
AcDbLine
 10
-283.0805550421927
 20
-704.9333825047291
 30
0.0
 11
-306.9217035042445
 21
-642.6094370789749
 31
0.0
  0
ELLIPSE
  5
3DED
330
18
100
AcDbEntity
  8
INSULATION
100
AcDbEllipse
 10
-281.2944964272159
 20
-632.9460454136892
 30
0.0
 11
-27.41326569200578
 21
0.0000000000054678
 31
0.0
210
0.0
220
0.0
230
1.0
 40
0.9928371866099661
 41
2.778624004984353
 42
6.646153955785427
  0
LINE
  5
3DEE
330
18
100
AcDbEntity
  8
INSULATION
  6
VERDECKT
 48
2.0
100
AcDbLine
 10
-255.6672893501873
 20
-642.6094370789749
 30
0.0
 11
-279.508437812239
 21
-704.9333825047291
 31
0.0
  0
ELLIPSE
  5
3DEF
330
18
100
AcDbEntity
  8
INSULATION
  6
VERDECKT
 48
2.0
100
AcDbEllipse
 10
-253.8812307352103
 20
-714.5967741700149
 30
0.0
 11
-27.41326569200593
 21
0.0000000000040313
 31
0.0
210
0.0
220
0.0
230
1.0
 40
0.9928371866099647
 41
-0.3629686486054953
 42
1.570796326795037
  0
ELLIPSE
  5
3DF0
330
18
100
AcDbEntity
  8
INSULATION
  6
VERDECKT
 48
2.0
100
AcDbEllipse
 10
20.25142618484411
 20
-714.5967741700149
 30
0.0
 11
-27.41326569200593
 21
0.000000000001006
 31
0.0
210
0.0
220
0.0
230
1.0
 40
0.9928371866099645
 41
1.570796326794936
 42
3.504561302195472
  0
LINE
  5
3DF1
330
18
100
AcDbEntity
  8
INSULATION
  6
VERDECKT
 48
2.0
100
AcDbLine
 10
45.87863326187282
 20
-704.9333825047291
 30
0.0
 11
22.03748479982108
 21
-642.6094370789749
 31
0.0
  0
ELLIPSE
  5
3DF2
330
18
100
AcDbEntity
  8
INSULATION
100
AcDbEllipse
 10
47.66469187684968
 20
-632.9460454136892
 30
0.0
 11
27.41326569200578
 21
0.0000000000009634
 31
0.0
210
0.0
220
0.0
230
1.0
 40
0.9928371866099661
 41
-0.362968648605676
 42
3.504561302195398
  0
LINE
  5
3DF3
330
18
100
AcDbEntity
  8
INSULATION
100
AcDbLine
 10
73.29189895387829
 20
-642.6094370789749
 30
0.0
 11
49.45075049182654
 21
-704.9333825047291
 31
0.0
  0
ELLIPSE
  5
3DF4
330
18
100
AcDbEntity
  8
INSULATION
  6
VERDECKT
 48
2.0
100
AcDbEllipse
 10
75.07795756885525
 20
-714.5967741700149
 30
0.0
 11
-27.4132656920059
 21
0.0000000000049139
 31
0.0
210
0.0
220
0.0
230
1.0
 40
0.9928371866099659
 41
-0.3629686486054626
 42
1.570796326795071
  0
ELLIPSE
  5
3DF5
330
18
100
AcDbEntity
  8
INSULATION
100
AcDbEllipse
 10
294.3840831048987
 20
-714.5967741700149
 30
0.0
 11
27.41326569200595
 21
0.0000000000021869
 31
0.0
210
0.0
220
0.0
230
1.0
 40
0.9928371866099642
 41
4.712388980384614
 42
6.646153955785148
  0
LINE
  5
3DF6
330
18
100
AcDbEntity
  8
INSULATION
100
AcDbLine
 10
320.0112901819275
 20
-704.9333825047291
 30
0.0
 11
296.1701417198757
 21
-642.6094370789749
 31
0.0
  0
ELLIPSE
  5
3DF7
330
18
100
AcDbEntity
  8
INSULATION
100
AcDbEllipse
 10
321.7973487969043
 20
-632.9460454136892
 30
0.0
 11
-27.41326569200578
 21
0.0000000000054678
 31
0.0
210
0.0
220
0.0
230
1.0
 40
0.9928371866099661
 41
2.778624004984353
 42
6.646153955785427
  0
LINE
  5
3DF8
330
18
100
AcDbEntity
  8
INSULATION
  6
VERDECKT
 48
2.0
100
AcDbLine
 10
347.424555873933
 20
-642.6094370789749
 30
0.0
 11
323.5834074118812
 21
-704.9333825047291
 31
0.0
  0
ELLIPSE
  5
3DF9
330
18
100
AcDbEntity
  8
INSULATION
  6
VERDECKT
 48
2.0
100
AcDbEllipse
 10
349.2106144889099
 20
-714.5967741700149
 30
0.0
 11
-27.41326569200593
 21
0.0000000000040313
 31
0.0
210
0.0
220
0.0
230
1.0
 40
0.9928371866099647
 41
-0.3629686486054953
 42
1.570796326795037
  0
LINE
  5
3DFA
330
18
100
AcDbEntity
  8
INSULATION
100
AcDbLine
 10
-895.4838773406919
 20
-680.5919381342746
 30
0.0
 11
-910.0135487283644
 21
-642.6094370789749
 31
0.0
  0
LINE
  5
3E0A
330
18
100
AcDbEntity
  8
0
 62
     6
100
AcDbLine
 10
340.4971533023599
 20
558.7127335967238
 30
0.0
 11
329.0930071074449
 21
689.06272107294
 31
0.0
  0
LINE
  5
3E0B
330
18
100
AcDbEntity
  8
0
 62
     6
100
AcDbLine
 10
343.4857373966351
 20
558.9742008249668
 30
0.0
 11
332.0815912017201
 21
689.3241883011829
 31
0.0
  0
LINE
  5
3E0C
330
18
100
AcDbEntity
  8
0
 62
     6
100
AcDbLine
 10
319.5770646424332
 20
556.8824629990229
 30
0.0
 11
308.1729184475182
 21
687.2324504752391
 31
0.0
  0
LINE
  5
3E0D
330
18
100
AcDbEntity
  8
0
 62
     6
100
AcDbLine
 10
322.5656487367085
 20
557.143930227266
 30
0.0
 11
311.1615025417934
 21
687.493917703482
 31
0.0
  0
LINE
  5
3E0E
330
18
100
AcDbEntity
  8
0
 62
     3
100
AcDbLine
 10
292.6423262660886
 20
543.4839605230794
 30
0.0
 11
280.2794669009493
 21
684.7920896783048
 31
0.0
  0
LINE
  5
3E0F
330
18
100
AcDbEntity
  8
0
 62
     3
100
AcDbLine
 10
372.3379021134282
 20
550.4564199428919
 30
0.0
 11
359.975042748289
 21
691.7645490981174
 31
0.0
  0
LINE
  5
3E10
330
18
100
AcDbEntity
  8
0
 62
     4
100
AcDbLine
 10
360.247804033693
 20
568.1728446155272
 30
0.0
 11
364.27944152603
 21
522.0910172123416
 31
0.0
  0
LINE
  5
3E11
330
18
100
AcDbEntity
  8
0
 62
     4
100
AcDbLine
 10
301.47231684628
 20
563.0306557934154
 30
0.0
 11
305.503954338617
 21
516.9488283902297
 31
0.0
  0
LINE
  5
3E12
330
18
100
AcDbEntity
  8
0
 62
     3
100
AcDbLine
 10
292.6423262660886
 20
543.4839605230794
 30
0.0
 11
372.3379021134282
 21
550.4564199428919
 31
0.0
  0
LINE
  5
3E13
330
18
100
AcDbEntity
  8
0
 62
     3
100
AcDbLine
 10
291.6836130958643
 20
554.4421022020885
 30
0.0
 11
371.379188943204
 21
561.4145616219012
 31
0.0
  0
LINE
  5
3E14
330
18
100
AcDbEntity
  8
0
 62
     6
100
AcDbLine
 10
320.9968453672506
 20
575.0754347929174
 30
0.0
 11
338.9283499329021
 21
576.6442381623752
 31
0.0
  0
LINE
  5
3E15
330
18
100
AcDbEntity
  8
0
 62
     6
100
AcDbLine
 10
290.1148097264065
 20
572.37360676774
 30
0.0
 11
318.0082612729754
 21
574.8139675646744
 31
0.0
  0
LINE
  5
3E16
330
18
100
AcDbEntity
  8
0
 62
     6
100
AcDbLine
 10
341.9169340271773
 20
576.9057053906181
 30
0.0
 11
369.8103855737461
 21
579.3460661875526
 31
0.0
  0
LINE
  5
3E17
330
18
100
AcDbEntity
  8
0
  6
VERDECKT
 62
     6
 48
3.0
100
AcDbLine
 10
279.9175878249305
 20
688.9283864444746
 30
0.0
 11
359.6131636722701
 21
695.9008458642877
 31
0.0
  0
LINE
  5
3E18
330
18
100
AcDbEntity
  8
0
  6
VERDECKT
 62
     6
 48
3.0
100
AcDbLine
 10
276.0827351440336
 20
732.7609531605109
 30
0.0
 11
355.7783109913732
 21
739.7334125803236
 31
0.0
  0
LINE
  5
3E19
330
18
100
AcDbEntity
  8
0
  6
VERDECKT
 62
     6
 48
3.0
100
AcDbLine
 10
275.1240219738094
 20
743.7190948395202
 30
0.0
 11
354.8195978211491
 21
750.6915542593328
 31
0.0
  0
LINE
  5
3E1A
330
18
100
AcDbEntity
  8
0
  6
VERDECKT
 62
     6
 48
3.0
100
AcDbLine
 10
280.2794669009493
 20
684.7920896783048
 30
0.0
 11
275.1240219738094
 21
743.7190948395202
 31
0.0
  0
LINE
  5
3E1B
330
18
100
AcDbEntity
  8
0
  6
VERDECKT
 62
     6
 48
3.0
100
AcDbLine
 10
308.1729184475182
 20
687.2324504752392
 30
0.0
 11
307.8110393714994
 21
691.3687472414091
 31
0.0
  0
LINE
  5
3E1C
330
18
100
AcDbEntity
  8
0
  6
VERDECKT
 62
     6
 48
3.0
100
AcDbLine
 10
311.1615025417934
 20
687.4939177034822
 30
0.0
 11
310.7996234657746
 21
691.630214469652
 31
0.0
  0
LINE
  5
3E1D
330
18
100
AcDbEntity
  8
0
  6
VERDECKT
 62
     6
 48
3.0
100
AcDbLine
 10
359.975042748289
 20
691.7645490981174
 30
0.0
 11
354.8195978211491
 21
750.6915542593328
 31
0.0
  0
LINE
  5
3E1E
330
18
100
AcDbEntity
  8
0
  6
VERDECKT
 62
     6
 48
3.0
100
AcDbLine
 10
332.0815912017201
 20
689.3241883011829
 30
0.0
 11
331.7197121257013
 21
693.4604850673529
 31
0.0
  0
LINE
  5
3E1F
330
18
100
AcDbEntity
  8
0
  6
VERDECKT
 62
     6
 48
3.0
100
AcDbLine
 10
329.0930071074449
 20
689.06272107294
 30
0.0
 11
328.7311280314261
 21
693.1990178391099
 31
0.0
  0
LINE
  5
3E20
330
18
100
AcDbEntity
  8
0
 62
     6
100
AcDbLine
 10
-822.3123494362557
 20
456.9800842668784
 30
0.0
 11
-833.7164956311706
 21
587.3300717430947
 31
0.0
  0
LINE
  5
3E21
330
18
100
AcDbEntity
  8
0
 62
     6
100
AcDbLine
 10
-819.3237653419805
 20
457.2415514951215
 30
0.0
 11
-830.7279115368954
 21
587.5915389713376
 31
0.0
  0
LINE
  5
3E22
330
18
100
AcDbEntity
  8
0
 62
     6
100
AcDbLine
 10
-843.2324380961823
 20
455.1498136691776
 30
0.0
 11
-854.6365842910974
 21
585.4998011453938
 31
0.0
  0
LINE
  5
3E23
330
18
100
AcDbEntity
  8
0
 62
     6
100
AcDbLine
 10
-840.2438540019071
 20
455.4112808974206
 30
0.0
 11
-851.6480001968222
 21
585.7612683736367
 31
0.0
  0
LINE
  5
3E24
330
18
100
AcDbEntity
  8
0
 62
     3
100
AcDbLine
 10
-870.167176472527
 20
441.7513111932341
 30
0.0
 11
-882.5300358376662
 21
583.0594403484594
 31
0.0
  0
LINE
  5
3E25
330
18
100
AcDbEntity
  8
0
 62
     3
100
AcDbLine
 10
-790.4716006251874
 20
448.7237706130466
 30
0.0
 11
-802.8344599903267
 21
590.031899768272
 31
0.0
  0
LINE
  5
3E26
330
18
100
AcDbEntity
  8
0
 62
     4
100
AcDbLine
 10
-802.5616987049225
 20
466.4401952856819
 30
0.0
 11
-798.5300612125855
 21
420.3583678824962
 31
0.0
  0
LINE
  5
3E27
330
18
100
AcDbEntity
  8
0
 62
     4
100
AcDbLine
 10
-861.3371858923356
 20
461.29800646357
 30
0.0
 11
-857.3055483999985
 21
415.2161790603845
 31
0.0
  0
LINE
  5
3E28
330
18
100
AcDbEntity
  8
0
 62
     3
100
AcDbLine
 10
-870.167176472527
 20
441.7513111932341
 30
0.0
 11
-790.4716006251874
 21
448.7237706130466
 31
0.0
  0
LINE
  5
3E29
330
18
100
AcDbEntity
  8
0
 62
     3
100
AcDbLine
 10
-871.1258896427512
 20
452.7094528722432
 30
0.0
 11
-791.4303137954115
 21
459.6819122920559
 31
0.0
  0
LINE
  5
3E2A
330
18
100
AcDbEntity
  8
0
 62
     6
100
AcDbLine
 10
-841.8126573713649
 20
473.3427854630721
 30
0.0
 11
-823.8811528057135
 21
474.9115888325299
 31
0.0
  0
LINE
  5
3E2B
330
18
100
AcDbEntity
  8
0
 62
     6
100
AcDbLine
 10
-872.6946930122091
 20
470.6409574378946
 30
0.0
 11
-844.8012414656401
 21
473.0813182348291
 31
0.0
  0
LINE
  5
3E2C
330
18
100
AcDbEntity
  8
0
 62
     6
100
AcDbLine
 10
-820.8925687114383
 20
475.1730560607728
 30
0.0
 11
-792.9991171648694
 21
477.6134168577073
 31
0.0
  0
LINE
  5
3E2D
330
18
100
AcDbEntity
  8
0
  6
VERDECKT
 62
     6
 48
3.0
100
AcDbLine
 10
-882.8919149136851
 20
587.1957371146293
 30
0.0
 11
-803.1963390663454
 21
594.1681965344423
 31
0.0
  0
LINE
  5
3E2E
330
18
100
AcDbEntity
  8
0
  6
VERDECKT
 62
     6
 48
3.0
100
AcDbLine
 10
-886.726767594582
 20
631.0283038306656
 30
0.0
 11
-807.0311917472423
 21
638.0007632504782
 31
0.0
  0
LINE
  5
3E2F
330
18
100
AcDbEntity
  8
0
  6
VERDECKT
 62
     6
 48
3.0
100
AcDbLine
 10
-887.6854807648062
 20
641.9864455096749
 30
0.0
 11
-807.9899049174665
 21
648.9589049294875
 31
0.0
  0
LINE
  5
3E30
330
18
100
AcDbEntity
  8
0
  6
VERDECKT
 62
     6
 48
3.0
100
AcDbLine
 10
-882.5300358376662
 20
583.0594403484594
 30
0.0
 11
-887.6854807648062
 21
641.9864455096749
 31
0.0
  0
LINE
  5
3E31
330
18
100
AcDbEntity
  8
0
  6
VERDECKT
 62
     6
 48
3.0
100
AcDbLine
 10
-854.6365842910974
 20
585.4998011453939
 30
0.0
 11
-854.9984633671162
 21
589.6360979115637
 31
0.0
  0
LINE
  5
3E32
330
18
100
AcDbEntity
  8
0
  6
VERDECKT
 62
     6
 48
3.0
100
AcDbLine
 10
-851.6480001968222
 20
585.7612683736369
 30
0.0
 11
-852.0098792728409
 21
589.8975651398067
 31
0.0
  0
LINE
  5
3E33
330
18
100
AcDbEntity
  8
0
  6
VERDECKT
 62
     6
 48
3.0
100
AcDbLine
 10
-802.8344599903267
 20
590.031899768272
 30
0.0
 11
-807.9899049174665
 21
648.9589049294875
 31
0.0
  0
LINE
  5
3E34
330
18
100
AcDbEntity
  8
0
  6
VERDECKT
 62
     6
 48
3.0
100
AcDbLine
 10
-830.7279115368954
 20
587.5915389713376
 30
0.0
 11
-831.0897906129142
 21
591.7278357375075
 31
0.0
  0
LINE
  5
3E35
330
18
100
AcDbEntity
  8
0
  6
VERDECKT
 62
     6
 48
3.0
100
AcDbLine
 10
-833.7164956311708
 20
587.3300717430947
 30
0.0
 11
-834.0783747071895
 21
591.4663685092646
 31
0.0
  0
TEXT
  5
3EE3
330
18
100
AcDbEntity
  8
TXT-D
 62
     7
100
AcDbText
 10
-354.0047831851093
 20
923.2090616304008
 30
0.0
 40
28.0
  1
Kalzip
  7
ROMANS
100
AcDbText
  0
TEXT
  5
3EE4
330
18
100
AcDbEntity
  8
TXT-D
 62
     0
100
AcDbText
 10
-356.4928754308714
 20
763.2036473845658
 30
0.0
 40
28.0
  1
parotěsná vrstva 
  7
ROMANS
100
AcDbText
  0
TEXT
  5
3EE5
330
18
100
AcDbEntity
  8
TXT-D
 62
     0
100
AcDbText
 10
-356.2582233542394
 20
819.663513330515
 30
0.0
 40
28.0
  1
tepelná izolace - minerální vlna
  7
ROMANS
100
AcDbText
  0
MTEXT
  5
3EE6
102
{ACAD_XDICTIONARY
360
3FE1
102
}
330
18
100
AcDbEntity
  8
TXT-D
100
AcDbMText
 10
-347.2444427334754
 20
1058.233369966117
 30
0.0
 40
28.0
 41
915.6684999999999
 71
     1
 72
     5
  1
{\C7;poplastovan\U+00E1 klipsa*\Palternativn\U+011B: hlin\U+00EDkov\U+00E1 klipsa s termopodlo\U+017Ekou}
  7
ROMANS
 73
     1
 44
1.0
  0
TEXT
  5
3EE7
330
18
100
AcDbEntity
  8
TXT-D
 62
     0
100
AcDbText
 10
-356.2582233542394
 20
871.4682352851912
 30
0.0
 40
28.0
  1
podkladní ocelový OMEGA profil
  7
ROMANS
100
AcDbText
  0
MTEXT
  5
3EF2
102
{ACAD_XDICTIONARY
360
3FE3
102
}
330
18
100
AcDbEntity
  8
TXT-D
100
AcDbMText
 10
-347.2444427334756
 20
-200.1346086211529
 30
0.0
 40
28.0
 41
915.6684999999999
 71
     1
 72
     5
  1
{\C7;poplastovan\U+00E1 klipsa*\Palternativn\U+011B: hlin\U+00EDkov\U+00E1 klipsa s termopodlo\U+017Ekou}
  7
ROMANS
 73
     1
 44
1.0
  0
TEXT
  5
3EF3
330
18
100
AcDbEntity
  8
TXT-D
 62
     0
100
AcDbText
 10
-356.2582233542396
 20
-330.3425307650289
 30
0.0
 40
28.0
  1
podkladní ocelový OMEGA profil
  7
ROMANS
100
AcDbText
  0
TEXT
  5
3EF4
330
18
100
AcDbEntity
  8
TXT-D
 62
     0
100
AcDbText
 10
-356.4928754308717
 20
-501.2977620125154
 30
0.0
 40
28.0
  1
parotěsná vrstva 
  7
ROMANS
100
AcDbText
  0
TEXT
  5
3EF5
330
18
100
AcDbEntity
  8
TXT-D
 62
     0
100
AcDbText
 10
-356.2582233542396
 20
-444.8378960665661
 30
0.0
 40
28.0
  1
tepelná izolace - minerální vlna
  7
ROMANS
100
AcDbText
  0
TEXT
  5
3EF6
330
18
100
AcDbEntity
  8
TXT-D
 62
     7
100
AcDbText
 10
-791.8646755083596
 20
-1107.747096773191
 30
0.0
 40
28.0
  1
vaznice
  7
ROMANS
100
AcDbText
  0
TEXT
  5
3EF7
330
18
100
AcDbEntity
  8
TXT-D
 62
     7
100
AcDbText
 10
-791.8646755083593
 20
-1164.304309310241
 30
0.0
 40
28.0
  1
vazník
  7
ROMANS
100
AcDbText
  0
TEXT
  5
3EF8
330
18
100
AcDbEntity
  8
TXT-D
 62
     7
100
AcDbText
 10
-884.9979574132161
 20
-1051.189884236141
 30
0.0
 40
28.0
  1
trapézový plech
  7
ROMANS
100
AcDbText
  0
VIEWPORT
  5
27F
330
15
100
AcDbEntity
 67
     1
  8
0
100
AcDbViewport
 10
258.8123064634627
 20
136.8148403694488
 30
0.0
 40
889.1382056763292
 41
345.3563841352846
 68
     1
 69
     1
 12
258.8123064634627
 22
136.8148403694488
 13
0.0
 23
0.0
 14
10.0
 24
10.0
 15
10.0
 25
10.0
 16
0.0
 26
0.0
 36
1.0
 17
0.0
 27
0.0
 37
0.0
 42
50.0
 43
0.0
 44
0.0
 45
345.3563841352846
 50
0.0
 51
0.0
 72
   100
 90
    32800
  1

281
     0
 71
     1
 74
     0
110
0.0
120
0.0
130
0.0
111
1.0
121
0.0
131
0.0
112
0.0
122
1.0
132
0.0
 79
     0
146
0.0
170
     0
  0
VIEWPORT
  5
8F2
330
15
100
AcDbEntity
 67
     1
  8
Mansfen
100
AcDbViewport
 10
99.78701697551121
 20
144.7422240100861
 30
0.0
 40
190.6716324303378
 41
248.0286715940809
 68
     2
 69
     2
 12
-332.6548796710687
 22
-38.04312579378893
 13
0.0
 23
0.0
 14
10.0
 24
10.0
 15
10.0
 25
10.0
 16
0.0
 26
0.0
 36
1.0
 17
0.0
 27
0.0
 37
0.0
 42
50.0
 43
0.0
 44
0.0
 45
2480.286726726474
 50
0.0
 51
0.0
 72
 20000
 90
    32768
  1

281
     0
 71
     1
 74
     0
110
0.0
120
0.0
130
0.0
111
1.0
121
0.0
131
0.0
112
0.0
122
1.0
132
0.0
 79
     0
146
0.0
170
     0
  0
LINE
  5
902
330
15
100
AcDbEntity
 67
     1
  8
V5
 62
     1
100
AcDbLine
 10
6.469724308131532
 20
20.72788821304567
 30
0.0
 11
195.12283319068
 21
20.72788821304566
 31
0.0
  0
LINE
  5
922
330
15
100
AcDbEntity
 67
     1
  8
V5
 62
     1
100
AcDbLine
 10
6.469724308131532
 20
268.7565598071266
 30
0.0
 11
195.1228331906801
 21
268.7565598071266
 31
0.0
  0
TEXT
  5
927
330
15
100
AcDbEntity
 67
     1
  8
0
 62
     7
100
AcDbText
 10
6.469724308131532
 20
278.3329563937706
 30
0.0
 40
2.872918975993215
  1
Detail skladby
  7
Stil1
100
AcDbText
  0
TEXT
  5
92B
330
15
100
AcDbEntity
 67
     1
  8
0
 62
     7
100
AcDbText
 10
178.0358338969154
 20
278.3329563937706
 30
0.0
 40
2.872918975993215
  1
střecha
  7
Stil1
100
AcDbText
  0
TEXT
  5
92C
330
15
100
AcDbEntity
 67
     1
  8
0
 62
     7
100
AcDbText
 10
184.6718029461385
 20
273.7178648600298
 30
0.0
 40
2.872918975993215
  1
102
  7
Stil1
100
AcDbText
  0
TEXT
  5
92D
330
15
100
AcDbEntity
 67
     1
  8
0
 62
     7
100
AcDbText
 10
108.9352639108836
 20
278.3329563937706
 30
0.0
 40
2.872918975993215
  1
01.02.04
  7
Stil1
100
AcDbText
  0
TEXT
  5
92E
330
15
100
AcDbEntity
 67
     1
  8
0
 62
     7
100
AcDbText
 10
108.9352639108836
 20
273.7178648600298
 30
0.0
 40
2.872918975993215
  1
M 1:10
  7
Stil1
100
AcDbText
  0
TEXT
  5
1C35
330
15
100
AcDbEntity
 67
     1
  8
0
 62
     7
100
AcDbText
 10
6.469724308131532
 20
273.7178648600298
 30
0.0
 40
2.872918975993215
  1
Skladba střechy - vaznicová střecha
  7
Stil1
100
AcDbText
  0
LWPOLYLINE
  5
1F24
330
15
100
AcDbEntity
 67
     1
  8
0
 62
     1
100
AcDbPolyline
 90
       13
 70
     0
 43
0.0
 10
159.800270527511
 20
9.681936927861048
 10
159.800270527511
 20
13.10916637931167
 10
158.7717139959943
 20
13.10916637931167
 10
158.7717139959943
 20
6.397601519139872
 10
159.800270527511
 20
6.397601519139872
 10
159.800270527511
 20
8.297275043807779
 10
160.6043103944736
 20
9.368527505018757
 10
162.5514591954673
 20
6.397601519139875
 10
163.68894251971
 20
6.397601519139868
 10
161.2367860939421
 20
10.21119859329614
 10
163.4118864717706
 20
13.10916637931167
 10
162.2624627404482
 20
13.10916637931166
 10
159.7889932951965
 20
9.666239671360923
  0
LWPOLYLINE
  5
1F25
330
15
100
AcDbEntity
 67
     1
  8
0
 62
     1
100
AcDbPolyline
 90
       12
 70
     1
 43
0.0
 10
156.6059009001253
 20
3.332852861880724
 42
-0.4142135623730951
 10
155.6309009001253
 20
4.307852861880723
 10
155.6309009001253
 20
14.74638103057962
 42
-0.2659775848638765
 10
156.1121980820292
 20
15.58714409316263
 42
-0.2516648824931137
 10
171.0717253714799
 20
16.15394049631373
 10
170.8716803322094
 20
15.74527561861652
 42
0.2516648824931138
 10
156.3425927304741
 20
15.19478799729055
 42
0.2659775848638775
 10
156.0859009001253
 20
14.74638103057962
 10
156.0859009001253
 20
4.307852861880723
 42
0.4142135623730951
 10
156.6059009001253
 20
3.787852861880722
 10
170.9709009001253
 20
3.787852861880722
 10
170.9709009001253
 20
3.332852861880724
  0
HATCH
  5
1F26
330
15
100
AcDbEntity
 67
     1
  8
0
 62
     1
100
AcDbHatch
 10
0.0
 20
0.0
 30
0.0
210
0.0
220
0.0
230
1.0
  2
SOLID
 70
     1
 71
     0
 91
        5
 92
        7
 72
     1
 73
     1
 93
       12
 10
156.1121980820292
 20
15.58714409316263
 42
0.2659775848638745
 10
155.6309009001253
 20
14.74638103057961
 42
0.0
 10
155.6309009001253
 20
4.307852861880718
 42
0.4142135623730935
 10
156.6059009001253
 20
3.332852861880724
 42
0.0
 10
170.9709009001253
 20
3.332852861880724
 42
0.0
 10
170.9709009001253
 20
3.787852861880722
 42
0.0
 10
156.6059009001253
 20
3.787852861880722
 42
-0.4142135623730977
 10
156.0859009001253
 20
4.307852861880728
 42
0.0
 10
156.0859009001253
 20
14.74638103057959
 42
-0.2659775848638737
 10
156.3425927304741
 20
15.19478799729053
 42
-0.2516648824931143
 10
170.8716803322094
 20
15.74527561861652
 42
0.0
 10
171.0717253714799
 20
16.15394049631373
 42
0.2516648824931142
 97
        0
 92
       23
 72
     0
 73
     1
 93
       12
 10
159.800270527511
 20
13.10916637931167
 10
158.7717139959943
 20
13.10916637931167
 10
158.7717139959943
 20
6.397601519139872
 10
159.800270527511
 20
6.397601519139872
 10
159.800270527511
 20
8.297275043807767
 10
160.6043103944736
 20
9.368527505018757
 10
162.5514591954673
 20
6.397601519139874
 10
163.6889425197101
 20
6.397601519139868
 10
161.2367860939421
 20
10.21119859329613
 10
163.4118864717706
 20
13.10916637931167
 10
162.2624627404482
 20
13.10916637931166
 10
159.800270527511
 20
9.681936927860977
 97
        0
 92
       23
 72
     1
 73
     1
 93
       18
 10
164.2357678011491
 20
10.9298119326245
 42
0.0
 10
164.6193868421995
 20
10.23129501474021
 42
-0.1250890829061343
 10
165.9421619880012
 20
10.58651032233054
 42
-0.267836782250909
 10
166.7427656016719
 20
10.17948987530909
 42
-0.1602289575786653
 10
166.8664398433066
 20
9.647233194325794
 42
-0.4569276421982639
 10
166.7650033977182
 20
9.567270835411239
 42
0.0541248642832679
 10
165.9458514784635
 20
9.56484797252334
 42
0.1876748474912564
 10
164.3130414001024
 20
8.743789479199088
 42
0.1827818212654466
 10
164.0212098541297
 20
7.552121447224819
 42
0.3920539506815952
 10
165.1837010925265
 20
6.400511511813203
 42
0.0
 10
165.9069601693343
 20
6.400511511813203
 42
0.1547524270167747
 10
166.860817039998
 20
6.705871362279764
 42
-0.4453775332542486
 10
167.1777324120071
 20
6.707902747891824
 42
0.2086188919813899
 10
168.2397335095971
 20
6.39099655292931
 42
0.6162695522437575
 10
168.3273093671905
 20
6.678878812685704
 42
-0.2171983840448881
 10
167.878304282279
 20
7.697570109513664
 42
0.0
 10
167.878304282279
 20
9.763139770918213
 42
0.2771818233458192
 10
166.8867338209572
 20
11.2952873101664
 42
0.2393084470231889
 97
        0
 92
       22
 72
     1
 73
     1
 93
        8
 10
165.9696416474329
 20
8.871761725605654
 42
0.0
 10
166.7316423859384
 20
8.871761725605654
 42
-0.4387538430829209
 10
166.9477028506931
 20
8.641908428641748
 42
0.0
 10
166.9477028506932
 20
7.89413730713677
 42
-0.231573802586463
 10
166.6898348265009
 20
7.336328670691965
 42
-0.2231591289142601
 10
165.4932119945864
 20
7.018046205390217
 42
-0.2451258193607781
 10
164.9592335867487
 20
7.419694483119318
 42
-0.1420187448229963
 10
164.973171918897
 20
8.240812834025424
 42
-0.2899718709829691
 97
        0
 92
        7
 72
     1
 73
     1
 93
        7
 10
170.2334762911231
 20
13.3279556756151
 42
0.0
 10
169.2962929527657
 20
13.3279556756151
 42
0.0
 10
169.2962929527658
 20
7.424553143931052
 42
0.3265321329225785
 10
170.4401003281734
 20
6.39749803761409
 42
0.0
 10
171.1151549750925
 20
6.397502940925601
 42
0.0
 10
171.1151549750925
 20
7.135108027573085
 42
-0.4142135623730958
 10
170.2334762911231
 20
8.016786711542453
 42
0.0
 97
        0
 75
     0
 76
     1
 47
0.2105755737740495
 98
        5
 10
168.3773645375047
 20
16.99551798079831
 10
159.336920468475
 20
11.90380063952413
 10
165.9117889385844
 20
11.02780624226045
 10
165.9117889385844
 20
11.02780624226045
 10
169.8841052672569
 20
9.029444049286276
450
        0
451
        0
460
0.0
461
0.0
452
        0
462
0.0
453
        0
470

  0
LWPOLYLINE
  5
1F27
330
15
100
AcDbEntity
 67
     1
  8
0
 62
     1
100
AcDbPolyline
 90
        2
 70
     1
 43
0.5199938194713205
 10
177.2597643428304
 20
12.78981999898152
 42
1.0
 10
177.7797581623017
 20
12.78981999898152
 42
1.0
  0
LWPOLYLINE
  5
1F28
330
15
100
AcDbEntity
 67
     1
  8
0
 62
     1
100
AcDbPolyline
 90
        6
 70
     1
 43
0.0
 10
176.3339198933266
 20
10.52831057896668
 10
176.3339198933266
 20
11.45689393172322
 10
178.0578746904481
 20
11.45689393172322
 10
178.0578746904482
 20
6.397553369905914
 10
176.9816350228952
 20
6.397545552556053
 10
176.9816350228952
 20
10.52831057896669
  0
LWPOLYLINE
  5
1F29
330
15
100
AcDbEntity
 67
     1
  8
0
 62
     1
100
AcDbPolyline
 90
       15
 70
     0
 43
0.0
 10
185.8559009001253
 20
13.99286026440449
 42
-0.4142135623730951
 10
186.8309009001253
 20
13.01786026440449
 10
186.8309009001253
 20
4.307852861880723
 42
-0.4142135623730951
 10
185.8559009001253
 20
3.332852861880724
 10
171.6209009001253
 20
3.332852861880724
 10
171.6209009001253
 20
3.787852861880722
 10
185.8559009001253
 20
3.787852861880722
 42
0.4142135623730951
 10
186.3759009001253
 20
4.307852861880723
 10
186.3759009001253
 20
13.01786026440449
 42
0.4142135623730951
 10
185.8559009001253
 20
13.53786026440449
 10
183.1934963272279
 20
13.53786026440449
 42
-0.0829624126767354
 10
171.5518778510457
 20
15.41468457223837
 10
171.6973302762558
 20
15.84580937087617
 42
0.0829624126767356
 10
183.1909009001253
 20
13.9928528618807
 10
185.859700224612
 20
13.99285286188072
  0
HATCH
  5
1F2A
330
15
100
AcDbEntity
 67
     1
  8
0
 62
     1
100
AcDbHatch
 10
0.0
 20
0.0
 30
0.0
210
0.0
220
0.0
230
1.0
  2
SOLID
 70
     1
 71
     0
 91
        9
 92
       23
 72
     1
 73
     1
 93
       12
 10
171.6566164756959
 20
11.46510224392836
 42
0.0
 10
171.6566164756959
 20
10.50549580339317
 42
0.0
 10
174.1785510282606
 20
10.50549580339317
 42
-0.7299518516203806
 10
174.2530565739012
 20
10.3662631794759
 42
0.0
 10
171.5827228827775
 20
6.710463853297164
 42
0.5071802274159938
 10
171.735479095974
 20
6.397507446697961
 42
0.0
 10
175.8912963853736
 20
6.397537632797238
 42
0.0
 10
175.8912963853736
 20
7.360761630117271
 42
0.0
 10
173.3094950398309
 20
7.360761630117272
 42
-0.6989832493954995
 10
173.2740442461577
 20
7.437414292741833
 42
0.0
 10
175.845015543192
 20
10.99107983431605
 42
0.0
 10
175.845015543192
 20
11.46510224392835
 42
0.0
 97
        0
 92
       23
 72
     0
 73
     1
 93
        6
 10
178.0578746904481
 20
11.45689393172322
 10
176.3339198933266
 20
11.45689393172322
 10
176.3339198933265
 20
10.52831057896668
 10
176.9816350228952
 20
10.52831057896669
 10
176.9816350228952
 20
6.397545552556052
 10
178.0578746904482
 20
6.397553369905914
 97
        0
 92
       23
 72
     1
 73
     1
 93
       12
 10
179.2834680859738
 20
4.489950259380134
 42
0.0
 10
180.4404845671969
 20
4.489950259380133
 42
0.0
 10
180.4404845671969
 20
6.407937422321626
 42
-0.564020014537643
 10
180.5553931356037
 20
6.494477403964591
 42
0.1631429899312781
 10
182.2777324741337
 20
6.396145546546192
 42
0.2143211476370291
 10
183.6230359173123
 20
7.808355241465149
 42
0.1454787830754401
 10
183.6584362625791
 20
10.14304763188928
 42
0.2090289609908675
 10
182.5092601646716
 20
11.40610558416121
 42
0.2333951007178159
 10
180.5453982137755
 20
11.33094833984734
 42
0.0
 10
180.4181879234111
 20
11.33094833984733
 42
0.0
 10
180.4181879234111
 20
11.46845534982765
 42
0.0
 10
179.2834680859739
 20
11.46845534982765
 42
0.0
 97
        0
 92
       22
 72
     1
 73
     1
 93
        7
 10
180.4181879234111
 20
10.33949870462521
 42
-0.2989352106795097
 10
182.1296529870908
 20
10.50388986460632
 42
-0.1898212309735409
 10
182.7034918692828
 20
9.623322110476919
 42
-0.0659282931228754
 10
182.7040000793262
 20
8.256350388311652
 42
-0.1241286129053254
 10
182.3570315341902
 20
7.656488866884544
 42
-0.0600684322456203
 10
181.9666021695323
 20
7.356657677220885
 42
-0.2741033349168366
 10
180.4181879234111
 20
7.427606589800799
 42
0.0
 97
        0
 92
        7
 72
     1
 73
     1
 93
       14
 10
185.859700224612
 20
13.99285286188072
 42
0.0
 10
183.1909009001232
 20
13.9928528618807
 42
-0.0829624126767202
 10
171.6973302762558
 20
15.84580937087617
 42
0.0
 10
171.5518778510457
 20
15.41468457223837
 42
0.0829624126767251
 10
183.1934963272264
 20
13.53786026440449
 42
0.0
 10
185.8559009001253
 20
13.53786026440449
 42
-0.4142135623730971
 10
186.3759009001253
 20
13.01786026440449
 42
0.0
 10
186.3759009001253
 20
4.307852861880728
 42
-0.4142135623730977
 10
185.8559009001253
 20
3.787852861880722
 42
0.0
 10
171.6209009001253
 20
3.787852861880722
 42
0.0
 10
171.6209009001253
 20
3.332852861880724
 42
0.0
 10
185.8559009001253
 20
3.332852861880724
 42
0.4142135623730997
 10
186.8309009001253
 20
4.307852861880738
 42
0.0
 10
186.8309009001253
 20
13.0178602644045
 42
0.4130726898721487
 97
        0
 92
        7
 72
     1
 73
     1
 93
        2
 10
188.3219768383339
 20
15.1722238261813
 42
1.0
 10
186.6580166356861
 20
15.1722238261813
 42
1.0
 97
        0
 92
       22
 72
     1
 73
     1
 93
        2
 10
186.7969744944294
 20
15.1722238261813
 42
-1.0
 10
188.1830189795906
 20
15.1722238261813
 42
-1.0
 97
        0
 92
        6
 72
     1
 73
     1
 93
       16
 10
187.1804467670766
 20
14.73363756634286
 42
0.0
 10
187.1804467670766
 20
15.56704569263319
 42
-0.4302925980981736
 10
187.251491054191
 20
15.64081864758153
 42
0.0
 10
187.5174229819317
 20
15.64081864758153
 42
-0.1568897140508004
 10
187.7919458453604
 20
15.57364674733607
 42
-0.3153417755023655
 10
187.8665388171578
 20
15.42795869313449
 42
0.0
 10
187.8665388171578
 20
15.2348040671175
 42
-0.1080222927165122
 10
187.8124776296571
 20
15.11431035938574
 42
-0.0878146924641181
 10
187.8665388171578
 20
14.98204746107886
 42
0.0
 10
187.8665388171577
 20
14.73363756634299
 42
0.0
 10
187.7256242795365
 20
14.73363756634299
 42
0.0
 10
187.7256242795365
 20
14.89765507736412
 42
0.3344300509710908
 10
187.5729470687523
 20
15.03141457194853
 42
0.0
 10
187.4422685868056
 20
15.03141457194853
 42
0.3320036502385211
 10
187.3398419427228
 20
14.91110551755848
 42
0.0
 10
187.3398419427228
 20
14.73363756634299
 42
0.0
 97
        0
 92
        6
 72
     1
 73
     1
 93
       10
 10
187.3643254856119
 20
15.2959411051848
 42
0.0
 10
187.3643254856118
 20
15.39654977484802
 42
-0.4700313181867731
 10
187.4421640999598
 20
15.478830631982
 42
0.0
 10
187.5255132518958
 20
15.478830631982
 42
-0.3239396334643629
 10
187.6662543992564
 20
15.41939596272205
 42
-0.1629090778550143
 10
187.684426266594
 20
15.35278313970706
 42
0.0
 10
187.684426266594
 20
15.26639117219038
 42
-0.2807969914256643
 10
187.6632495853466
 20
15.23111454898903
 42
-0.1413133624006426
 10
187.5828640428672
 20
15.20947334041117
 42
0.0
 10
187.4543382446402
 20
15.20947334041117
 42
-0.4644547038390189
 97
        0
 75
     0
 76
     1
 47
0.2105755736759934
 98
        9
 10
174.7366290675943
 20
10.97026192174259
 10
177.5857387070268
 20
10.39539060369501
 10
179.8595473630617
 20
10.53226475061325
 10
179.8595473630617
 20
10.53226475061325
 10
186.5166016658363
 20
13.48874580700005
 10
187.1466932043438
 20
14.47423945579229
 10
187.1466932043438
 20
14.47423945579229
 10
187.1466932043438
 20
14.47423945579229
 10
187.1466932043438
 20
14.47423945579229
450
        0
451
        0
460
0.0
461
0.0
452
        0
462
0.0
453
        0
470

  0
LWPOLYLINE
  5
1F2B
330
15
100
AcDbEntity
 67
     1
  8
0
 62
     1
100
AcDbPolyline
 90
        7
 70
     1
 43
0.0
 10
170.2334762911231
 20
13.3279556756151
 10
169.2962929527657
 20
13.32795567561509
 10
169.2962929527658
 20
7.424553143931023
 42
0.3265321329225733
 10
170.4401003281734
 20
6.39749803761409
 10
171.1151549750925
 20
6.397502940925601
 10
171.1151549750925
 20
7.135108027573085
 42
-0.4142135623730951
 10
170.2334762911231
 20
8.016786711542451
  0
LWPOLYLINE
  5
1F2C
330
15
100
AcDbEntity
 67
     1
  8
0
 62
     1
100
AcDbPolyline
 90
        8
 70
     1
 43
0.0
 10
165.4932119945859
 20
7.018046205390295
 42
-0.2451258193606399
 10
164.9592335867486
 20
7.419694483119407
 42
-0.1420187448230164
 10
164.9731719188971
 20
8.240812834025623
 42
-0.2899718709829171
 10
165.9696416474329
 20
8.871761725605654
 10
166.7361885745907
 20
8.871761725605654
 42
-0.3900918559591556
 10
166.9477028506931
 20
8.672939810059801
 10
166.9477028506932
 20
7.863243807331706
 42
-0.2034436104283782
 10
166.7232255026607
 20
7.365277278823075
 42
-0.2311376311759479
  0
LWPOLYLINE
  5
1F2D
330
15
100
AcDbEntity
 67
     1
  8
0
 62
     1
100
AcDbPolyline
 90
       18
 70
     1
 43
0.0
 10
166.8664398433066
 20
9.647233194325998
 42
0.1602289575782981
 10
166.7427656016724
 20
10.1794898753082
 42
0.2678367822512051
 10
165.9421619880012
 20
10.58651032233054
 42
0.1250890829061368
 10
164.6193868421995
 20
10.23129501474021
 10
164.2357678011491
 20
10.9298119326245
 42
-0.2393084470231862
 10
166.8867338209572
 20
11.29528731016641
 42
-0.2771818233458632
 10
167.878304282279
 20
9.763139770917941
 10
167.878304282279
 20
7.6637461954118
 42
0.2106080285028759
 10
168.3273093671902
 20
6.678878812685951
 42
-0.655875337136226
 10
168.2208706145264
 20
6.388827352266204
 42
-0.2140955845208337
 10
167.1415677997452
 20
6.739536304055427
 42
0.3793030021024653
 10
166.860817039998
 20
6.705871362279697
 42
-0.1547524270167758
 10
165.9069601693342
 20
6.400511511813203
 10
165.1837010925265
 20
6.400511511813203
 42
-0.3920539506815679
 10
164.0212098541297
 20
7.552121447224729
 42
-0.1827818212654531
 10
164.3130414001024
 20
8.743789479199055
 42
-0.1876748474912757
 10
165.9458514784637
 20
9.564847972523356
 42
-0.0541248642832585
 10
166.7650033977182
 20
9.567270835411239
 42
0.4569276421989473
  0
LWPOLYLINE
  5
1F2E
330
15
100
AcDbEntity
 67
     1
  8
0
 62
     1
100
AcDbPolyline
 90
       13
 70
     0
 43
0.0
 10
173.3020863273005
 20
7.360761630117272
 10
175.8912963853736
 20
7.360761630117272
 10
175.8912963853736
 20
6.397537632797238
 10
171.735479095974
 20
6.397507446697961
 42
-0.5071802274160878
 10
171.5827228827775
 20
6.710463853297234
 10
174.2665955523432
 20
10.38479861136958
 42
0.5083225216873333
 10
174.2085020284546
 20
10.50549580339317
 10
171.6566164756959
 20
10.50549580339317
 10
171.6566164756959
 20
11.46510224392836
 10
175.845015543192
 20
11.46510224392835
 10
175.845015543192
 20
10.99107983431609
 10
173.2656155016102
 20
7.425763855768082
 42
0.5855768765223777
 10
173.3094950398309
 20
7.360761630117272
  0
LWPOLYLINE
  5
1F2F
330
15
100
AcDbEntity
 67
     1
  8
0
 62
     1
100
AcDbPolyline
 90
        7
 70
     1
 43
0.0
 10
182.7034918692828
 20
9.623322110476962
 42
0.1898212309735227
 10
182.1296529870909
 20
10.50388986460628
 42
0.2989352106795207
 10
180.4181879234111
 20
10.33949870462521
 10
180.4181879234111
 20
7.427606589800797
 42
0.2741033349168594
 10
181.9666021695324
 20
7.35665767722094
 42
0.0600684322456349
 10
182.3570315341904
 20
7.656488866884719
 42
0.1241286129052769
 10
182.7040000793262
 20
8.256350388311624
 42
0.0659282931228788
  0
LWPOLYLINE
  5
1F30
330
15
100
AcDbEntity
 67
     1
  8
0
 62
     1
100
AcDbPolyline
 90
       12
 70
     1
 43
0.0
 10
180.4181879234111
 20
11.33094833984733
 10
180.4181879234111
 20
11.46845534982765
 10
179.2834680859739
 20
11.46845534982765
 10
179.2834680859739
 20
4.489950259380133
 10
180.4404845671969
 20
4.489950259380133
 10
180.4404845671969
 20
6.425017086827082
 42
-0.4980732597277929
 10
180.5552228457295
 20
6.494545518751699
 42
0.1631603344019285
 10
182.2777324741337
 20
6.39614554654619
 42
0.2143211476370474
 10
183.6230359173124
 20
7.808355241465303
 42
0.1454787830754339
 10
183.6584362625791
 20
10.14304763188934
 42
0.209028960994081
 10
182.5092601646476
 20
11.40610558417194
 42
0.2333951007146881
 10
180.5453982137755
 20
11.33094833984734
  0
LWPOLYLINE
  5
1F31
330
15
100
AcDbEntity
 67
     1
  8
0
 62
     1
100
AcDbPolyline
 90
       10
 70
     1
 43
0.0
 10
187.6662543992565
 20
15.41939596272184
 42
0.2024912017590097
 10
187.5841437609705
 20
15.478830631982
 10
187.4325151901677
 20
15.478830631982
 42
0.3605152320615398
 10
187.3643254856118
 20
15.41432240612822
 10
187.3643254856119
 20
15.28547146317518
 42
0.3656960469701174
 10
187.4373305559301
 20
15.20947334041117
 10
187.5882069820494
 20
15.20947334041117
 42
0.143350963341212
 10
187.6687736308472
 20
15.23462054730057
 42
0.2365834905846161
 10
187.684426266594
 20
15.2663911721883
 10
187.684426266594
 20
15.36510310899481
 42
0.133951748517549
  0
LWPOLYLINE
  5
1F32
330
15
100
AcDbEntity
 67
     1
  8
0
 62
     1
100
AcDbPolyline
 90
       17
 70
     0
 43
0.0
 10
187.1804467670766
 20
15.57355010122799
 10
187.1804467670766
 20
14.73363756634298
 10
187.3398419427228
 20
14.73363756634299
 10
187.3398419427228
 20
14.91110551755867
 42
-0.3320036502381971
 10
187.4422685868056
 20
15.03141457194853
 10
187.5729470687523
 20
15.03141457194853
 42
-0.3344300509710546
 10
187.7256242795365
 20
14.89765507736415
 10
187.7256242795365
 20
14.73363756634299
 10
187.8665388171578
 20
14.73363756634298
 10
187.8665388171578
 20
14.98204746107884
 42
0.0878146924641325
 10
187.8124776296571
 20
15.11431035938575
 42
0.1080222927165679
 10
187.8665388171578
 20
15.23480406711759
 10
187.8665388171578
 20
15.46713467151183
 42
0.2411188226969047
 10
187.7919458453605
 20
15.57364674733602
 42
0.1568897140508559
 10
187.5174229819317
 20
15.64081864758153
 10
187.2502989626727
 20
15.64081864758153
 42
0.4252932903388871
 10
187.1804467670766
 20
15.5670456926342
  0
CIRCLE
  5
1F33
330
15
100
AcDbEntity
 67
     1
  8
0
 62
     1
100
AcDbCircle
 10
187.48999673701
 20
15.1722238261813
 30
0.0
 40
0.6930222425806165
  0
HATCH
  5
1F34
330
15
100
AcDbEntity
 67
     1
  8
0
 62
     1
100
AcDbHatch
 10
0.0
 20
0.0
 30
0.0
210
0.0
220
0.0
230
1.0
  2
SOLID
 70
     1
 71
     0
 91
        2
 92
        7
 72
     1
 73
     1
 93
       16
 10
187.7256242795365
 20
14.89765507736412
 42
0.0
 10
187.7256242795365
 20
14.73363756634299
 42
0.0
 10
187.8665388171578
 20
14.73363756634299
 42
0.0
 10
187.8665388171578
 20
14.98204746107887
 42
0.0878146924641104
 10
187.8124776296571
 20
15.11431035938575
 42
0.1080222927165595
 10
187.8665388171578
 20
15.23480406711759
 42
0.0
 10
187.8665388171578
 20
15.4671346715119
 42
0.192215680109946
 10
187.8142052820495
 20
15.55906135573319
 42
0.171699417140815
 10
187.5174229819317
 20
15.64081864758153
 42
0.0
 10
187.2502989626727
 20
15.64081864758153
 42
0.3983152836414639
 10
187.1804467670766
 20
15.57355010122913
 42
0.0
 10
187.1804467670766
 20
14.73363756634298
 42
0.0
 10
187.3398419427228
 20
14.73363756634299
 42
0.0
 10
187.3398419427228
 20
14.89416228369594
 42
-0.5014973867698699
 10
187.5010567629519
 20
15.03141457194853
 42
0.0
 10
187.5480096039234
 20
15.03141457194853
 42
-0.3760883100637777
 97
        0
 92
       22
 72
     1
 73
     1
 93
        2
 10
187.5828640428672
 20
15.20947334041117
 42
0.008892798644809
 10
187.5882069820493
 20
15.20947334041117
 42
0.0
 97
        0
 75
     0
 76
     1
 47
0.025620434889365
 98
        2
 10
187.6662846229588
 20
15.13317548685421
 10
187.6662846229588
 20
15.13317548685421
450
        0
451
        0
460
0.0
461
0.0
452
        0
462
0.0
453
        0
470

  0
CIRCLE
  5
1F35
330
15
100
AcDbEntity
 67
     1
  8
0
 62
     1
100
AcDbCircle
 10
187.48999673701
 20
15.1722238261813
 30
0.0
 40
0.8319801013239141
  0
MTEXT
  5
3F0F
102
{ACAD_XDICTIONARY
360
3FE5
102
}
330
15
100
AcDbEntity
 67
     1
  8
TXT-D
100
AcDbMText
 10
6.469724308131485
 20
18.38492919084655
 30
0.0
 40
2.8
 41
106.1716
 71
     1
 72
     5
  1
{\C7;* Poplastovan\U+00E9 klipsy nejsou vyr\U+00E1b\U+011Bny ve v\U+0161ech rozm\U+011Brech}
  7
ROMANS
 73
     1
 44
1.0
  0
ENDSEC
  0
SECTION
  2
OBJECTS
  0
DICTIONARY
  5
C
330
0
100
AcDbDictionary
281
     1
  3
ACAD_CIP_PREVIOUS_PRODUCT_INFO
350
3EB0
  3
ACAD_COLOR
350
3E90
  3
ACAD_DETAILVIEWSTYLE
350
3EAA
  3
ACAD_GROUP
350
D
  3
ACAD_IMAGE_DICT
350
6C4
  3
ACAD_IMAGE_VARS
350
6C5
  3
ACAD_LAYOUT
350
5E9
  3
ACAD_MATERIAL
350
3E5E
  3
ACAD_MLEADERSTYLE
350
3EA5
  3
ACAD_MLINESTYLE
350
1B
  3
ACAD_PLOTSETTINGS
350
5EA
  3
ACAD_PLOTSTYLENAME
350
5E7
  3
ACAD_SCALELIST
350
3E93
  3
ACAD_SECTIONVIEWSTYLE
350
3EA7
  3
ACAD_TABLESTYLE
350
3E91
  3
ACAD_VISUALSTYLE
350
3E77
  3
ACDB_RECOMPOSE_DATA
350
3F9F
  3
AcDbVariableDictionary
350
7F0
  3
AcDsDecomposeData
350
3FA5
  0
DICTIONARY
  5
3ED0
330
2
100
AcDbDictionary
280
     1
281
     1
  3
ACAD_LAYERSTATES
360
3ED1
  0
DICTIONARY
  5
3EB1
330
E
100
AcDbDictionary
280
     1
281
     1
  3
ADSK_XREC_LAYER_RECONCILED
360
3EB2
  0
DICTIONARY
  5
3EB3
330
B7
100
AcDbDictionary
280
     1
281
     1
  3
ADSK_XREC_LAYER_RECONCILED
360
3EB4
  0
DICTIONARY
  5
3EB5
330
8F4
100
AcDbDictionary
280
     1
281
     1
  3
ADSK_XREC_LAYER_RECONCILED
360
3EB6
  0
DICTIONARY
  5
3EB7
330
9AF
100
AcDbDictionary
280
     1
281
     1
  3
ADSK_XREC_LAYER_RECONCILED
360
3EB8
  0
DICTIONARY
  5
3EB9
330
11FF
100
AcDbDictionary
280
     1
281
     1
  3
ADSK_XREC_LAYER_RECONCILED
360
3EBA
  0
DICTIONARY
  5
3EBB
330
1200
100
AcDbDictionary
280
     1
281
     1
  3
ADSK_XREC_LAYER_RECONCILED
360
3EBC
  0
DICTIONARY
  5
3EBD
330
1202
100
AcDbDictionary
280
     1
281
     1
  3
ADSK_XREC_LAYER_RECONCILED
360
3EBE
  0
DICTIONARY
  5
3EBF
330
1207
100
AcDbDictionary
280
     1
281
     1
  3
ADSK_XREC_LAYER_RECONCILED
360
3EC0
  0
DICTIONARY
  5
3EC1
330
1C60
100
AcDbDictionary
280
     1
281
     1
  3
ADSK_XREC_LAYER_RECONCILED
360
3EC2
  0
DICTIONARY
  5
81C
330
18
100
AcDbDictionary
280
     1
281
     1
  3
ACAD_LAYOUTSELFREF
360
19BA
  0
DICTIONARY
  5
81A
330
15
100
AcDbDictionary
280
     1
281
     1
  3
ACAD_LAYOUTSELFREF
360
19B9
  0
DICTIONARY
  5
3EDF
330
3EDA
100
AcDbDictionary
280
     1
281
     1
  0
DICTIONARY
  5
3F12
330
3F10
100
AcDbDictionary
280
     1
281
     1
  0
DICTIONARY
  5
3FDF
330
3EDE
100
AcDbDictionary
280
     1
281
     1
  3
ACAD_MTEXT_2008_RT
360
3FE0
  0
DICTIONARY
  5
3FE7
330
3F11
100
AcDbDictionary
280
     1
281
     1
  3
ACAD_MTEXT_2008_RT
360
3FE8
  0
DICTIONARY
  5
3FE1
330
3EE6
100
AcDbDictionary
280
     1
281
     1
  3
ACAD_MTEXT_2008_RT
360
3FE2
  0
DICTIONARY
  5
3FE3
330
3EF2
100
AcDbDictionary
280
     1
281
     1
  3
ACAD_MTEXT_2008_RT
360
3FE4
  0
DICTIONARY
  5
3FE5
330
3F0F
100
AcDbDictionary
280
     1
281
     1
  3
ACAD_MTEXT_2008_RT
360
3FE6
  0
XRECORD
  5
3EB0
102
{ACAD_REACTORS
330
C
102
}
330
C
100
AcDbXrecord
280
     1
300
ACD
300
2013
300
ACD_F_S
  0
DICTIONARY
  5
3E90
102
{ACAD_REACTORS
330
C
102
}
330
C
100
AcDbDictionary
281
     1
  0
DICTIONARY
  5
3EAA
102
{ACAD_REACTORS
330
C
102
}
330
C
100
AcDbDictionary
281
     1
  3
Imperial24
350
3EAB
  0
DICTIONARY
  5
D
102
{ACAD_REACTORS
330
C
102
}
330
C
100
AcDbDictionary
281
     1
  0
DICTIONARY
  5
6C4
102
{ACAD_REACTORS
330
C
102
}
330
C
100
AcDbDictionary
281
     1
  3
Kalzip
350
6C6
  0
RASTERVARIABLES
  5
6C5
102
{ACAD_REACTORS
330
C
102
}
330
C
100
AcDbRasterVariables
 90
        0
 70
     1
 71
     1
 72
     0
  0
DICTIONARY
  5
5E9
102
{ACAD_REACTORS
330
C
102
}
330
C
100
AcDbDictionary
281
     1
  3
Layout A4
350
5EC
  3
Model
350
5EB
  0
DICTIONARY
  5
3E5E
102
{ACAD_REACTORS
330
C
102
}
330
C
100
AcDbDictionary
281
     1
  3
ByBlock
350
3E67
  3
ByLayer
350
3E5F
  3
Global
350
3E6F
  0
DICTIONARY
  5
3EA5
102
{ACAD_REACTORS
330
C
102
}
330
C
100
AcDbDictionary
281
     1
  3
Standard
350
3EA6
  0
DICTIONARY
  5
1B
102
{ACAD_REACTORS
330
C
102
}
330
C
100
AcDbDictionary
281
     1
  3
STANDARD
350
1C
  0
DICTIONARY
  5
5EA
102
{ACAD_REACTORS
330
C
102
}
330
C
100
AcDbDictionary
281
     1
  0
ACDBDICTIONARYWDFLT
  5
5E7
102
{ACAD_REACTORS
330
C
102
}
330
C
100
AcDbDictionary
281
     1
  3
Normal
350
5E8
100
AcDbDictionaryWithDefault
340
5E8
  0
DICTIONARY
  5
3E93
102
{ACAD_REACTORS
330
C
102
}
330
C
100
AcDbDictionary
281
     1
  3
A0
350
3E94
  3
A1
350
3E95
  3
A2
350
3E96
  3
A3
350
3E97
  3
A4
350
3E98
  3
A5
350
3E99
  3
A6
350
3E9A
  3
A7
350
3E9B
  3
A8
350
3E9C
  3
A9
350
3E9D
  3
B0
350
3E9E
  3
B1
350
3E9F
  3
B2
350
3EA0
  3
B3
350
3EA1
  3
B4
350
3EA2
  3
B5
350
3EA3
  3
B6
350
3EA4
  0
DICTIONARY
  5
3EA7
102
{ACAD_REACTORS
330
C
102
}
330
C
100
AcDbDictionary
281
     1
  3
Imperial24
350
3EA9
  0
DICTIONARY
  5
3E91
102
{ACAD_REACTORS
330
C
102
}
330
C
100
AcDbDictionary
281
     1
  3
Standard
350
3E92
  0
DICTIONARY
  5
3E77
102
{ACAD_REACTORS
330
C
102
}
330
C
100
AcDbDictionary
281
     1
  3
2dWireframe
350
3E7D
  3
Basic
350
3E7C
  3
Brighten
350
3E83
  3
ColorChange
350
3E87
  3
Conceptual
350
3E80
  3
Dim
350
3E82
  3
EdgeColorOff
350
3E8F
  3
Facepattern
350
3E86
  3
Flat
350
3E78
  3
FlatWithEdges
350
3E79
  3
Gouraud
350
3E7A
  3
GouraudWithEdges
350
3E7B
  3
Hidden
350
3E7F
  3
JitterOff
350
3E8D
  3
Linepattern
350
3E85
  3
OverhangOff
350
3E8E
  3
Realistic
350
3E81
  3
Shaded
350
3E8C
  3
Shaded with edges
350
3E8B
  3
Shades of Gray
350
3E88
  3
Sketchy
350
3E89
  3
Thicken
350
3E84
  3
Wireframe
350
3E7E
  3
X-Ray
350
3E8A
  0
XRECORD
  5
3F9F
102
{ACAD_REACTORS
330
C
102
}
330
C
100
AcDbXrecord
280
     1
 90
        1
330
3E92
  0
DICTIONARY
  5
7F0
102
{ACAD_REACTORS
330
C
102
}
330
C
100
AcDbDictionary
281
     1
  3
CANNOSCALE
350
3F38
  3
CMLEADERSTYLE
350
3F34
  3
CTABLESTYLE
350
3F33
  3
CVIEWDETAILSTYLE
350
3F35
  3
CVIEWSECTIONSTYLE
350
3F36
  3
DIMASSOC
350
1C46
  3
LAYEREVAL
350
3F3A
  3
LAYERNOTIFY
350
3F3B
  3
LIGHTINGUNITS
350
3F39
  3
MSLTSCALE
350
3F37
  3
SORTENTS
350
7F1
  3
XCLIPFRAME
350
3F9C
  0
DICTIONARY
  5
3FA5
102
{ACAD_REACTORS
330
C
102
}
330
C
100
AcDbDictionary
281
     1
  3
AcDsRecords
350
3FA7
  3
AcDsSchemas
350
3FA6
1001
ACAD
1070
     2
  0
DICTIONARY
  5
3ED1
102
{ACAD_REACTORS
330
3ED0
102
}
330
3ED0
100
AcDbDictionary
281
     1
  0
XRECORD
  5
3EB2
102
{ACAD_REACTORS
330
3EB1
102
}
330
3EB1
100
AcDbXrecord
280
     1
290
     1
  0
XRECORD
  5
3EB4
102
{ACAD_REACTORS
330
3EB3
102
}
330
3EB3
100
AcDbXrecord
280
     1
290
     1
  0
XRECORD
  5
3EB6
102
{ACAD_REACTORS
330
3EB5
102
}
330
3EB5
100
AcDbXrecord
280
     1
290
     1
  0
XRECORD
  5
3EB8
102
{ACAD_REACTORS
330
3EB7
102
}
330
3EB7
100
AcDbXrecord
280
     1
290
     1
  0
XRECORD
  5
3EBA
102
{ACAD_REACTORS
330
3EB9
102
}
330
3EB9
100
AcDbXrecord
280
     1
290
     1
  0
XRECORD
  5
3EBC
102
{ACAD_REACTORS
330
3EBB
102
}
330
3EBB
100
AcDbXrecord
280
     1
290
     1
  0
XRECORD
  5
3EBE
102
{ACAD_REACTORS
330
3EBD
102
}
330
3EBD
100
AcDbXrecord
280
     1
290
     1
  0
XRECORD
  5
3EC0
102
{ACAD_REACTORS
330
3EBF
102
}
330
3EBF
100
AcDbXrecord
280
     1
290
     1
  0
XRECORD
  5
3EC2
102
{ACAD_REACTORS
330
3EC1
102
}
330
3EC1
100
AcDbXrecord
280
     1
290
     1
  0
XRECORD
  5
19BA
102
{ACAD_REACTORS
330
81C
102
}
330
81C
100
AcDbXrecord
280
     1
340
18
  0
XRECORD
  5
19B9
102
{ACAD_REACTORS
330
81A
102
}
330
81A
100
AcDbXrecord
280
     1
340
15
  0
XRECORD
  5
3FE0
102
{ACAD_REACTORS
330
3FDF
102
}
330
3FDF
100
AcDbXrecord
280
     1
 40
889914.0
  1
{\C7;poplastovaná klipsa*\P(diagonálně kladená)\Palternativně: hliníková klipsa s termopodložkou}
  0
XRECORD
  5
3FE8
102
{ACAD_REACTORS
330
3FE7
102
}
330
3FE7
100
AcDbXrecord
280
     1
 40
338157.0
  1
{\C7;* Poplastované klipsy nejsou vyráběny ve všech velikostech}
  0
XRECORD
  5
3FE2
102
{ACAD_REACTORS
330
3FE1
102
}
330
3FE1
100
AcDbXrecord
280
     1
 40
480445.0
  1
{\C7;poplastovaná klipsa*\Palternativně: hliníková klipsa s termopodložkou}
  0
XRECORD
  5
3FE4
102
{ACAD_REACTORS
330
3FE3
102
}
330
3FE3
100
AcDbXrecord
280
     1
 40
480445.0
  1
{\C7;poplastovaná klipsa*\Palternativně: hliníková klipsa s termopodložkou}
  0
XRECORD
  5
3FE6
102
{ACAD_REACTORS
330
3FE5
102
}
330
3FE5
100
AcDbXrecord
280
     1
 40
350889.0
  1
{\C7;* Poplastované klipsy nejsou vyráběny ve všech rozměrech}
  0
ACDBDETAILVIEWSTYLE
  5
3EAB
102
{ACAD_REACTORS
330
3EAA
102
}
330
3EAA
100
AcDbModelDocViewStyle
 70
     0
  3
Imperial24
290
     0
100
AcDbDetailViewStyle
 70
     0
 71
     0
 90
        3
 71
     1
340
F
 62
   256
 40
0.24
340
0
 62
   256
 40
0.24
300

 40
0.36
280
     3
 71
     2
340
14
 90
       25
 62
   256
 71
     3
340
F
 62
   256
 40
0.24
 90
        1
 40
0.75
 90
        1
300
%<\AcVar ViewType \f "%tc1">% %<\AcVar ViewDetailId>%\PMĚŘÍTKO %<\AcVar ViewScale \f "%sn">%
 71
     4
340
14
 90
       25
 62
   256
340
14
 90
       25
 62
   256
280
     0
  0
IMAGEDEF
  5
6C6
102
{ACAD_REACTORS
330
6C4
102
}
330
6C4
100
AcDbRasterImageDef
 90
        0
  1
C:\Kalzip.pcx
 10
944.0
 20
1927.0
 11
0.0010593220338983
 21
0.0010593220338983
280
     1
281
     0
  0
LAYOUT
  5
5EC
102
{ACAD_REACTORS
330
5E9
102
}
330
5E9
100
AcDbPlotSettings
  1

  2
Brother HL-760
  4
A4
  6

 40
6.043083
 41
6.762742
 42
7.736419999999999
 43
5.027069
 44
209.973328
 45
296.968323
 46
0.0
 47
0.0
 48
0.0
 49
0.0
140
210.0
141
297.0
142
1.0
143
1.0
 70
   688
 72
     1
 73
     0
 74
     5
  7
CORUS_Mono.ctb
 75
    16
147
1.0
 76
     0
 77
     2
 78
   300
148
0.0
149
0.0
100
AcDbLayout
  1
Layout A4
 70
     0
 71
     1
 10
-6.043083
 20
-6.762742
 11
203.930245
 21
290.205581
 12
0.0
 22
0.0
 32
0.0
 14
4.451200760342317
 24
3.332852861880712
 34
0.0
 15
195.1228331906801
 25
281.9662386458112
 35
0.0
146
0.0
 13
0.0
 23
0.0
 33
0.0
 16
1.0
 26
0.0
 36
0.0
 17
0.0
 27
1.0
 37
0.0
 76
     0
330
15
331
27F
  0
LAYOUT
  5
5EB
102
{ACAD_REACTORS
330
5E9
102
}
330
5E9
100
AcDbPlotSettings
  1

  2
\\BSSRV01\Océ 5120 A0
  4
A4
  6

 40
3.174999952316284
 41
3.174999952316284
 42
3.175003051757812
 43
3.17498779296875
 44
209.9733276367187
 45
296.9683227539062
 46
0.0
 47
0.0
 48
0.0
 49
0.0
140
0.0
141
0.0
142
1.0
143
1.0
 70
 11952
 72
     1
 73
     1
 74
     0
  7
CORUS_Mono.ctb
 75
     0
147
1.0
 76
     0
 77
     2
 78
   300
148
973.0712272420497
149
544.3184272033454
100
AcDbLayout
  1
Model
 70
     1
 71
     0
 10
0.0
 20
0.0
 11
12.0
 21
9.0
 12
0.0
 22
0.0
 32
0.0
 14
0.0
 24
0.0
 34
0.0
 15
0.0
 25
0.0
 35
0.0
146
0.0
 13
0.0
 23
0.0
 33
0.0
 16
1.0
 26
0.0
 36
0.0
 17
0.0
 27
1.0
 37
0.0
 76
     0
330
18
331
3E44
  0
MATERIAL
  5
3E67
102
{ACAD_XDICTIONARY
360
3E68
102
}
102
{ACAD_REACTORS
330
3E5E
102
}
330
3E5E
100
AcDbMaterial
  1
ByBlock
 72
     0
 43
0.0208333333333333
 43
0.0
 43
0.0
 43
0.0
 43
0.0
 43
0.0208333333333333
 43
0.0
 43
0.0
 43
0.0
 43
0.0
 43
1.0
 43
0.0
 43
0.0
 43
0.0
 43
0.0
 43
1.0
 77
     0
 47
0.0208333333333333
 47
0.0
 47
0.0
 47
0.0
 47
0.0
 47
0.0208333333333333
 47
0.0
 47
0.0
 47
0.0
 47
0.0
 47
1.0
 47
0.0
 47
0.0
 47
0.0
 47
0.0
 47
1.0
171
     0
 49
0.0208333333333333
 49
0.0
 49
0.0
 49
0.0
 49
0.0
 49
0.0208333333333333
 49
0.0
 49
0.0
 49
0.0
 49
0.0
 49
1.0
 49
0.0
 49
0.0
 49
0.0
 49
0.0
 49
1.0
175
     0
142
0.0208333333333333
142
0.0
142
0.0
142
0.0
142
0.0
142
0.0208333333333333
142
0.0
142
0.0
142
0.0
142
0.0
142
1.0
142
0.0
142
0.0
142
0.0
142
0.0
142
1.0
179
     0
144
0.0208333333333333
144
0.0
144
0.0
144
0.0
144
0.0
144
0.0208333333333333
144
0.0
144
0.0
144
0.0
144
0.0
144
1.0
144
0.0
144
0.0
144
0.0
144
0.0
144
1.0
147
0.0208333333333333
147
0.0
147
0.0
147
0.0
147
0.0
147
0.0208333333333333
147
0.0
147
0.0
147
0.0
147
0.0
147
1.0
147
0.0
147
0.0
147
0.0
147
0.0
147
1.0
  0
MATERIAL
  5
3E5F
102
{ACAD_XDICTIONARY
360
3E60
102
}
102
{ACAD_REACTORS
330
3E5E
102
}
330
3E5E
100
AcDbMaterial
  1
ByLayer
 72
     0
 43
0.0208333333333333
 43
0.0
 43
0.0
 43
0.0
 43
0.0
 43
0.0208333333333333
 43
0.0
 43
0.0
 43
0.0
 43
0.0
 43
1.0
 43
0.0
 43
0.0
 43
0.0
 43
0.0
 43
1.0
 77
     0
 47
0.0208333333333333
 47
0.0
 47
0.0
 47
0.0
 47
0.0
 47
0.0208333333333333
 47
0.0
 47
0.0
 47
0.0
 47
0.0
 47
1.0
 47
0.0
 47
0.0
 47
0.0
 47
0.0
 47
1.0
171
     0
 49
0.0208333333333333
 49
0.0
 49
0.0
 49
0.0
 49
0.0
 49
0.0208333333333333
 49
0.0
 49
0.0
 49
0.0
 49
0.0
 49
1.0
 49
0.0
 49
0.0
 49
0.0
 49
0.0
 49
1.0
175
     0
142
0.0208333333333333
142
0.0
142
0.0
142
0.0
142
0.0
142
0.0208333333333333
142
0.0
142
0.0
142
0.0
142
0.0
142
1.0
142
0.0
142
0.0
142
0.0
142
0.0
142
1.0
179
     0
144
0.0208333333333333
144
0.0
144
0.0
144
0.0
144
0.0
144
0.0208333333333333
144
0.0
144
0.0
144
0.0
144
0.0
144
1.0
144
0.0
144
0.0
144
0.0
144
0.0
144
1.0
147
0.0208333333333333
147
0.0
147
0.0
147
0.0
147
0.0
147
0.0208333333333333
147
0.0
147
0.0
147
0.0
147
0.0
147
1.0
147
0.0
147
0.0
147
0.0
147
0.0
147
1.0
  0
MATERIAL
  5
3E6F
102
{ACAD_XDICTIONARY
360
3E70
102
}
102
{ACAD_REACTORS
330
3E5E
102
}
330
3E5E
100
AcDbMaterial
  1
Global
 72
     0
 43
0.0208333333333333
 43
0.0
 43
0.0
 43
0.0
 43
0.0
 43
0.0208333333333333
 43
0.0
 43
0.0
 43
0.0
 43
0.0
 43
1.0
 43
0.0
 43
0.0
 43
0.0
 43
0.0
 43
1.0
 77
     0
 47
0.0208333333333333
 47
0.0
 47
0.0
 47
0.0
 47
0.0
 47
0.0208333333333333
 47
0.0
 47
0.0
 47
0.0
 47
0.0
 47
1.0
 47
0.0
 47
0.0
 47
0.0
 47
0.0
 47
1.0
171
     0
 49
0.0208333333333333
 49
0.0
 49
0.0
 49
0.0
 49
0.0
 49
0.0208333333333333
 49
0.0
 49
0.0
 49
0.0
 49
0.0
 49
1.0
 49
0.0
 49
0.0
 49
0.0
 49
0.0
 49
1.0
175
     0
142
0.0208333333333333
142
0.0
142
0.0
142
0.0
142
0.0
142
0.0208333333333333
142
0.0
142
0.0
142
0.0
142
0.0
142
1.0
142
0.0
142
0.0
142
0.0
142
0.0
142
1.0
179
     0
144
0.0208333333333333
144
0.0
144
0.0
144
0.0
144
0.0
144
0.0208333333333333
144
0.0
144
0.0
144
0.0
144
0.0
144
1.0
144
0.0
144
0.0
144
0.0
144
0.0
144
1.0
147
0.0208333333333333
147
0.0
147
0.0
147
0.0
147
0.0
147
0.0208333333333333
147
0.0
147
0.0
147
0.0
147
0.0
147
1.0
147
0.0
147
0.0
147
0.0
147
0.0
147
1.0
  0
MLEADERSTYLE
  5
3EA6
102
{ACAD_XDICTIONARY
360
3FDD
102
}
102
{ACAD_REACTORS
330
3EA5
102
}
330
3EA5
100
AcDbMLeaderStyle
170
     2
171
     1
172
     0
 90
        2
 40
0.0
 41
0.0
173
     1
 91
-1056964608
340
12
 92
       -2
290
     1
 42
0.09
291
     1
 43
0.36
  3
Standard
 44
0.18
300

342
F
174
     1
178
     6
175
     1
176
     0
 93
-1056964608
 45
0.18
292
     0
297
     0
 46
0.18
 94
-1056964608
 47
1.0
 49
1.0
140
1.0
293
     1
141
0.0
294
     1
177
     0
142
1.0
295
     0
296
     0
143
0.125
1001
ACAD_MLEADERVER
1070
     2
  0
MLINESTYLE
  5
1C
102
{ACAD_REACTORS
330
1B
102
}
330
1B
100
AcDbMlineStyle
  2
STANDARD
 70
     0
  3

 62
   256
 51
90.0
 52
90.0
 71
     2
 49
0.5
 62
   256
  6
BYLAYER
 49
-0.5
 62
   256
  6
BYLAYER
  0
ACDBPLACEHOLDER
  5
5E8
102
{ACAD_REACTORS
330
5E7
102
}
330
5E7
  0
SCALE
  5
3E94
102
{ACAD_REACTORS
330
3E93
102
}
330
3E93
100
AcDbScale
 70
     0
300
1:1
140
1.0
141
1.0
290
     1
  0
SCALE
  5
3E95
102
{ACAD_REACTORS
330
3E93
102
}
330
3E93
100
AcDbScale
 70
     0
300
1/128" = 1'-0"
140
0.0078125
141
12.0
290
     0
  0
SCALE
  5
3E96
102
{ACAD_REACTORS
330
3E93
102
}
330
3E93
100
AcDbScale
 70
     0
300
1/64" = 1'-0"
140
0.015625
141
12.0
290
     0
  0
SCALE
  5
3E97
102
{ACAD_REACTORS
330
3E93
102
}
330
3E93
100
AcDbScale
 70
     0
300
1/32" = 1'-0"
140
0.03125
141
12.0
290
     0
  0
SCALE
  5
3E98
102
{ACAD_REACTORS
330
3E93
102
}
330
3E93
100
AcDbScale
 70
     0
300
1/16" = 1'-0"
140
0.0625
141
12.0
290
     0
  0
SCALE
  5
3E99
102
{ACAD_REACTORS
330
3E93
102
}
330
3E93
100
AcDbScale
 70
     0
300
3/32" = 1'-0"
140
0.09375
141
12.0
290
     0
  0
SCALE
  5
3E9A
102
{ACAD_REACTORS
330
3E93
102
}
330
3E93
100
AcDbScale
 70
     0
300
1/8" = 1'-0"
140
0.125
141
12.0
290
     0
  0
SCALE
  5
3E9B
102
{ACAD_REACTORS
330
3E93
102
}
330
3E93
100
AcDbScale
 70
     0
300
3/16" = 1'-0"
140
0.1875
141
12.0
290
     0
  0
SCALE
  5
3E9C
102
{ACAD_REACTORS
330
3E93
102
}
330
3E93
100
AcDbScale
 70
     0
300
1/4" = 1'-0"
140
0.25
141
12.0
290
     0
  0
SCALE
  5
3E9D
102
{ACAD_REACTORS
330
3E93
102
}
330
3E93
100
AcDbScale
 70
     0
300
3/8" = 1'-0"
140
0.375
141
12.0
290
     0
  0
SCALE
  5
3E9E
102
{ACAD_REACTORS
330
3E93
102
}
330
3E93
100
AcDbScale
 70
     0
300
1/2" = 1'-0"
140
0.5
141
12.0
290
     0
  0
SCALE
  5
3E9F
102
{ACAD_REACTORS
330
3E93
102
}
330
3E93
100
AcDbScale
 70
     0
300
3/4" = 1'-0"
140
0.75
141
12.0
290
     0
  0
SCALE
  5
3EA0
102
{ACAD_REACTORS
330
3E93
102
}
330
3E93
100
AcDbScale
 70
     0
300
1" = 1'-0"
140
1.0
141
12.0
290
     0
  0
SCALE
  5
3EA1
102
{ACAD_REACTORS
330
3E93
102
}
330
3E93
100
AcDbScale
 70
     0
300
1-1/2" = 1'-0"
140
1.5
141
12.0
290
     0
  0
SCALE
  5
3EA2
102
{ACAD_REACTORS
330
3E93
102
}
330
3E93
100
AcDbScale
 70
     0
300
3" = 1'-0"
140
3.0
141
12.0
290
     0
  0
SCALE
  5
3EA3
102
{ACAD_REACTORS
330
3E93
102
}
330
3E93
100
AcDbScale
 70
     0
300
6" = 1'-0"
140
6.0
141
12.0
290
     0
  0
SCALE
  5
3EA4
102
{ACAD_REACTORS
330
3E93
102
}
330
3E93
100
AcDbScale
 70
     0
300
1'-0" = 1'-0"
140
12.0
141
12.0
290
     0
  0
ACDBSECTIONVIEWSTYLE
  5
3EA9
102
{ACAD_REACTORS
330
3EA7
102
}
330
3EA7
100
AcDbModelDocViewStyle
 70
     0
  3
Imperial24
290
     0
100
AcDbSectionViewStyle
 70
     0
 71
     0
 90
       78
 71
     1
340
F
 62
   256
 40
0.24
340
0
340
0
 62
   256
 40
0.24
300
I, O, Q, S, X, Z
 40
0.48
 90
        3
 40
0.18
 90
        1
 71
     2
340
3EA8
 90
       25
 62
   256
340
14
 90
       50
 62
   256
 40
0.24
 40
0.0
 40
0.24
 71
     3
340
F
 62
   256
 40
0.24
 90
        1
 40
0.75
 90
        1
300
%<\AcVar ViewType \f "%tc1">% %<\AcVar ViewSectionStartId>%-%<\AcVar ViewSectionEndId>%\PMĚŘÍTKO %<\AcVar ViewScale \f "%sn">%
 71
     4
 62
   256
 62
   257
300
ANSI31
 40
1.0
 90
        0
290
     0
290
     0
 90
        6
 40
0.0
 40
1.570796326794896
 40
0.2617993877991494
 40
1.308996938995747
 40
-0.2617993877991494
 40
1.832595714594046
  0
TABLESTYLE
  5
3E92
102
{ACAD_XDICTIONARY
360
3F9D
102
}
102
{ACAD_REACTORS
330
3E91
102
}
330
3E91
100
AcDbTableStyle
  3
Standard
 70
     0
 71
     0
 40
0.06
 41
0.06
280
     0
281
     0
  7
STANDARD
140
0.18
170
     2
 62
     0
 63
     7
283
     0
274
    -2
284
     1
 64
     0
275
    -2
285
     1
 65
     0
276
    -2
286
     1
 66
     0
277
    -2
287
     1
 67
     0
278
    -2
288
     1
 68
     0
279
    -2
289
     1
 69
     0
  7
STANDARD
140
0.25
170
     5
 62
     0
 63
     7
283
     0
274
    -2
284
     1
 64
     0
275
    -2
285
     1
 65
     0
276
    -2
286
     1
 66
     0
277
    -2
287
     1
 67
     0
278
    -2
288
     1
 68
     0
279
    -2
289
     1
 69
     0
  7
STANDARD
140
0.18
170
     5
 62
     0
 63
     7
283
     0
274
    -2
284
     1
 64
     0
275
    -2
285
     1
 65
     0
276
    -2
286
     1
 66
     0
277
    -2
287
     1
 67
     0
278
    -2
288
     1
 68
     0
279
    -2
289
     1
 69
     0
  0
VISUALSTYLE
  5
3E7D
102
{ACAD_XDICTIONARY
360
3FB5
102
}
102
{ACAD_REACTORS
330
3E77
102
}
330
3E77
100
AcDbVisualStyle
  2
2dWireframe
 70
     4
 71
     0
 72
     2
 73
     0
 90
        0
 40
-0.6
 41
-30.0
 62
     5
 63
     7
421
 16777215
 74
     1
 91
        4
 64
     7
 65
   257
 75
     1
175
     1
 42
1.0
 92
        0
 66
   257
 43
1.0
 76
     1
 77
     6
 78
     2
 67
     7
 79
     5
170
     0
171
     0
290
     0
174
     0
 93
        1
 44
0.0
173
     0
291
     0
 45
0.0
1001
ACAD
1000
AcDbSavedByObjectVersion
1070
     0
  0
VISUALSTYLE
  5
3E7C
102
{ACAD_XDICTIONARY
360
3FB3
102
}
102
{ACAD_REACTORS
330
3E77
102
}
330
3E77
100
AcDbVisualStyle
  2
Basic
 70
     7
 71
     1
 72
     0
 73
     1
 90
        0
 40
-0.6
 41
-30.0
 62
     5
 63
     7
421
 16777215
 74
     0
 91
        4
 64
     7
 65
   257
 75
     1
175
     1
 42
1.0
 92
        8
 66
     7
 43
1.0
 76
     1
 77
     6
 78
     2
 67
     7
 79
     5
170
     0
171
     0
290
     0
174
     0
 93
        1
 44
0.0
173
     0
291
     1
 45
0.0
1001
ACAD
1000
AcDbSavedByObjectVersion
1070
     0
  0
VISUALSTYLE
  5
3E83
102
{ACAD_XDICTIONARY
360
3FC1
102
}
102
{ACAD_REACTORS
330
3E77
102
}
330
3E77
100
AcDbVisualStyle
  2
Brighten
 70
    12
 71
     2
 72
     2
 73
     0
 90
        0
 40
-0.6
 41
-30.0
 62
     5
 63
     7
421
 16777215
 74
     1
 91
        4
 64
     7
 65
   257
 75
     1
175
     1
 42
1.0
 92
        8
 66
     7
 43
1.0
 76
     1
 77
     6
 78
     2
 67
     7
 79
     5
170
     0
171
     0
290
     0
174
     0
 93
        1
 44
50.0
173
     0
291
     1
 45
0.0
1001
ACAD
1000
AcDbSavedByObjectVersion
1070
     0
  0
VISUALSTYLE
  5
3E87
102
{ACAD_XDICTIONARY
360
3FC9
102
}
102
{ACAD_REACTORS
330
3E77
102
}
330
3E77
100
AcDbVisualStyle
  2
ColorChange
 70
    16
 71
     2
 72
     2
 73
     3
 90
        0
 40
-0.6
 41
-30.0
 62
     5
 63
     8
421
  8421504
 74
     1
 91
        4
 64
     7
 65
   257
 75
     1
175
     1
 42
1.0
 92
        8
 66
     8
424
  8421504
 43
1.0
 76
     1
 77
     6
 78
     2
 67
     7
 79
     5
170
     0
171
     0
290
     0
174
     0
 93
        1
 44
0.0
173
     0
291
     1
 45
0.0
1001
ACAD
1000
AcDbSavedByObjectVersion
1070
     0
  0
VISUALSTYLE
  5
3E80
102
{ACAD_XDICTIONARY
360
3FBB
102
}
102
{ACAD_REACTORS
330
3E77
102
}
330
3E77
100
AcDbVisualStyle
  2
Conceptual
 70
     9
 71
     3
 72
     2
 73
     0
 90
        0
 40
-0.6
 41
-30.0
 62
     5
 63
     7
421
 16777215
 74
     2
 91
        2
 64
     7
 65
   257
 75
     1
175
     1
 42
179.0
 92
        8
 66
     7
 43
1.0
 76
     1
 77
     6
 78
     2
 67
     7
 79
     3
170
     0
171
     0
290
     0
174
     0
 93
        1
 44
0.0
173
     0
291
     0
 45
0.0
1001
ACAD
1000
AcDbSavedByObjectVersion
1070
     0
  0
VISUALSTYLE
  5
3E82
102
{ACAD_XDICTIONARY
360
3FBF
102
}
102
{ACAD_REACTORS
330
3E77
102
}
330
3E77
100
AcDbVisualStyle
  2
Dim
 70
    11
 71
     2
 72
     2
 73
     0
 90
        0
 40
-0.6
 41
-30.0
 62
     5
 63
     7
421
 16777215
 74
     1
 91
        4
 64
     7
 65
   257
 75
     1
175
     1
 42
1.0
 92
        8
 66
     7
 43
1.0
 76
     1
 77
     6
 78
     2
 67
     7
 79
     5
170
     0
171
     0
290
     0
174
     0
 93
        1
 44
-50.0
173
     0
291
     1
 45
0.0
1001
ACAD
1000
AcDbSavedByObjectVersion
1070
     0
  0
VISUALSTYLE
  5
3E8F
102
{ACAD_XDICTIONARY
360
3FD9
102
}
102
{ACAD_REACTORS
330
3E77
102
}
330
3E77
100
AcDbVisualStyle
  2
EdgeColorOff
 70
    22
 71
     2
 72
     2
 73
     0
 90
        0
 40
-0.6
 41
-30.0
 62
     5
 63
     7
421
 16777215
 74
     1
 91
        4
 64
     7
 65
   257
 75
     1
175
     1
 42
1.0
 92
        8
 66
     7
 43
1.0
 76
     1
 77
     6
 78
     2
 67
     7
 79
     5
170
     0
171
     0
290
     0
174
     0
 93
        1
 44
0.0
173
     0
291
     1
 45
0.0
1001
ACAD
1000
AcDbSavedByObjectVersion
1070
     0
  0
VISUALSTYLE
  5
3E86
102
{ACAD_XDICTIONARY
360
3FC7
102
}
102
{ACAD_REACTORS
330
3E77
102
}
330
3E77
100
AcDbVisualStyle
  2
Facepattern
 70
    15
 71
     2
 72
     2
 73
     0
 90
        0
 40
-0.6
 41
-30.0
 62
     5
 63
     7
421
 16777215
 74
     1
 91
        4
 64
     7
 65
   257
 75
     1
175
     1
 42
1.0
 92
        8
 66
     7
 43
1.0
 76
     1
 77
     6
 78
     2
 67
     7
 79
     5
170
     0
171
     0
290
     0
174
     0
 93
        1
 44
0.0
173
     0
291
     1
 45
0.0
1001
ACAD
1000
AcDbSavedByObjectVersion
1070
     0
  0
VISUALSTYLE
  5
3E78
102
{ACAD_XDICTIONARY
360
3FAB
102
}
102
{ACAD_REACTORS
330
3E77
102
}
330
3E77
100
AcDbVisualStyle
  2
Flat
 70
     0
 71
     2
 72
     1
 73
     1
 90
        2
 40
-0.6
 41
30.0
 62
     5
 63
     7
421
 16777215
 74
     0
 91
        0
 64
     7
 65
   257
 75
     1
175
     1
 42
1.0
 92
        8
 66
     7
 43
1.0
 76
     1
 77
     6
 78
     2
 67
     7
 79
     5
170
     0
171
     0
290
     0
174
     0
 93
       13
 44
0.0
173
     0
291
     1
 45
0.0
1001
ACAD
1000
AcDbSavedByObjectVersion
1070
     0
  0
VISUALSTYLE
  5
3E79
102
{ACAD_XDICTIONARY
360
3FAD
102
}
102
{ACAD_REACTORS
330
3E77
102
}
330
3E77
100
AcDbVisualStyle
  2
FlatWithEdges
 70
     1
 71
     2
 72
     1
 73
     1
 90
        2
 40
-0.6
 41
30.0
 62
     5
 63
     7
421
 16777215
 74
     1
 91
        0
 64
     7
 65
   257
 75
     1
175
     1
 42
1.0
 92
        0
 66
   257
 43
1.0
 76
     1
 77
     6
 78
     2
 67
     7
 79
     5
170
     0
171
     0
290
     0
174
     0
 93
       13
 44
0.0
173
     0
291
     1
 45
0.0
1001
ACAD
1000
AcDbSavedByObjectVersion
1070
     0
  0
VISUALSTYLE
  5
3E7A
102
{ACAD_XDICTIONARY
360
3FAF
102
}
102
{ACAD_REACTORS
330
3E77
102
}
330
3E77
100
AcDbVisualStyle
  2
Gouraud
 70
     2
 71
     2
 72
     2
 73
     1
 90
        2
 40
-0.6
 41
30.0
 62
     5
 63
     7
421
 16777215
 74
     0
 91
        0
 64
     7
 65
   257
 75
     1
175
     1
 42
1.0
 92
        0
 66
     7
 43
1.0
 76
     1
 77
     6
 78
     2
 67
     7
 79
     5
170
     0
171
     0
290
     0
174
     0
 93
       13
 44
0.0
173
     0
291
     1
 45
0.0
1001
ACAD
1000
AcDbSavedByObjectVersion
1070
     0
  0
VISUALSTYLE
  5
3E7B
102
{ACAD_XDICTIONARY
360
3FB1
102
}
102
{ACAD_REACTORS
330
3E77
102
}
330
3E77
100
AcDbVisualStyle
  2
GouraudWithEdges
 70
     3
 71
     2
 72
     2
 73
     1
 90
        2
 40
-0.6
 41
30.0
 62
     5
 63
     7
421
 16777215
 74
     1
 91
        0
 64
     7
 65
   257
 75
     1
175
     1
 42
1.0
 92
        0
 66
   257
 43
1.0
 76
     1
 77
     6
 78
     2
 67
     7
 79
     5
170
     0
171
     0
290
     0
174
     0
 93
       13
 44
0.0
173
     0
291
     1
 45
0.0
1001
ACAD
1000
AcDbSavedByObjectVersion
1070
     0
  0
VISUALSTYLE
  5
3E7F
102
{ACAD_XDICTIONARY
360
3FB9
102
}
102
{ACAD_REACTORS
330
3E77
102
}
330
3E77
100
AcDbVisualStyle
  2
Hidden
 70
     6
 71
     1
 72
     2
 73
     2
 90
        0
 40
-0.6
 41
-30.0
 62
     5
 63
     7
421
 16777215
 74
     2
 91
        2
 64
     7
 65
   257
 75
     2
175
     1
 42
40.0
 92
        0
 66
   257
 43
1.0
 76
     1
 77
     6
 78
     2
 67
     7
 79
     3
170
     0
171
     0
290
     0
174
     0
 93
        1
 44
0.0
173
     0
291
     0
 45
0.0
1001
ACAD
1000
AcDbSavedByObjectVersion
1070
     0
  0
VISUALSTYLE
  5
3E8D
102
{ACAD_XDICTIONARY
360
3FD5
102
}
102
{ACAD_REACTORS
330
3E77
102
}
330
3E77
100
AcDbVisualStyle
  2
JitterOff
 70
    20
 71
     2
 72
     2
 73
     0
 90
        0
 40
-0.6
 41
-30.0
 62
     5
 63
     7
421
 16777215
 74
     1
 91
        4
 64
     7
 65
   257
 75
     1
175
     1
 42
1.0
 92
       10
 66
     7
 43
1.0
 76
     1
 77
     6
 78
     2
 67
     7
 79
     5
170
     0
171
     0
290
     0
174
     0
 93
        1
 44
0.0
173
     0
291
     1
 45
0.0
1001
ACAD
1000
AcDbSavedByObjectVersion
1070
     0
  0
VISUALSTYLE
  5
3E85
102
{ACAD_XDICTIONARY
360
3FC5
102
}
102
{ACAD_REACTORS
330
3E77
102
}
330
3E77
100
AcDbVisualStyle
  2
Linepattern
 70
    14
 71
     2
 72
     2
 73
     0
 90
        0
 40
-0.6
 41
-30.0
 62
     5
 63
     7
421
 16777215
 74
     1
 91
        4
 64
     7
 65
   257
 75
     7
175
     7
 42
1.0
 92
        8
 66
     7
 43
1.0
 76
     1
 77
     6
 78
     2
 67
     7
 79
     5
170
     0
171
     0
290
     0
174
     0
 93
        1
 44
0.0
173
     0
291
     1
 45
0.0
1001
ACAD
1000
AcDbSavedByObjectVersion
1070
     0
  0
VISUALSTYLE
  5
3E8E
102
{ACAD_XDICTIONARY
360
3FD7
102
}
102
{ACAD_REACTORS
330
3E77
102
}
330
3E77
100
AcDbVisualStyle
  2
OverhangOff
 70
    21
 71
     2
 72
     2
 73
     0
 90
        0
 40
-0.6
 41
-30.0
 62
     5
 63
     7
421
 16777215
 74
     1
 91
        4
 64
     7
 65
   257
 75
     1
175
     1
 42
1.0
 92
        9
 66
     7
 43
1.0
 76
     1
 77
     6
 78
     2
 67
     7
 79
     5
170
     0
171
     0
290
     0
174
     0
 93
        1
 44
0.0
173
     0
291
     1
 45
0.0
1001
ACAD
1000
AcDbSavedByObjectVersion
1070
     0
  0
VISUALSTYLE
  5
3E81
102
{ACAD_XDICTIONARY
360
3FBD
102
}
102
{ACAD_REACTORS
330
3E77
102
}
330
3E77
100
AcDbVisualStyle
  2
Realistic
 70
     8
 71
     2
 72
     3
 73
     0
 90
        2
 40
-0.6
 41
30.0
 62
     5
 63
     7
421
 16777215
 74
     0
 91
        0
 64
     7
 65
   257
 75
     1
175
     1
 42
1.0
 92
        8
 66
   257
 43
1.0
 76
     1
 77
     6
 78
     2
 67
     7
 79
     3
170
     0
171
     0
290
     0
174
     0
 93
       13
 44
0.0
173
     0
291
     0
 45
0.0
1001
ACAD
1000
AcDbSavedByObjectVersion
1070
     0
  0
VISUALSTYLE
  5
3E8C
102
{ACAD_XDICTIONARY
360
3FD3
102
}
102
{ACAD_REACTORS
330
3E77
102
}
330
3E77
100
AcDbVisualStyle
  2
Shaded
 70
    27
 71
     2
 72
     2
 73
     1
 90
        2
 40
-0.6
 41
30.0
 62
     5
 63
     7
421
 16777215
 74
     0
 91
        4
 64
     7
 65
   257
 75
     1
175
     1
 42
1.0
 92
        8
 66
   257
 43
1.0
 76
     1
 77
     6
 78
     2
 67
     8
425
  7895160
 79
     3
170
     0
171
     0
290
     0
174
     0
 93
        5
 44
0.0
173
     0
291
     0
 45
0.0
1001
ACAD
1000
AcDbSavedByObjectVersion
1070
     0
  0
VISUALSTYLE
  5
3E8B
102
{ACAD_XDICTIONARY
360
3FD1
102
}
102
{ACAD_REACTORS
330
3E77
102
}
330
3E77
100
AcDbVisualStyle
  2
Shaded with edges
 70
    26
 71
     2
 72
     2
 73
     1
 90
        2
 40
-0.6
 41
30.0
 62
     5
 63
     7
421
 16777215
 74
     1
 91
       10
 64
     7
 65
   257
 75
     2
175
     1
 42
1.0
 92
        8
 66
   257
 43
1.0
 76
     1
 77
     6
 78
     2
 67
     7
 79
     3
170
     0
171
     0
290
     0
174
     0
 93
        5
 44
0.0
173
     0
291
     0
 45
0.0
1001
ACAD
1000
AcDbSavedByObjectVersion
1070
     0
  0
VISUALSTYLE
  5
3E88
102
{ACAD_XDICTIONARY
360
3FCB
102
}
102
{ACAD_REACTORS
330
3E77
102
}
330
3E77
100
AcDbVisualStyle
  2
Shades of Gray
 70
    23
 71
     2
 72
     2
 73
     3
 90
        0
 40
-0.6
 41
-30.0
 62
     5
 63
     7
421
 16777215
 74
     2
 91
        2
 64
     7
 65
     7
 75
     1
175
     1
 42
40.0
 92
        8
 66
     7
 43
1.0
 76
     1
 77
     6
 78
     2
 67
     7
 79
     3
170
     0
171
     0
290
     0
174
     0
 93
        1
 44
0.0
173
     0
291
     0
 45
0.0
1001
ACAD
1000
AcDbSavedByObjectVersion
1070
     0
  0
VISUALSTYLE
  5
3E89
102
{ACAD_XDICTIONARY
360
3FCD
102
}
102
{ACAD_REACTORS
330
3E77
102
}
330
3E77
100
AcDbVisualStyle
  2
Sketchy
 70
    24
 71
     1
 72
     2
 73
     2
 90
        0
 40
-0.6
 41
-30.0
 62
     5
 63
     7
421
 16777215
 74
     2
 91
        2
 64
     7
 65
     7
 75
     1
175
     1
 42
40.0
 92
       11
 66
     7
 43
1.0
 76
     1
 77
     6
 78
     2
 67
     7
 79
     6
170
     0
171
     0
290
     0
174
     0
 93
        1
 44
0.0
173
     0
291
     0
 45
0.0
1001
ACAD
1000
AcDbSavedByObjectVersion
1070
     0
  0
VISUALSTYLE
  5
3E84
102
{ACAD_XDICTIONARY
360
3FC3
102
}
102
{ACAD_REACTORS
330
3E77
102
}
330
3E77
100
AcDbVisualStyle
  2
Thicken
 70
    13
 71
     2
 72
     2
 73
     0
 90
        0
 40
-0.6
 41
-30.0
 62
     5
 63
     7
421
 16777215
 74
     1
 91
        4
 64
     7
 65
   257
 75
     1
175
     1
 42
1.0
 92
       12
 66
     7
 43
1.0
 76
     1
 77
     6
 78
     2
 67
     7
 79
     5
170
     0
171
     0
290
     0
174
     0
 93
        1
 44
0.0
173
     0
291
     1
 45
0.0
1001
ACAD
1000
AcDbSavedByObjectVersion
1070
     0
  0
VISUALSTYLE
  5
3E7E
102
{ACAD_XDICTIONARY
360
3FB7
102
}
102
{ACAD_REACTORS
330
3E77
102
}
330
3E77
100
AcDbVisualStyle
  2
Wireframe
 70
     5
 71
     0
 72
     2
 73
     0
 90
        0
 40
-0.6
 41
-30.0
 62
     5
 63
     7
421
 16777215
 74
     1
 91
        4
 64
     7
 65
   257
 75
     1
175
     1
 42
1.0
 92
        0
 66
   257
 43
1.0
 76
     1
 77
     6
 78
     2
 67
     7
 79
     3
170
     0
171
     0
290
     0
174
     0
 93
        1
 44
0.0
173
     0
291
     0
 45
0.0
1001
ACAD
1000
AcDbSavedByObjectVersion
1070
     0
  0
VISUALSTYLE
  5
3E8A
102
{ACAD_XDICTIONARY
360
3FCF
102
}
102
{ACAD_REACTORS
330
3E77
102
}
330
3E77
100
AcDbVisualStyle
  2
X-Ray
 70
    25
 71
     2
 72
     2
 73
     1
 90
        1
 40
0.5
 41
-30.0
 62
     5
 63
     7
421
 16777215
 74
     1
 91
        0
 64
     7
 65
   257
 75
     1
175
     1
 42
1.0
 92
        8
 66
     7
 43
1.0
 76
     1
 77
     6
 78
     2
 67
     7
 79
     3
170
     0
171
     0
290
     0
174
     0
 93
       13
 44
0.0
173
     0
291
     0
 45
0.0
1001
ACAD
1000
AcDbSavedByObjectVersion
1070
     0
  0
DICTIONARYVAR
  5
3F38
102
{ACAD_REACTORS
330
7F0
102
}
330
7F0
100
DictionaryVariables
280
     0
  1
1:1
  0
DICTIONARYVAR
  5
3F34
102
{ACAD_REACTORS
330
7F0
102
}
330
7F0
100
DictionaryVariables
280
     0
  1
STANDARD
  0
DICTIONARYVAR
  5
3F33
102
{ACAD_REACTORS
330
7F0
102
}
330
7F0
100
DictionaryVariables
280
     0
  1
STANDARD
  0
DICTIONARYVAR
  5
3F35
102
{ACAD_REACTORS
330
7F0
102
}
330
7F0
100
DictionaryVariables
280
     0
  1
Imperial24
  0
DICTIONARYVAR
  5
3F36
102
{ACAD_REACTORS
330
7F0
102
}
330
7F0
100
DictionaryVariables
280
     0
  1
Imperial24
  0
DICTIONARYVAR
  5
1C46
102
{ACAD_REACTORS
330
7F0
102
}
330
7F0
100
DictionaryVariables
280
     0
  1
1
  0
DICTIONARYVAR
  5
3F3A
102
{ACAD_REACTORS
330
7F0
102
}
330
7F0
100
DictionaryVariables
280
     0
  1
1
  0
DICTIONARYVAR
  5
3F3B
102
{ACAD_REACTORS
330
7F0
102
}
330
7F0
100
DictionaryVariables
280
     0
  1
15
  0
DICTIONARYVAR
  5
3F39
102
{ACAD_REACTORS
330
7F0
102
}
330
7F0
100
DictionaryVariables
280
     0
  1
0
  0
DICTIONARYVAR
  5
3F37
102
{ACAD_REACTORS
330
7F0
102
}
330
7F0
100
DictionaryVariables
280
     0
  1
0
  0
DICTIONARYVAR
  5
7F1
102
{ACAD_REACTORS
330
7F0
102
}
330
7F0
100
DictionaryVariables
280
     0
  1
96
  0
DICTIONARYVAR
  5
3F9C
102
{ACAD_REACTORS
330
7F0
102
}
330
7F0
100
DictionaryVariables
280
     0
  1
2
  0
DICTIONARY
  5
3FA7
102
{ACAD_REACTORS
330
3FA5
102
}
330
3FA5
100
AcDbDictionary
281
     1
  0
DICTIONARY
  5
3FA6
102
{ACAD_REACTORS
330
3FA5
102
}
330
3FA5
100
AcDbDictionary
281
     1
  3
140695674240000
350
3FA0
  3
140695674240016
350
3FA1
  3
140695674240032
350
3FA2
  3
140695674240048
350
3FA3
  3
140695674240064
350
3FA4
  0
DICTIONARY
  5
3E68
330
3E67
100
AcDbDictionary
280
     1
281
     1
  3
ACAD_XREC_ROUNDTRIP
360
3FA9
  3
BUMPTILE
360
3E6A
  3
DIFFUSETILE
360
3E69
  3
OPACITYTILE
360
3E6D
  3
REFLECTIONTILE
360
3E6C
  3
REFRACTIONTILE
360
3E6E
  3
SPECULARTILE
360
3E6B
  0
DICTIONARY
  5
3E60
330
3E5F
100
AcDbDictionary
280
     1
281
     1
  3
ACAD_XREC_ROUNDTRIP
360
3FA8
  3
BUMPTILE
360
3E62
  3
DIFFUSETILE
360
3E61
  3
OPACITYTILE
360
3E65
  3
REFLECTIONTILE
360
3E64
  3
REFRACTIONTILE
360
3E66
  3
SPECULARTILE
360
3E63
  0
DICTIONARY
  5
3E70
330
3E6F
100
AcDbDictionary
280
     1
281
     1
  3
ACAD_XREC_ROUNDTRIP
360
3FAA
  3
BUMPTILE
360
3E72
  3
DIFFUSETILE
360
3E71
  3
OPACITYTILE
360
3E75
  3
REFLECTIONTILE
360
3E74
  3
REFRACTIONTILE
360
3E76
  3
SPECULARTILE
360
3E73
  0
DICTIONARY
  5
3FDD
330
3EA6
100
AcDbDictionary
280
     1
281
     1
  3
ACAD_XREC_ROUNDTRIP
360
3FDE
  0
DICTIONARY
  5
3F9D
330
3E92
100
AcDbDictionary
280
     1
281
     1
  3
ACAD_ROUNDTRIP_2008_TABLESTYLE_CELLSTYLEMAP
360
3F9E
  3
ACAD_XREC_ROUNDTRIP
360
3FDB
  0
DICTIONARY
  5
3FB5
330
3E7D
100
AcDbDictionary
280
     1
281
     1
  3
ACAD_XREC_ROUNDTRIP
360
3FB6
  0
DICTIONARY
  5
3FB3
330
3E7C
100
AcDbDictionary
280
     1
281
     1
  3
ACAD_XREC_ROUNDTRIP
360
3FB4
  0
DICTIONARY
  5
3FC1
330
3E83
100
AcDbDictionary
280
     1
281
     1
  3
ACAD_XREC_ROUNDTRIP
360
3FC2
  0
DICTIONARY
  5
3FC9
330
3E87
100
AcDbDictionary
280
     1
281
     1
  3
ACAD_XREC_ROUNDTRIP
360
3FCA
  0
DICTIONARY
  5
3FBB
330
3E80
100
AcDbDictionary
280
     1
281
     1
  3
ACAD_XREC_ROUNDTRIP
360
3FBC
  0
DICTIONARY
  5
3FBF
330
3E82
100
AcDbDictionary
280
     1
281
     1
  3
ACAD_XREC_ROUNDTRIP
360
3FC0
  0
DICTIONARY
  5
3FD9
330
3E8F
100
AcDbDictionary
280
     1
281
     1
  3
ACAD_XREC_ROUNDTRIP
360
3FDA
  0
DICTIONARY
  5
3FC7
330
3E86
100
AcDbDictionary
280
     1
281
     1
  3
ACAD_XREC_ROUNDTRIP
360
3FC8
  0
DICTIONARY
  5
3FAB
330
3E78
100
AcDbDictionary
280
     1
281
     1
  3
ACAD_XREC_ROUNDTRIP
360
3FAC
  0
DICTIONARY
  5
3FAD
330
3E79
100
AcDbDictionary
280
     1
281
     1
  3
ACAD_XREC_ROUNDTRIP
360
3FAE
  0
DICTIONARY
  5
3FAF
330
3E7A
100
AcDbDictionary
280
     1
281
     1
  3
ACAD_XREC_ROUNDTRIP
360
3FB0
  0
DICTIONARY
  5
3FB1
330
3E7B
100
AcDbDictionary
280
     1
281
     1
  3
ACAD_XREC_ROUNDTRIP
360
3FB2
  0
DICTIONARY
  5
3FB9
330
3E7F
100
AcDbDictionary
280
     1
281
     1
  3
ACAD_XREC_ROUNDTRIP
360
3FBA
  0
DICTIONARY
  5
3FD5
330
3E8D
100
AcDbDictionary
280
     1
281
     1
  3
ACAD_XREC_ROUNDTRIP
360
3FD6
  0
DICTIONARY
  5
3FC5
330
3E85
100
AcDbDictionary
280
     1
281
     1
  3
ACAD_XREC_ROUNDTRIP
360
3FC6
  0
DICTIONARY
  5
3FD7
330
3E8E
100
AcDbDictionary
280
     1
281
     1
  3
ACAD_XREC_ROUNDTRIP
360
3FD8
  0
DICTIONARY
  5
3FBD
330
3E81
100
AcDbDictionary
280
     1
281
     1
  3
ACAD_XREC_ROUNDTRIP
360
3FBE
  0
DICTIONARY
  5
3FD3
330
3E8C
100
AcDbDictionary
280
     1
281
     1
  3
ACAD_XREC_ROUNDTRIP
360
3FD4
  0
DICTIONARY
  5
3FD1
330
3E8B
100
AcDbDictionary
280
     1
281
     1
  3
ACAD_XREC_ROUNDTRIP
360
3FD2
  0
DICTIONARY
  5
3FCB
330
3E88
100
AcDbDictionary
280
     1
281
     1
  3
ACAD_XREC_ROUNDTRIP
360
3FCC
  0
DICTIONARY
  5
3FCD
330
3E89
100
AcDbDictionary
280
     1
281
     1
  3
ACAD_XREC_ROUNDTRIP
360
3FCE
  0
DICTIONARY
  5
3FC3
330
3E84
100
AcDbDictionary
280
     1
281
     1
  3
ACAD_XREC_ROUNDTRIP
360
3FC4
  0
DICTIONARY
  5
3FB7
330
3E7E
100
AcDbDictionary
280
     1
281
     1
  3
ACAD_XREC_ROUNDTRIP
360
3FB8
  0
DICTIONARY
  5
3FCF
330
3E8A
100
AcDbDictionary
280
     1
281
     1
  3
ACAD_XREC_ROUNDTRIP
360
3FD0
  0
XRECORD
  5
3FA0
102
{ACAD_REACTORS
330
3FA6
102
}
330
3FA6
100
AcDbXrecord
280
     1
  1
AcDb_Thumbnail_Schema
102
{ATTRRECORD
341
3FA1
  2
AcDbDs::TreatedAsObjectData
280
     1
291
     1
102
ATTRRECORD}
102
{ATTRRECORD
341
3FA2
  2
AcDbDs::Legacy
280
     1
291
     1
102
ATTRRECORD}
  2
AcDbDs::ID
280
    10
 91
        8
102
{ATTRRECORD
341
3FA3
  2
AcDs:Indexable
280
     1
291
     1
102
ATTRRECORD}
102
{ATTRRECORD
341
3FA4
  2
AcDbDs::HandleAttribute
280
     7
282
     1
102
ATTRRECORD}
  2
Thumbnail_Data
280
    15
 91
        0
  0
XRECORD
  5
3FA1
102
{ACAD_REACTORS
330
3FA6
102
}
330
3FA6
100
AcDbXrecord
280
     1
  1
AcDbDs::TreatedAsObjectDataSchema
  2
AcDbDs::TreatedAsObjectData
280
     1
 91
        0
  0
XRECORD
  5
3FA2
102
{ACAD_REACTORS
330
3FA6
102
}
330
3FA6
100
AcDbXrecord
280
     1
  1
AcDbDs::LegacySchema
  2
AcDbDs::Legacy
280
     1
 91
        0
  0
XRECORD
  5
3FA3
102
{ACAD_REACTORS
330
3FA6
102
}
330
3FA6
100
AcDbXrecord
280
     1
  1
AcDbDs::IndexedPropertySchema
  2
AcDs:Indexable
280
     1
 91
        0
  0
XRECORD
  5
3FA4
102
{ACAD_REACTORS
330
3FA6
102
}
330
3FA6
100
AcDbXrecord
280
     1
  1
AcDbDs::HandleAttributeSchema
  2
AcDbDs::HandleAttribute
280
     7
 91
        1
284
     1
  0
XRECORD
  5
3FA9
102
{ACAD_REACTORS
330
3E68
102
}
330
3E68
100
AcDbXrecord
280
     1
102
MATERIAL
148
0.0
149
0.0
149
0.0
 93
        0
 94
      127
282
     0
 72
     0
 77
     0
171
     0
175
     0
179
     0
273
     0
  0
XRECORD
  5
3E6A
102
{ACAD_REACTORS
330
3E68
102
}
330
3E68
100
AcDbXrecord
280
     1
270
     1
271
     1
  0
XRECORD
  5
3E69
102
{ACAD_REACTORS
330
3E68
102
}
330
3E68
100
AcDbXrecord
280
     1
270
     1
271
     1
  0
XRECORD
  5
3E6D
102
{ACAD_REACTORS
330
3E68
102
}
330
3E68
100
AcDbXrecord
280
     1
270
     1
271
     1
  0
XRECORD
  5
3E6C
102
{ACAD_REACTORS
330
3E68
102
}
330
3E68
100
AcDbXrecord
280
     1
270
     1
271
     1
  0
XRECORD
  5
3E6E
102
{ACAD_REACTORS
330
3E68
102
}
330
3E68
100
AcDbXrecord
280
     1
270
     1
271
     1
  0
XRECORD
  5
3E6B
102
{ACAD_REACTORS
330
3E68
102
}
330
3E68
100
AcDbXrecord
280
     1
270
     1
271
     1
  0
XRECORD
  5
3FA8
102
{ACAD_REACTORS
330
3E60
102
}
330
3E60
100
AcDbXrecord
280
     1
102
MATERIAL
148
0.0
149
0.0
149
0.0
 93
        0
 94
      127
282
     0
 72
     0
 77
     0
171
     0
175
     0
179
     0
273
     0
  0
XRECORD
  5
3E62
102
{ACAD_REACTORS
330
3E60
102
}
330
3E60
100
AcDbXrecord
280
     1
270
     1
271
     1
  0
XRECORD
  5
3E61
102
{ACAD_REACTORS
330
3E60
102
}
330
3E60
100
AcDbXrecord
280
     1
270
     1
271
     1
  0
XRECORD
  5
3E65
102
{ACAD_REACTORS
330
3E60
102
}
330
3E60
100
AcDbXrecord
280
     1
270
     1
271
     1
  0
XRECORD
  5
3E64
102
{ACAD_REACTORS
330
3E60
102
}
330
3E60
100
AcDbXrecord
280
     1
270
     1
271
     1
  0
XRECORD
  5
3E66
102
{ACAD_REACTORS
330
3E60
102
}
330
3E60
100
AcDbXrecord
280
     1
270
     1
271
     1
  0
XRECORD
  5
3E63
102
{ACAD_REACTORS
330
3E60
102
}
330
3E60
100
AcDbXrecord
280
     1
270
     1
271
     1
  0
XRECORD
  5
3FAA
102
{ACAD_REACTORS
330
3E70
102
}
330
3E70
100
AcDbXrecord
280
     1
102
MATERIAL
148
0.0
149
0.0
149
0.0
 93
        0
 94
      127
282
     0
 72
     0
 77
     0
171
     0
175
     0
179
     0
273
     0
  0
XRECORD
  5
3E72
102
{ACAD_REACTORS
330
3E70
102
}
330
3E70
100
AcDbXrecord
280
     1
270
     1
271
     1
  0
XRECORD
  5
3E71
102
{ACAD_REACTORS
330
3E70
102
}
330
3E70
100
AcDbXrecord
280
     1
270
     1
271
     1
  0
XRECORD
  5
3E75
102
{ACAD_REACTORS
330
3E70
102
}
330
3E70
100
AcDbXrecord
280
     1
270
     1
271
     1
  0
XRECORD
  5
3E74
102
{ACAD_REACTORS
330
3E70
102
}
330
3E70
100
AcDbXrecord
280
     1
270
     1
271
     1
  0
XRECORD
  5
3E76
102
{ACAD_REACTORS
330
3E70
102
}
330
3E70
100
AcDbXrecord
280
     1
270
     1
271
     1
  0
XRECORD
  5
3E73
102
{ACAD_REACTORS
330
3E70
102
}
330
3E70
100
AcDbXrecord
280
     1
270
     1
271
     1
  0
XRECORD
  5
3FDE
102
{ACAD_REACTORS
330
3FDD
102
}
330
3FDD
100
AcDbXrecord
280
     1
102
ACAD_ROUNDTRIP_2012_MLEADER_STYLE
298
     1
  0
CELLSTYLEMAP
  5
3F9E
102
{ACAD_REACTORS
330
3F9D
102
}
330
3F9D
100
AcDbCellStyleMap
 90
        3
300
CELLSTYLE
  1
TABLEFORMAT_BEGIN
 90
        5
170
     1
 91
        0
 92
    32768
 62
   257
 93
        1
300
CONTENTFORMAT
  1
CONTENTFORMAT_BEGIN
 90
        0
 91
        0
 92
      512
 93
        0
300

 40
0.0
140
1.0
 94
        5
 62
     0
340
F
144
0.25
309
CONTENTFORMAT_END
171
     0
 94
        0
309
TABLEFORMAT_END
  1
CELLSTYLE_BEGIN
 90
        1
 91
        1
300
_TITLE
309
CELLSTYLE_END
300
CELLSTYLE
  1
TABLEFORMAT_BEGIN
 90
        5
170
     1
 91
        0
 92
        0
 62
   257
 93
        1
300
CONTENTFORMAT
  1
CONTENTFORMAT_BEGIN
 90
        0
 91
        0
 92
      512
 93
        0
300

 40
0.0
140
1.0
 94
        5
 62
     0
340
F
144
0.18
309
CONTENTFORMAT_END
171
     0
 94
        0
309
TABLEFORMAT_END
  1
CELLSTYLE_BEGIN
 90
        2
 91
        1
300
_HEADER
309
CELLSTYLE_END
300
CELLSTYLE
  1
TABLEFORMAT_BEGIN
 90
        5
170
     1
 91
        0
 92
        0
 62
   257
 93
        1
300
CONTENTFORMAT
  1
CONTENTFORMAT_BEGIN
 90
        0
 91
        0
 92
      512
 93
        0
300

 40
0.0
140
1.0
 94
        2
 62
     0
340
F
144
0.18
309
CONTENTFORMAT_END
171
     0
 94
        0
309
TABLEFORMAT_END
  1
CELLSTYLE_BEGIN
 90
        3
 91
        2
300
_DATA
309
CELLSTYLE_END
  0
XRECORD
  5
3FDB
102
{ACAD_REACTORS
330
3F9D
102
}
330
3F9D
100
AcDbXrecord
280
     1
102
ACAD_ROUNDTRIP_PRE2007_TABLESTYLE
 90
      512
 91
        0
  1

 92
      512
 93
        0
  2

 94
      512
 95
        0
  3

  0
XRECORD
  5
3FB6
102
{ACAD_REACTORS
330
3FB5
102
}
330
3FB5
100
AcDbXrecord
280
     1
102
RTVSPost2010Prop28
280
     1
102
RTVSPost2010PropOp28
 70
     1
102
RTVSPost2010Prop29
280
     1
102
RTVSPost2010PropOp29
 70
     1
102
RTVSPost2010Prop30
280
     0
102
RTVSPost2010PropOp30
 70
     1
102
RTVSPost2010Prop31
280
     0
102
RTVSPost2010PropOp31
 70
     1
102
RTVSPost2010Prop32
280
     0
102
RTVSPost2010PropOp32
 70
     1
102
RTVSPost2010Prop33
280
     0
102
RTVSPost2010PropOp33
 70
     1
102
RTVSPost2010Prop34
280
     0
102
RTVSPost2010PropOp34
 70
     1
102
RTVSPost2010Prop35
280
     0
102
RTVSPost2010PropOp35
 70
     1
102
RTVSPost2010Prop36
280
     0
102
RTVSPost2010PropOp36
 70
     1
102
RTVSPost2010Prop37
 90
       50
102
RTVSPost2010PropOp37
 70
     1
102
RTVSPost2010Prop38
140
0.0
102
RTVSPost2010PropOp38
 70
     1
102
RTVSPost2010Prop39
140
1.0
102
RTVSPost2010PropOp39
 70
     1
102
RTVSPost2010Prop40
 90
        0
102
RTVSPost2010PropOp40
 70
     1
102
RTVSPost2010Prop41ColorIndex
 90
       18
102
RTVSPost2010Prop41ColorRGB
 90
        0
102
RTVSPost2010PropOp41
 70
     1
102
RTVSPost2010Prop42
 90
       50
102
RTVSPost2010PropOp42
 70
     1
102
RTVSPost2010Prop43
 90
        3
102
RTVSPost2010PropOp43
 70
     1
102
RTVSPost2010Prop44ColorIndex
 90
        5
102
RTVSPost2010Prop44ColorRGB
 90
      255
102
RTVSPost2010PropOp44
 70
     1
102
RTVSPost2010Prop45
280
     0
102
RTVSPost2010PropOp45
 70
     1
102
RTVSPost2010Prop46
 90
       50
102
RTVSPost2010PropOp46
 70
     1
102
RTVSPost2010Prop47
 90
       50
102
RTVSPost2010PropOp47
 70
     1
102
RTVSPost2010Prop48
 90
       50
102
RTVSPost2010PropOp48
 70
     1
102
RTVSPost2010Prop49
280
     0
102
RTVSPost2010PropOp49
 70
     1
102
RTVSPost2010Prop50
 90
       50
102
RTVSPost2010PropOp50
 70
     1
102
RTVSPost2010Prop51ColorIndex
 90
      256
102
RTVSPost2010Prop51ColorRGB
 90
-16777216
102
RTVSPost2010PropOp51
 70
     0
102
RTVSPost2010Prop52
140
1.0
102
RTVSPost2010PropOp52
 70
     0
102
RTVSPost2010Prop53
 90
        2
102
RTVSPost2010PropOp53
 70
     1
102
RTVSPost2010Prop54
  1
strokes_ogs.tif
102
RTVSPost2010PropOp54
 70
     1
102
RTVSPost2010Prop55
280
     0
102
RTVSPost2010PropOp55
 70
     1
102
RTVSPost2010Prop56
140
1.0
102
RTVSPost2010PropOp56
 70
     1
102
RTVSPost2010Prop57
140
1.0
102
RTVSPost2010PropOp57
 70
     1
102
RTVSPropertyOp0
 70
     1
102
RTVSPropertyOp1
 70
     1
102
RTVSPropertyOp2
 70
     1
102
RTVSPropertyOp3
 70
     1
102
RTVSPropertyOp4
 70
     1
102
RTVSPropertyOp5
 70
     1
102
RTVSPropertyOp6
 70
     1
102
RTVSPropertyOp7
 70
     1
102
RTVSPropertyOp8
 70
     1
102
RTVSPropertyOp9
 70
     1
102
RTVSPropertyOp10
 70
     1
102
RTVSPropertyOp11
 70
     1
102
RTVSPropertyOp12
 70
     1
102
RTVSPropertyOp13
 70
     1
102
RTVSPropertyOp14
 70
     1
102
RTVSPropertyOp15
 70
     1
102
RTVSPropertyOp16
 70
     1
102
RTVSPropertyOp17
 70
     1
102
RTVSPropertyOp18
 70
     1
102
RTVSPropertyOp19
 70
     1
102
RTVSPropertyOp20
 70
     1
102
RTVSPropertyOp21
 70
     1
102
RTVSPropertyOp22
 70
     1
102
RTVSPropertyOp23
 70
     1
102
RTVSPropertyOp24
 70
     1
102
RTVSPropertyOp25
 70
     1
102
RTVSPropertyOp26
 70
     1
102
RTVSPropertyOp27
 70
     1
102
RTVSPropertyOp28
 70
     1
102
RTVSPropertyOp29
 70
     1
102
RTVSPropertyOp30
 70
     1
102
RTVSPropertyOp31
 70
     1
102
RTVSPropertyOp32
 70
     1
102
RTVSPropertyOp33
 70
     1
102
RTVSPropertyOp34
 70
     1
102
RTVSPropertyOp35
 70
     1
102
RTVSPropertyOp36
 70
     1
102
RTVSPropertyOp37
 70
     1
102
RTVSPropertyOp38
 70
     1
102
RTVSPropertyOp39
 70
     1
102
RTVSPropertyOp40
 70
     1
102
RTVSPropertyOp41
 70
     1
102
RTVSPropertyOp42
 70
     1
102
RTVSPropertyOp43
 70
     1
102
RTVSPropertyOp44
 70
     1
102
RTVSPropertyOp45
 70
     1
102
RTVSPropertyOp46
 70
     1
102
RTVSPropertyOp47
 70
     1
102
RTVSPropertyOp48
 70
     1
102
RTVSPropertyOp49
 70
     1
102
RTVSPropertyOp50
 70
     1
102
RTVSPropertyOp51
 70
     0
102
RTVSPropertyOp52
 70
     0
102
RTVSPropertyOp53
 70
     1
102
RTVSPropertyOp54
 70
     1
102
RTVSPropertyOp55
 70
     1
102
RTVSPropertyOp56
 70
     1
102
RTVSPropertyOp57
 70
     1
102
RTVSPropertyOp58
 70
     1
102
RTVSPropertyOp59
 70
     1
102
RTVSPropertyOp60
 70
     1
102
RTVSPropertyOp61
 70
     1
102
RTVSPropertyOp62
 70
     1
  0
XRECORD
  5
3FB4
102
{ACAD_REACTORS
330
3FB3
102
}
330
3FB3
100
AcDbXrecord
280
     1
102
RTVSPost2010Prop28
280
     0
102
RTVSPost2010PropOp28
 70
     1
102
RTVSPost2010Prop29
280
     1
102
RTVSPost2010PropOp29
 70
     1
102
RTVSPost2010Prop30
280
     1
102
RTVSPost2010PropOp30
 70
     1
102
RTVSPost2010Prop31
280
     0
102
RTVSPost2010PropOp31
 70
     1
102
RTVSPost2010Prop32
280
     0
102
RTVSPost2010PropOp32
 70
     1
102
RTVSPost2010Prop33
280
     0
102
RTVSPost2010PropOp33
 70
     1
102
RTVSPost2010Prop34
280
     0
102
RTVSPost2010PropOp34
 70
     1
102
RTVSPost2010Prop35
280
     0
102
RTVSPost2010PropOp35
 70
     1
102
RTVSPost2010Prop36
280
     0
102
RTVSPost2010PropOp36
 70
     1
102
RTVSPost2010Prop37
 90
       50
102
RTVSPost2010PropOp37
 70
     1
102
RTVSPost2010Prop38
140
0.0
102
RTVSPost2010PropOp38
 70
     1
102
RTVSPost2010Prop39
140
1.0
102
RTVSPost2010PropOp39
 70
     1
102
RTVSPost2010Prop40
 90
        0
102
RTVSPost2010PropOp40
 70
     1
102
RTVSPost2010Prop41ColorIndex
 90
       18
102
RTVSPost2010Prop41ColorRGB
 90
        0
102
RTVSPost2010PropOp41
 70
     1
102
RTVSPost2010Prop42
 90
       50
102
RTVSPost2010PropOp42
 70
     1
102
RTVSPost2010Prop43
 90
        3
102
RTVSPost2010PropOp43
 70
     1
102
RTVSPost2010Prop44ColorIndex
 90
        5
102
RTVSPost2010Prop44ColorRGB
 90
      255
102
RTVSPost2010PropOp44
 70
     1
102
RTVSPost2010Prop45
280
     0
102
RTVSPost2010PropOp45
 70
     1
102
RTVSPost2010Prop46
 90
       50
102
RTVSPost2010PropOp46
 70
     1
102
RTVSPost2010Prop47
 90
       50
102
RTVSPost2010PropOp47
 70
     1
102
RTVSPost2010Prop48
 90
       50
102
RTVSPost2010PropOp48
 70
     1
102
RTVSPost2010Prop49
280
     0
102
RTVSPost2010PropOp49
 70
     1
102
RTVSPost2010Prop50
 90
       50
102
RTVSPost2010PropOp50
 70
     1
102
RTVSPost2010Prop51ColorIndex
 90
      256
102
RTVSPost2010Prop51ColorRGB
 90
-16777216
102
RTVSPost2010PropOp51
 70
     0
102
RTVSPost2010Prop52
140
1.0
102
RTVSPost2010PropOp52
 70
     0
102
RTVSPost2010Prop53
 90
        2
102
RTVSPost2010PropOp53
 70
     1
102
RTVSPost2010Prop54
  1
strokes_ogs.tif
102
RTVSPost2010PropOp54
 70
     1
102
RTVSPost2010Prop55
280
     0
102
RTVSPost2010PropOp55
 70
     1
102
RTVSPost2010Prop56
140
1.0
102
RTVSPost2010PropOp56
 70
     1
102
RTVSPost2010Prop57
140
1.0
102
RTVSPost2010PropOp57
 70
     1
102
RTVSPropertyOp0
 70
     1
102
RTVSPropertyOp1
 70
     1
102
RTVSPropertyOp2
 70
     1
102
RTVSPropertyOp3
 70
     1
102
RTVSPropertyOp4
 70
     1
102
RTVSPropertyOp5
 70
     1
102
RTVSPropertyOp6
 70
     1
102
RTVSPropertyOp7
 70
     1
102
RTVSPropertyOp8
 70
     1
102
RTVSPropertyOp9
 70
     1
102
RTVSPropertyOp10
 70
     1
102
RTVSPropertyOp11
 70
     1
102
RTVSPropertyOp12
 70
     1
102
RTVSPropertyOp13
 70
     1
102
RTVSPropertyOp14
 70
     1
102
RTVSPropertyOp15
 70
     1
102
RTVSPropertyOp16
 70
     1
102
RTVSPropertyOp17
 70
     1
102
RTVSPropertyOp18
 70
     1
102
RTVSPropertyOp19
 70
     1
102
RTVSPropertyOp20
 70
     1
102
RTVSPropertyOp21
 70
     1
102
RTVSPropertyOp22
 70
     1
102
RTVSPropertyOp23
 70
     1
102
RTVSPropertyOp24
 70
     1
102
RTVSPropertyOp25
 70
     1
102
RTVSPropertyOp26
 70
     1
102
RTVSPropertyOp27
 70
     1
102
RTVSPropertyOp28
 70
     1
102
RTVSPropertyOp29
 70
     1
102
RTVSPropertyOp30
 70
     1
102
RTVSPropertyOp31
 70
     1
102
RTVSPropertyOp32
 70
     1
102
RTVSPropertyOp33
 70
     1
102
RTVSPropertyOp34
 70
     1
102
RTVSPropertyOp35
 70
     1
102
RTVSPropertyOp36
 70
     1
102
RTVSPropertyOp37
 70
     1
102
RTVSPropertyOp38
 70
     1
102
RTVSPropertyOp39
 70
     1
102
RTVSPropertyOp40
 70
     1
102
RTVSPropertyOp41
 70
     1
102
RTVSPropertyOp42
 70
     1
102
RTVSPropertyOp43
 70
     1
102
RTVSPropertyOp44
 70
     1
102
RTVSPropertyOp45
 70
     1
102
RTVSPropertyOp46
 70
     1
102
RTVSPropertyOp47
 70
     1
102
RTVSPropertyOp48
 70
     1
102
RTVSPropertyOp49
 70
     1
102
RTVSPropertyOp50
 70
     1
102
RTVSPropertyOp51
 70
     0
102
RTVSPropertyOp52
 70
     0
102
RTVSPropertyOp53
 70
     1
102
RTVSPropertyOp54
 70
     1
102
RTVSPropertyOp55
 70
     1
102
RTVSPropertyOp56
 70
     1
102
RTVSPropertyOp57
 70
     1
102
RTVSPropertyOp58
 70
     1
102
RTVSPropertyOp59
 70
     1
102
RTVSPropertyOp60
 70
     1
102
RTVSPropertyOp61
 70
     1
102
RTVSPropertyOp62
 70
     1
  0
XRECORD
  5
3FC2
102
{ACAD_REACTORS
330
3FC1
102
}
330
3FC1
100
AcDbXrecord
280
     1
102
RTVSPost2010Prop28
280
     0
102
RTVSPost2010PropOp28
 70
     1
102
RTVSPost2010Prop29
280
     1
102
RTVSPost2010PropOp29
 70
     1
102
RTVSPost2010Prop30
280
     1
102
RTVSPost2010PropOp30
 70
     1
102
RTVSPost2010Prop31
280
     0
102
RTVSPost2010PropOp31
 70
     1
102
RTVSPost2010Prop32
280
     0
102
RTVSPost2010PropOp32
 70
     1
102
RTVSPost2010Prop33
280
     0
102
RTVSPost2010PropOp33
 70
     1
102
RTVSPost2010Prop34
280
     0
102
RTVSPost2010PropOp34
 70
     1
102
RTVSPost2010Prop35
280
     0
102
RTVSPost2010PropOp35
 70
     1
102
RTVSPost2010Prop36
280
     0
102
RTVSPost2010PropOp36
 70
     1
102
RTVSPost2010Prop37
 90
       50
102
RTVSPost2010PropOp37
 70
     1
102
RTVSPost2010Prop38
140
0.0
102
RTVSPost2010PropOp38
 70
     1
102
RTVSPost2010Prop39
140
1.0
102
RTVSPost2010PropOp39
 70
     1
102
RTVSPost2010Prop40
 90
        0
102
RTVSPost2010PropOp40
 70
     1
102
RTVSPost2010Prop41ColorIndex
 90
       18
102
RTVSPost2010Prop41ColorRGB
 90
        0
102
RTVSPost2010PropOp41
 70
     1
102
RTVSPost2010Prop42
 90
       50
102
RTVSPost2010PropOp42
 70
     1
102
RTVSPost2010Prop43
 90
        3
102
RTVSPost2010PropOp43
 70
     1
102
RTVSPost2010Prop44ColorIndex
 90
        5
102
RTVSPost2010Prop44ColorRGB
 90
      255
102
RTVSPost2010PropOp44
 70
     1
102
RTVSPost2010Prop45
280
     0
102
RTVSPost2010PropOp45
 70
     1
102
RTVSPost2010Prop46
 90
       50
102
RTVSPost2010PropOp46
 70
     1
102
RTVSPost2010Prop47
 90
       50
102
RTVSPost2010PropOp47
 70
     1
102
RTVSPost2010Prop48
 90
       50
102
RTVSPost2010PropOp48
 70
     1
102
RTVSPost2010Prop49
280
     0
102
RTVSPost2010PropOp49
 70
     1
102
RTVSPost2010Prop50
 90
       50
102
RTVSPost2010PropOp50
 70
     1
102
RTVSPost2010Prop51ColorIndex
 90
      256
102
RTVSPost2010Prop51ColorRGB
 90
-16777216
102
RTVSPost2010PropOp51
 70
     0
102
RTVSPost2010Prop52
140
1.0
102
RTVSPost2010PropOp52
 70
     0
102
RTVSPost2010Prop53
 90
        2
102
RTVSPost2010PropOp53
 70
     1
102
RTVSPost2010Prop54
  1
strokes_ogs.tif
102
RTVSPost2010PropOp54
 70
     1
102
RTVSPost2010Prop55
280
     0
102
RTVSPost2010PropOp55
 70
     1
102
RTVSPost2010Prop56
140
1.0
102
RTVSPost2010PropOp56
 70
     1
102
RTVSPost2010Prop57
140
1.0
102
RTVSPost2010PropOp57
 70
     1
102
RTVSPropertyOp0
 70
     1
102
RTVSPropertyOp1
 70
     1
102
RTVSPropertyOp2
 70
     1
102
RTVSPropertyOp3
 70
     1
102
RTVSPropertyOp4
 70
     1
102
RTVSPropertyOp5
 70
     1
102
RTVSPropertyOp6
 70
     1
102
RTVSPropertyOp7
 70
     1
102
RTVSPropertyOp8
 70
     1
102
RTVSPropertyOp9
 70
     1
102
RTVSPropertyOp10
 70
     1
102
RTVSPropertyOp11
 70
     1
102
RTVSPropertyOp12
 70
     1
102
RTVSPropertyOp13
 70
     1
102
RTVSPropertyOp14
 70
     1
102
RTVSPropertyOp15
 70
     1
102
RTVSPropertyOp16
 70
     1
102
RTVSPropertyOp17
 70
     1
102
RTVSPropertyOp18
 70
     1
102
RTVSPropertyOp19
 70
     1
102
RTVSPropertyOp20
 70
     1
102
RTVSPropertyOp21
 70
     1
102
RTVSPropertyOp22
 70
     1
102
RTVSPropertyOp23
 70
     1
102
RTVSPropertyOp24
 70
     1
102
RTVSPropertyOp25
 70
     1
102
RTVSPropertyOp26
 70
     1
102
RTVSPropertyOp27
 70
     1
102
RTVSPropertyOp28
 70
     1
102
RTVSPropertyOp29
 70
     1
102
RTVSPropertyOp30
 70
     1
102
RTVSPropertyOp31
 70
     1
102
RTVSPropertyOp32
 70
     1
102
RTVSPropertyOp33
 70
     1
102
RTVSPropertyOp34
 70
     1
102
RTVSPropertyOp35
 70
     1
102
RTVSPropertyOp36
 70
     1
102
RTVSPropertyOp37
 70
     1
102
RTVSPropertyOp38
 70
     1
102
RTVSPropertyOp39
 70
     1
102
RTVSPropertyOp40
 70
     1
102
RTVSPropertyOp41
 70
     1
102
RTVSPropertyOp42
 70
     1
102
RTVSPropertyOp43
 70
     1
102
RTVSPropertyOp44
 70
     1
102
RTVSPropertyOp45
 70
     1
102
RTVSPropertyOp46
 70
     1
102
RTVSPropertyOp47
 70
     1
102
RTVSPropertyOp48
 70
     1
102
RTVSPropertyOp49
 70
     1
102
RTVSPropertyOp50
 70
     1
102
RTVSPropertyOp51
 70
     0
102
RTVSPropertyOp52
 70
     0
102
RTVSPropertyOp53
 70
     1
102
RTVSPropertyOp54
 70
     1
102
RTVSPropertyOp55
 70
     1
102
RTVSPropertyOp56
 70
     1
102
RTVSPropertyOp57
 70
     1
102
RTVSPropertyOp58
 70
     1
102
RTVSPropertyOp59
 70
     1
102
RTVSPropertyOp60
 70
     1
102
RTVSPropertyOp61
 70
     1
102
RTVSPropertyOp62
 70
     1
  0
XRECORD
  5
3FCA
102
{ACAD_REACTORS
330
3FC9
102
}
330
3FC9
100
AcDbXrecord
280
     1
102
RTVSPost2010Prop28
280
     0
102
RTVSPost2010PropOp28
 70
     1
102
RTVSPost2010Prop29
280
     1
102
RTVSPost2010PropOp29
 70
     1
102
RTVSPost2010Prop30
280
     1
102
RTVSPost2010PropOp30
 70
     1
102
RTVSPost2010Prop31
280
     0
102
RTVSPost2010PropOp31
 70
     1
102
RTVSPost2010Prop32
280
     0
102
RTVSPost2010PropOp32
 70
     1
102
RTVSPost2010Prop33
280
     0
102
RTVSPost2010PropOp33
 70
     1
102
RTVSPost2010Prop34
280
     0
102
RTVSPost2010PropOp34
 70
     1
102
RTVSPost2010Prop35
280
     0
102
RTVSPost2010PropOp35
 70
     1
102
RTVSPost2010Prop36
280
     0
102
RTVSPost2010PropOp36
 70
     1
102
RTVSPost2010Prop37
 90
       50
102
RTVSPost2010PropOp37
 70
     1
102
RTVSPost2010Prop38
140
0.0
102
RTVSPost2010PropOp38
 70
     1
102
RTVSPost2010Prop39
140
1.0
102
RTVSPost2010PropOp39
 70
     1
102
RTVSPost2010Prop40
 90
        0
102
RTVSPost2010PropOp40
 70
     1
102
RTVSPost2010Prop41ColorIndex
 90
       18
102
RTVSPost2010Prop41ColorRGB
 90
        0
102
RTVSPost2010PropOp41
 70
     1
102
RTVSPost2010Prop42
 90
       50
102
RTVSPost2010PropOp42
 70
     1
102
RTVSPost2010Prop43
 90
        3
102
RTVSPost2010PropOp43
 70
     1
102
RTVSPost2010Prop44ColorIndex
 90
        5
102
RTVSPost2010Prop44ColorRGB
 90
      255
102
RTVSPost2010PropOp44
 70
     1
102
RTVSPost2010Prop45
280
     0
102
RTVSPost2010PropOp45
 70
     1
102
RTVSPost2010Prop46
 90
       50
102
RTVSPost2010PropOp46
 70
     1
102
RTVSPost2010Prop47
 90
       50
102
RTVSPost2010PropOp47
 70
     1
102
RTVSPost2010Prop48
 90
       50
102
RTVSPost2010PropOp48
 70
     1
102
RTVSPost2010Prop49
280
     0
102
RTVSPost2010PropOp49
 70
     1
102
RTVSPost2010Prop50
 90
       50
102
RTVSPost2010PropOp50
 70
     1
102
RTVSPost2010Prop51ColorIndex
 90
      256
102
RTVSPost2010Prop51ColorRGB
 90
-16777216
102
RTVSPost2010PropOp51
 70
     0
102
RTVSPost2010Prop52
140
1.0
102
RTVSPost2010PropOp52
 70
     0
102
RTVSPost2010Prop53
 90
        2
102
RTVSPost2010PropOp53
 70
     1
102
RTVSPost2010Prop54
  1
strokes_ogs.tif
102
RTVSPost2010PropOp54
 70
     1
102
RTVSPost2010Prop55
280
     0
102
RTVSPost2010PropOp55
 70
     1
102
RTVSPost2010Prop56
140
1.0
102
RTVSPost2010PropOp56
 70
     1
102
RTVSPost2010Prop57
140
1.0
102
RTVSPost2010PropOp57
 70
     1
102
RTVSPropertyOp0
 70
     1
102
RTVSPropertyOp1
 70
     1
102
RTVSPropertyOp2
 70
     1
102
RTVSPropertyOp3
 70
     1
102
RTVSPropertyOp4
 70
     1
102
RTVSPropertyOp5
 70
     1
102
RTVSPropertyOp6
 70
     1
102
RTVSPropertyOp7
 70
     1
102
RTVSPropertyOp8
 70
     1
102
RTVSPropertyOp9
 70
     1
102
RTVSPropertyOp10
 70
     1
102
RTVSPropertyOp11
 70
     1
102
RTVSPropertyOp12
 70
     1
102
RTVSPropertyOp13
 70
     1
102
RTVSPropertyOp14
 70
     1
102
RTVSPropertyOp15
 70
     1
102
RTVSPropertyOp16
 70
     1
102
RTVSPropertyOp17
 70
     1
102
RTVSPropertyOp18
 70
     1
102
RTVSPropertyOp19
 70
     1
102
RTVSPropertyOp20
 70
     1
102
RTVSPropertyOp21
 70
     1
102
RTVSPropertyOp22
 70
     1
102
RTVSPropertyOp23
 70
     1
102
RTVSPropertyOp24
 70
     1
102
RTVSPropertyOp25
 70
     1
102
RTVSPropertyOp26
 70
     1
102
RTVSPropertyOp27
 70
     1
102
RTVSPropertyOp28
 70
     1
102
RTVSPropertyOp29
 70
     1
102
RTVSPropertyOp30
 70
     1
102
RTVSPropertyOp31
 70
     1
102
RTVSPropertyOp32
 70
     1
102
RTVSPropertyOp33
 70
     1
102
RTVSPropertyOp34
 70
     1
102
RTVSPropertyOp35
 70
     1
102
RTVSPropertyOp36
 70
     1
102
RTVSPropertyOp37
 70
     1
102
RTVSPropertyOp38
 70
     1
102
RTVSPropertyOp39
 70
     1
102
RTVSPropertyOp40
 70
     1
102
RTVSPropertyOp41
 70
     1
102
RTVSPropertyOp42
 70
     1
102
RTVSPropertyOp43
 70
     1
102
RTVSPropertyOp44
 70
     1
102
RTVSPropertyOp45
 70
     1
102
RTVSPropertyOp46
 70
     1
102
RTVSPropertyOp47
 70
     1
102
RTVSPropertyOp48
 70
     1
102
RTVSPropertyOp49
 70
     1
102
RTVSPropertyOp50
 70
     1
102
RTVSPropertyOp51
 70
     0
102
RTVSPropertyOp52
 70
     0
102
RTVSPropertyOp53
 70
     1
102
RTVSPropertyOp54
 70
     1
102
RTVSPropertyOp55
 70
     1
102
RTVSPropertyOp56
 70
     1
102
RTVSPropertyOp57
 70
     1
102
RTVSPropertyOp58
 70
     1
102
RTVSPropertyOp59
 70
     1
102
RTVSPropertyOp60
 70
     1
102
RTVSPropertyOp61
 70
     1
102
RTVSPropertyOp62
 70
     1
  0
XRECORD
  5
3FBC
102
{ACAD_REACTORS
330
3FBB
102
}
330
3FBB
100
AcDbXrecord
280
     1
102
RTVSPost2010Prop28
280
     0
102
RTVSPost2010PropOp28
 70
     1
102
RTVSPost2010Prop29
280
     1
102
RTVSPost2010PropOp29
 70
     1
102
RTVSPost2010Prop30
280
     1
102
RTVSPost2010PropOp30
 70
     1
102
RTVSPost2010Prop31
280
     0
102
RTVSPost2010PropOp31
 70
     1
102
RTVSPost2010Prop32
280
     0
102
RTVSPost2010PropOp32
 70
     1
102
RTVSPost2010Prop33
280
     0
102
RTVSPost2010PropOp33
 70
     1
102
RTVSPost2010Prop34
280
     0
102
RTVSPost2010PropOp34
 70
     1
102
RTVSPost2010Prop35
280
     0
102
RTVSPost2010PropOp35
 70
     1
102
RTVSPost2010Prop36
280
     0
102
RTVSPost2010PropOp36
 70
     1
102
RTVSPost2010Prop37
 90
       50
102
RTVSPost2010PropOp37
 70
     1
102
RTVSPost2010Prop38
140
0.0
102
RTVSPost2010PropOp38
 70
     1
102
RTVSPost2010Prop39
140
1.0
102
RTVSPost2010PropOp39
 70
     1
102
RTVSPost2010Prop40
 90
        0
102
RTVSPost2010PropOp40
 70
     1
102
RTVSPost2010Prop41ColorIndex
 90
       18
102
RTVSPost2010Prop41ColorRGB
 90
        0
102
RTVSPost2010PropOp41
 70
     1
102
RTVSPost2010Prop42
 90
       50
102
RTVSPost2010PropOp42
 70
     1
102
RTVSPost2010Prop43
 90
        3
102
RTVSPost2010PropOp43
 70
     1
102
RTVSPost2010Prop44ColorIndex
 90
        5
102
RTVSPost2010Prop44ColorRGB
 90
      255
102
RTVSPost2010PropOp44
 70
     1
102
RTVSPost2010Prop45
280
     0
102
RTVSPost2010PropOp45
 70
     1
102
RTVSPost2010Prop46
 90
       50
102
RTVSPost2010PropOp46
 70
     1
102
RTVSPost2010Prop47
 90
       50
102
RTVSPost2010PropOp47
 70
     1
102
RTVSPost2010Prop48
 90
       50
102
RTVSPost2010PropOp48
 70
     1
102
RTVSPost2010Prop49
280
     0
102
RTVSPost2010PropOp49
 70
     1
102
RTVSPost2010Prop50
 90
       50
102
RTVSPost2010PropOp50
 70
     1
102
RTVSPost2010Prop51ColorIndex
 90
      256
102
RTVSPost2010Prop51ColorRGB
 90
-16777216
102
RTVSPost2010PropOp51
 70
     0
102
RTVSPost2010Prop52
140
1.0
102
RTVSPost2010PropOp52
 70
     0
102
RTVSPost2010Prop53
 90
        2
102
RTVSPost2010PropOp53
 70
     1
102
RTVSPost2010Prop54
  1
strokes_ogs.tif
102
RTVSPost2010PropOp54
 70
     1
102
RTVSPost2010Prop55
280
     0
102
RTVSPost2010PropOp55
 70
     1
102
RTVSPost2010Prop56
140
1.0
102
RTVSPost2010PropOp56
 70
     1
102
RTVSPost2010Prop57
140
1.0
102
RTVSPost2010PropOp57
 70
     1
102
RTVSPropertyOp0
 70
     1
102
RTVSPropertyOp1
 70
     1
102
RTVSPropertyOp2
 70
     1
102
RTVSPropertyOp3
 70
     1
102
RTVSPropertyOp4
 70
     1
102
RTVSPropertyOp5
 70
     1
102
RTVSPropertyOp6
 70
     1
102
RTVSPropertyOp7
 70
     1
102
RTVSPropertyOp8
 70
     1
102
RTVSPropertyOp9
 70
     1
102
RTVSPropertyOp10
 70
     1
102
RTVSPropertyOp11
 70
     1
102
RTVSPropertyOp12
 70
     1
102
RTVSPropertyOp13
 70
     1
102
RTVSPropertyOp14
 70
     1
102
RTVSPropertyOp15
 70
     1
102
RTVSPropertyOp16
 70
     1
102
RTVSPropertyOp17
 70
     1
102
RTVSPropertyOp18
 70
     1
102
RTVSPropertyOp19
 70
     1
102
RTVSPropertyOp20
 70
     1
102
RTVSPropertyOp21
 70
     1
102
RTVSPropertyOp22
 70
     1
102
RTVSPropertyOp23
 70
     1
102
RTVSPropertyOp24
 70
     1
102
RTVSPropertyOp25
 70
     1
102
RTVSPropertyOp26
 70
     1
102
RTVSPropertyOp27
 70
     1
102
RTVSPropertyOp28
 70
     1
102
RTVSPropertyOp29
 70
     1
102
RTVSPropertyOp30
 70
     1
102
RTVSPropertyOp31
 70
     1
102
RTVSPropertyOp32
 70
     1
102
RTVSPropertyOp33
 70
     1
102
RTVSPropertyOp34
 70
     1
102
RTVSPropertyOp35
 70
     1
102
RTVSPropertyOp36
 70
     1
102
RTVSPropertyOp37
 70
     1
102
RTVSPropertyOp38
 70
     1
102
RTVSPropertyOp39
 70
     1
102
RTVSPropertyOp40
 70
     1
102
RTVSPropertyOp41
 70
     1
102
RTVSPropertyOp42
 70
     1
102
RTVSPropertyOp43
 70
     1
102
RTVSPropertyOp44
 70
     1
102
RTVSPropertyOp45
 70
     1
102
RTVSPropertyOp46
 70
     1
102
RTVSPropertyOp47
 70
     1
102
RTVSPropertyOp48
 70
     1
102
RTVSPropertyOp49
 70
     1
102
RTVSPropertyOp50
 70
     1
102
RTVSPropertyOp51
 70
     0
102
RTVSPropertyOp52
 70
     0
102
RTVSPropertyOp53
 70
     1
102
RTVSPropertyOp54
 70
     1
102
RTVSPropertyOp55
 70
     1
102
RTVSPropertyOp56
 70
     1
102
RTVSPropertyOp57
 70
     1
102
RTVSPropertyOp58
 70
     1
102
RTVSPropertyOp59
 70
     1
102
RTVSPropertyOp60
 70
     1
102
RTVSPropertyOp61
 70
     1
102
RTVSPropertyOp62
 70
     1
  0
XRECORD
  5
3FC0
102
{ACAD_REACTORS
330
3FBF
102
}
330
3FBF
100
AcDbXrecord
280
     1
102
RTVSPost2010Prop28
280
     0
102
RTVSPost2010PropOp28
 70
     1
102
RTVSPost2010Prop29
280
     1
102
RTVSPost2010PropOp29
 70
     1
102
RTVSPost2010Prop30
280
     1
102
RTVSPost2010PropOp30
 70
     1
102
RTVSPost2010Prop31
280
     0
102
RTVSPost2010PropOp31
 70
     1
102
RTVSPost2010Prop32
280
     0
102
RTVSPost2010PropOp32
 70
     1
102
RTVSPost2010Prop33
280
     0
102
RTVSPost2010PropOp33
 70
     1
102
RTVSPost2010Prop34
280
     0
102
RTVSPost2010PropOp34
 70
     1
102
RTVSPost2010Prop35
280
     0
102
RTVSPost2010PropOp35
 70
     1
102
RTVSPost2010Prop36
280
     0
102
RTVSPost2010PropOp36
 70
     1
102
RTVSPost2010Prop37
 90
       50
102
RTVSPost2010PropOp37
 70
     1
102
RTVSPost2010Prop38
140
0.0
102
RTVSPost2010PropOp38
 70
     1
102
RTVSPost2010Prop39
140
1.0
102
RTVSPost2010PropOp39
 70
     1
102
RTVSPost2010Prop40
 90
        0
102
RTVSPost2010PropOp40
 70
     1
102
RTVSPost2010Prop41ColorIndex
 90
       18
102
RTVSPost2010Prop41ColorRGB
 90
        0
102
RTVSPost2010PropOp41
 70
     1
102
RTVSPost2010Prop42
 90
       50
102
RTVSPost2010PropOp42
 70
     1
102
RTVSPost2010Prop43
 90
        3
102
RTVSPost2010PropOp43
 70
     1
102
RTVSPost2010Prop44ColorIndex
 90
        5
102
RTVSPost2010Prop44ColorRGB
 90
      255
102
RTVSPost2010PropOp44
 70
     1
102
RTVSPost2010Prop45
280
     0
102
RTVSPost2010PropOp45
 70
     1
102
RTVSPost2010Prop46
 90
       50
102
RTVSPost2010PropOp46
 70
     1
102
RTVSPost2010Prop47
 90
       50
102
RTVSPost2010PropOp47
 70
     1
102
RTVSPost2010Prop48
 90
       50
102
RTVSPost2010PropOp48
 70
     1
102
RTVSPost2010Prop49
280
     0
102
RTVSPost2010PropOp49
 70
     1
102
RTVSPost2010Prop50
 90
       50
102
RTVSPost2010PropOp50
 70
     1
102
RTVSPost2010Prop51ColorIndex
 90
      256
102
RTVSPost2010Prop51ColorRGB
 90
-16777216
102
RTVSPost2010PropOp51
 70
     0
102
RTVSPost2010Prop52
140
1.0
102
RTVSPost2010PropOp52
 70
     0
102
RTVSPost2010Prop53
 90
        2
102
RTVSPost2010PropOp53
 70
     1
102
RTVSPost2010Prop54
  1
strokes_ogs.tif
102
RTVSPost2010PropOp54
 70
     1
102
RTVSPost2010Prop55
280
     0
102
RTVSPost2010PropOp55
 70
     1
102
RTVSPost2010Prop56
140
1.0
102
RTVSPost2010PropOp56
 70
     1
102
RTVSPost2010Prop57
140
1.0
102
RTVSPost2010PropOp57
 70
     1
102
RTVSPropertyOp0
 70
     1
102
RTVSPropertyOp1
 70
     1
102
RTVSPropertyOp2
 70
     1
102
RTVSPropertyOp3
 70
     1
102
RTVSPropertyOp4
 70
     1
102
RTVSPropertyOp5
 70
     1
102
RTVSPropertyOp6
 70
     1
102
RTVSPropertyOp7
 70
     1
102
RTVSPropertyOp8
 70
     1
102
RTVSPropertyOp9
 70
     1
102
RTVSPropertyOp10
 70
     1
102
RTVSPropertyOp11
 70
     1
102
RTVSPropertyOp12
 70
     1
102
RTVSPropertyOp13
 70
     1
102
RTVSPropertyOp14
 70
     1
102
RTVSPropertyOp15
 70
     1
102
RTVSPropertyOp16
 70
     1
102
RTVSPropertyOp17
 70
     1
102
RTVSPropertyOp18
 70
     1
102
RTVSPropertyOp19
 70
     1
102
RTVSPropertyOp20
 70
     1
102
RTVSPropertyOp21
 70
     1
102
RTVSPropertyOp22
 70
     1
102
RTVSPropertyOp23
 70
     1
102
RTVSPropertyOp24
 70
     1
102
RTVSPropertyOp25
 70
     1
102
RTVSPropertyOp26
 70
     1
102
RTVSPropertyOp27
 70
     1
102
RTVSPropertyOp28
 70
     1
102
RTVSPropertyOp29
 70
     1
102
RTVSPropertyOp30
 70
     1
102
RTVSPropertyOp31
 70
     1
102
RTVSPropertyOp32
 70
     1
102
RTVSPropertyOp33
 70
     1
102
RTVSPropertyOp34
 70
     1
102
RTVSPropertyOp35
 70
     1
102
RTVSPropertyOp36
 70
     1
102
RTVSPropertyOp37
 70
     1
102
RTVSPropertyOp38
 70
     1
102
RTVSPropertyOp39
 70
     1
102
RTVSPropertyOp40
 70
     1
102
RTVSPropertyOp41
 70
     1
102
RTVSPropertyOp42
 70
     1
102
RTVSPropertyOp43
 70
     1
102
RTVSPropertyOp44
 70
     1
102
RTVSPropertyOp45
 70
     1
102
RTVSPropertyOp46
 70
     1
102
RTVSPropertyOp47
 70
     1
102
RTVSPropertyOp48
 70
     1
102
RTVSPropertyOp49
 70
     1
102
RTVSPropertyOp50
 70
     1
102
RTVSPropertyOp51
 70
     0
102
RTVSPropertyOp52
 70
     0
102
RTVSPropertyOp53
 70
     1
102
RTVSPropertyOp54
 70
     1
102
RTVSPropertyOp55
 70
     1
102
RTVSPropertyOp56
 70
     1
102
RTVSPropertyOp57
 70
     1
102
RTVSPropertyOp58
 70
     1
102
RTVSPropertyOp59
 70
     1
102
RTVSPropertyOp60
 70
     1
102
RTVSPropertyOp61
 70
     1
102
RTVSPropertyOp62
 70
     1
  0
XRECORD
  5
3FDA
102
{ACAD_REACTORS
330
3FD9
102
}
330
3FD9
100
AcDbXrecord
280
     1
102
RTVSPost2010Prop28
280
     0
102
RTVSPost2010PropOp28
 70
     0
102
RTVSPost2010Prop29
280
     1
102
RTVSPost2010PropOp29
 70
     0
102
RTVSPost2010Prop30
280
     1
102
RTVSPost2010PropOp30
 70
     0
102
RTVSPost2010Prop31
280
     0
102
RTVSPost2010PropOp31
 70
     0
102
RTVSPost2010Prop32
280
     0
102
RTVSPost2010PropOp32
 70
     0
102
RTVSPost2010Prop33
280
     0
102
RTVSPost2010PropOp33
 70
     0
102
RTVSPost2010Prop34
280
     0
102
RTVSPost2010PropOp34
 70
     0
102
RTVSPost2010Prop35
280
     0
102
RTVSPost2010PropOp35
 70
     0
102
RTVSPost2010Prop36
280
     0
102
RTVSPost2010PropOp36
 70
     0
102
RTVSPost2010Prop37
 90
       50
102
RTVSPost2010PropOp37
 70
     0
102
RTVSPost2010Prop38
140
0.0
102
RTVSPost2010PropOp38
 70
     0
102
RTVSPost2010Prop39
140
1.0
102
RTVSPost2010PropOp39
 70
     0
102
RTVSPost2010Prop40
 90
        0
102
RTVSPost2010PropOp40
 70
     0
102
RTVSPost2010Prop41ColorIndex
 90
       18
102
RTVSPost2010Prop41ColorRGB
 90
        0
102
RTVSPost2010PropOp41
 70
     0
102
RTVSPost2010Prop42
 90
       50
102
RTVSPost2010PropOp42
 70
     0
102
RTVSPost2010Prop43
 90
        3
102
RTVSPost2010PropOp43
 70
     0
102
RTVSPost2010Prop44ColorIndex
 90
        5
102
RTVSPost2010Prop44ColorRGB
 90
      255
102
RTVSPost2010PropOp44
 70
     0
102
RTVSPost2010Prop45
280
     0
102
RTVSPost2010PropOp45
 70
     0
102
RTVSPost2010Prop46
 90
       50
102
RTVSPost2010PropOp46
 70
     0
102
RTVSPost2010Prop47
 90
       50
102
RTVSPost2010PropOp47
 70
     0
102
RTVSPost2010Prop48
 90
       50
102
RTVSPost2010PropOp48
 70
     0
102
RTVSPost2010Prop49
280
     0
102
RTVSPost2010PropOp49
 70
     0
102
RTVSPost2010Prop50
 90
       50
102
RTVSPost2010PropOp50
 70
     0
102
RTVSPost2010Prop51ColorIndex
 90
      256
102
RTVSPost2010Prop51ColorRGB
 90
-16777216
102
RTVSPost2010PropOp51
 70
     0
102
RTVSPost2010Prop52
140
1.0
102
RTVSPost2010PropOp52
 70
     0
102
RTVSPost2010Prop53
 90
        2
102
RTVSPost2010PropOp53
 70
     0
102
RTVSPost2010Prop54
  1
strokes_ogs.tif
102
RTVSPost2010PropOp54
 70
     0
102
RTVSPost2010Prop55
280
     0
102
RTVSPost2010PropOp55
 70
     0
102
RTVSPost2010Prop56
140
1.0
102
RTVSPost2010PropOp56
 70
     0
102
RTVSPost2010Prop57
140
1.0
102
RTVSPost2010PropOp57
 70
     0
102
RTVSPropertyOp0
 70
     0
102
RTVSPropertyOp1
 70
     0
102
RTVSPropertyOp2
 70
     0
102
RTVSPropertyOp3
 70
     0
102
RTVSPropertyOp4
 70
     0
102
RTVSPropertyOp5
 70
     0
102
RTVSPropertyOp6
 70
     0
102
RTVSPropertyOp7
 70
     0
102
RTVSPropertyOp8
 70
     0
102
RTVSPropertyOp9
 70
     0
102
RTVSPropertyOp10
 70
     0
102
RTVSPropertyOp11
 70
     0
102
RTVSPropertyOp12
 70
     0
102
RTVSPropertyOp13
 70
     0
102
RTVSPropertyOp14
 70
     2
102
RTVSPropertyOp15
 70
     0
102
RTVSPropertyOp16
 70
     0
102
RTVSPropertyOp17
 70
     0
102
RTVSPropertyOp18
 70
     0
102
RTVSPropertyOp19
 70
     0
102
RTVSPropertyOp20
 70
     0
102
RTVSPropertyOp21
 70
     0
102
RTVSPropertyOp22
 70
     0
102
RTVSPropertyOp23
 70
     0
102
RTVSPropertyOp24
 70
     0
102
RTVSPropertyOp25
 70
     0
102
RTVSPropertyOp26
 70
     0
102
RTVSPropertyOp27
 70
     0
102
RTVSPropertyOp28
 70
     0
102
RTVSPropertyOp29
 70
     0
102
RTVSPropertyOp30
 70
     0
102
RTVSPropertyOp31
 70
     0
102
RTVSPropertyOp32
 70
     0
102
RTVSPropertyOp33
 70
     0
102
RTVSPropertyOp34
 70
     0
102
RTVSPropertyOp35
 70
     0
102
RTVSPropertyOp36
 70
     0
102
RTVSPropertyOp37
 70
     0
102
RTVSPropertyOp38
 70
     0
102
RTVSPropertyOp39
 70
     0
102
RTVSPropertyOp40
 70
     0
102
RTVSPropertyOp41
 70
     0
102
RTVSPropertyOp42
 70
     0
102
RTVSPropertyOp43
 70
     0
102
RTVSPropertyOp44
 70
     0
102
RTVSPropertyOp45
 70
     0
102
RTVSPropertyOp46
 70
     0
102
RTVSPropertyOp47
 70
     0
102
RTVSPropertyOp48
 70
     0
102
RTVSPropertyOp49
 70
     0
102
RTVSPropertyOp50
 70
     0
102
RTVSPropertyOp51
 70
     0
102
RTVSPropertyOp52
 70
     0
102
RTVSPropertyOp53
 70
     0
102
RTVSPropertyOp54
 70
     0
102
RTVSPropertyOp55
 70
     0
102
RTVSPropertyOp56
 70
     0
102
RTVSPropertyOp57
 70
     0
102
RTVSPropertyOp58
 70
     1
102
RTVSPropertyOp59
 70
     1
102
RTVSPropertyOp60
 70
     1
102
RTVSPropertyOp61
 70
     1
102
RTVSPropertyOp62
 70
     1
  0
XRECORD
  5
3FC8
102
{ACAD_REACTORS
330
3FC7
102
}
330
3FC7
100
AcDbXrecord
280
     1
102
RTVSPost2010Prop28
280
     0
102
RTVSPost2010PropOp28
 70
     1
102
RTVSPost2010Prop29
280
     1
102
RTVSPost2010PropOp29
 70
     1
102
RTVSPost2010Prop30
280
     1
102
RTVSPost2010PropOp30
 70
     1
102
RTVSPost2010Prop31
280
     0
102
RTVSPost2010PropOp31
 70
     1
102
RTVSPost2010Prop32
280
     0
102
RTVSPost2010PropOp32
 70
     1
102
RTVSPost2010Prop33
280
     0
102
RTVSPost2010PropOp33
 70
     1
102
RTVSPost2010Prop34
280
     0
102
RTVSPost2010PropOp34
 70
     1
102
RTVSPost2010Prop35
280
     0
102
RTVSPost2010PropOp35
 70
     1
102
RTVSPost2010Prop36
280
     0
102
RTVSPost2010PropOp36
 70
     1
102
RTVSPost2010Prop37
 90
       50
102
RTVSPost2010PropOp37
 70
     1
102
RTVSPost2010Prop38
140
0.0
102
RTVSPost2010PropOp38
 70
     1
102
RTVSPost2010Prop39
140
1.0
102
RTVSPost2010PropOp39
 70
     1
102
RTVSPost2010Prop40
 90
        0
102
RTVSPost2010PropOp40
 70
     1
102
RTVSPost2010Prop41ColorIndex
 90
       18
102
RTVSPost2010Prop41ColorRGB
 90
        0
102
RTVSPost2010PropOp41
 70
     1
102
RTVSPost2010Prop42
 90
       50
102
RTVSPost2010PropOp42
 70
     1
102
RTVSPost2010Prop43
 90
        3
102
RTVSPost2010PropOp43
 70
     1
102
RTVSPost2010Prop44ColorIndex
 90
        5
102
RTVSPost2010Prop44ColorRGB
 90
      255
102
RTVSPost2010PropOp44
 70
     1
102
RTVSPost2010Prop45
280
     0
102
RTVSPost2010PropOp45
 70
     1
102
RTVSPost2010Prop46
 90
       50
102
RTVSPost2010PropOp46
 70
     1
102
RTVSPost2010Prop47
 90
       50
102
RTVSPost2010PropOp47
 70
     1
102
RTVSPost2010Prop48
 90
       50
102
RTVSPost2010PropOp48
 70
     1
102
RTVSPost2010Prop49
280
     0
102
RTVSPost2010PropOp49
 70
     1
102
RTVSPost2010Prop50
 90
       50
102
RTVSPost2010PropOp50
 70
     1
102
RTVSPost2010Prop51ColorIndex
 90
      256
102
RTVSPost2010Prop51ColorRGB
 90
-16777216
102
RTVSPost2010PropOp51
 70
     0
102
RTVSPost2010Prop52
140
1.0
102
RTVSPost2010PropOp52
 70
     0
102
RTVSPost2010Prop53
 90
        2
102
RTVSPost2010PropOp53
 70
     1
102
RTVSPost2010Prop54
  1
strokes_ogs.tif
102
RTVSPost2010PropOp54
 70
     1
102
RTVSPost2010Prop55
280
     0
102
RTVSPost2010PropOp55
 70
     1
102
RTVSPost2010Prop56
140
1.0
102
RTVSPost2010PropOp56
 70
     1
102
RTVSPost2010Prop57
140
1.0
102
RTVSPost2010PropOp57
 70
     1
102
RTVSPropertyOp0
 70
     1
102
RTVSPropertyOp1
 70
     1
102
RTVSPropertyOp2
 70
     1
102
RTVSPropertyOp3
 70
     1
102
RTVSPropertyOp4
 70
     1
102
RTVSPropertyOp5
 70
     1
102
RTVSPropertyOp6
 70
     1
102
RTVSPropertyOp7
 70
     1
102
RTVSPropertyOp8
 70
     1
102
RTVSPropertyOp9
 70
     1
102
RTVSPropertyOp10
 70
     1
102
RTVSPropertyOp11
 70
     1
102
RTVSPropertyOp12
 70
     1
102
RTVSPropertyOp13
 70
     1
102
RTVSPropertyOp14
 70
     1
102
RTVSPropertyOp15
 70
     1
102
RTVSPropertyOp16
 70
     1
102
RTVSPropertyOp17
 70
     1
102
RTVSPropertyOp18
 70
     1
102
RTVSPropertyOp19
 70
     1
102
RTVSPropertyOp20
 70
     1
102
RTVSPropertyOp21
 70
     1
102
RTVSPropertyOp22
 70
     1
102
RTVSPropertyOp23
 70
     1
102
RTVSPropertyOp24
 70
     1
102
RTVSPropertyOp25
 70
     1
102
RTVSPropertyOp26
 70
     1
102
RTVSPropertyOp27
 70
     1
102
RTVSPropertyOp28
 70
     1
102
RTVSPropertyOp29
 70
     1
102
RTVSPropertyOp30
 70
     1
102
RTVSPropertyOp31
 70
     1
102
RTVSPropertyOp32
 70
     1
102
RTVSPropertyOp33
 70
     1
102
RTVSPropertyOp34
 70
     1
102
RTVSPropertyOp35
 70
     1
102
RTVSPropertyOp36
 70
     1
102
RTVSPropertyOp37
 70
     1
102
RTVSPropertyOp38
 70
     1
102
RTVSPropertyOp39
 70
     1
102
RTVSPropertyOp40
 70
     1
102
RTVSPropertyOp41
 70
     1
102
RTVSPropertyOp42
 70
     1
102
RTVSPropertyOp43
 70
     1
102
RTVSPropertyOp44
 70
     1
102
RTVSPropertyOp45
 70
     1
102
RTVSPropertyOp46
 70
     1
102
RTVSPropertyOp47
 70
     1
102
RTVSPropertyOp48
 70
     1
102
RTVSPropertyOp49
 70
     1
102
RTVSPropertyOp50
 70
     1
102
RTVSPropertyOp51
 70
     0
102
RTVSPropertyOp52
 70
     0
102
RTVSPropertyOp53
 70
     1
102
RTVSPropertyOp54
 70
     1
102
RTVSPropertyOp55
 70
     1
102
RTVSPropertyOp56
 70
     1
102
RTVSPropertyOp57
 70
     1
102
RTVSPropertyOp58
 70
     1
102
RTVSPropertyOp59
 70
     1
102
RTVSPropertyOp60
 70
     1
102
RTVSPropertyOp61
 70
     1
102
RTVSPropertyOp62
 70
     1
  0
XRECORD
  5
3FAC
102
{ACAD_REACTORS
330
3FAB
102
}
330
3FAB
100
AcDbXrecord
280
     1
102
RTVSPost2010Prop28
280
     0
102
RTVSPost2010PropOp28
 70
     1
102
RTVSPost2010Prop29
280
     1
102
RTVSPost2010PropOp29
 70
     1
102
RTVSPost2010Prop30
280
     1
102
RTVSPost2010PropOp30
 70
     1
102
RTVSPost2010Prop31
280
     0
102
RTVSPost2010PropOp31
 70
     1
102
RTVSPost2010Prop32
280
     0
102
RTVSPost2010PropOp32
 70
     1
102
RTVSPost2010Prop33
280
     0
102
RTVSPost2010PropOp33
 70
     1
102
RTVSPost2010Prop34
280
     0
102
RTVSPost2010PropOp34
 70
     1
102
RTVSPost2010Prop35
280
     0
102
RTVSPost2010PropOp35
 70
     1
102
RTVSPost2010Prop36
280
     0
102
RTVSPost2010PropOp36
 70
     1
102
RTVSPost2010Prop37
 90
       50
102
RTVSPost2010PropOp37
 70
     1
102
RTVSPost2010Prop38
140
0.0
102
RTVSPost2010PropOp38
 70
     1
102
RTVSPost2010Prop39
140
1.0
102
RTVSPost2010PropOp39
 70
     1
102
RTVSPost2010Prop40
 90
        0
102
RTVSPost2010PropOp40
 70
     1
102
RTVSPost2010Prop41ColorIndex
 90
       18
102
RTVSPost2010Prop41ColorRGB
 90
        0
102
RTVSPost2010PropOp41
 70
     1
102
RTVSPost2010Prop42
 90
       50
102
RTVSPost2010PropOp42
 70
     1
102
RTVSPost2010Prop43
 90
        3
102
RTVSPost2010PropOp43
 70
     1
102
RTVSPost2010Prop44ColorIndex
 90
        5
102
RTVSPost2010Prop44ColorRGB
 90
      255
102
RTVSPost2010PropOp44
 70
     1
102
RTVSPost2010Prop45
280
     0
102
RTVSPost2010PropOp45
 70
     1
102
RTVSPost2010Prop46
 90
       50
102
RTVSPost2010PropOp46
 70
     1
102
RTVSPost2010Prop47
 90
       50
102
RTVSPost2010PropOp47
 70
     1
102
RTVSPost2010Prop48
 90
       50
102
RTVSPost2010PropOp48
 70
     1
102
RTVSPost2010Prop49
280
     0
102
RTVSPost2010PropOp49
 70
     1
102
RTVSPost2010Prop50
 90
       50
102
RTVSPost2010PropOp50
 70
     1
102
RTVSPost2010Prop51ColorIndex
 90
      256
102
RTVSPost2010Prop51ColorRGB
 90
-16777216
102
RTVSPost2010PropOp51
 70
     0
102
RTVSPost2010Prop52
140
1.0
102
RTVSPost2010PropOp52
 70
     0
102
RTVSPost2010Prop53
 90
        2
102
RTVSPost2010PropOp53
 70
     1
102
RTVSPost2010Prop54
  1
strokes_ogs.tif
102
RTVSPost2010PropOp54
 70
     1
102
RTVSPost2010Prop55
280
     0
102
RTVSPost2010PropOp55
 70
     1
102
RTVSPost2010Prop56
140
1.0
102
RTVSPost2010PropOp56
 70
     1
102
RTVSPost2010Prop57
140
1.0
102
RTVSPost2010PropOp57
 70
     1
102
RTVSPropertyOp0
 70
     1
102
RTVSPropertyOp1
 70
     1
102
RTVSPropertyOp2
 70
     1
102
RTVSPropertyOp3
 70
     1
102
RTVSPropertyOp4
 70
     1
102
RTVSPropertyOp5
 70
     1
102
RTVSPropertyOp6
 70
     1
102
RTVSPropertyOp7
 70
     1
102
RTVSPropertyOp8
 70
     1
102
RTVSPropertyOp9
 70
     1
102
RTVSPropertyOp10
 70
     1
102
RTVSPropertyOp11
 70
     1
102
RTVSPropertyOp12
 70
     1
102
RTVSPropertyOp13
 70
     1
102
RTVSPropertyOp14
 70
     1
102
RTVSPropertyOp15
 70
     1
102
RTVSPropertyOp16
 70
     1
102
RTVSPropertyOp17
 70
     1
102
RTVSPropertyOp18
 70
     1
102
RTVSPropertyOp19
 70
     1
102
RTVSPropertyOp20
 70
     1
102
RTVSPropertyOp21
 70
     1
102
RTVSPropertyOp22
 70
     1
102
RTVSPropertyOp23
 70
     1
102
RTVSPropertyOp24
 70
     1
102
RTVSPropertyOp25
 70
     1
102
RTVSPropertyOp26
 70
     1
102
RTVSPropertyOp27
 70
     1
102
RTVSPropertyOp28
 70
     1
102
RTVSPropertyOp29
 70
     1
102
RTVSPropertyOp30
 70
     1
102
RTVSPropertyOp31
 70
     1
102
RTVSPropertyOp32
 70
     1
102
RTVSPropertyOp33
 70
     1
102
RTVSPropertyOp34
 70
     1
102
RTVSPropertyOp35
 70
     1
102
RTVSPropertyOp36
 70
     1
102
RTVSPropertyOp37
 70
     1
102
RTVSPropertyOp38
 70
     1
102
RTVSPropertyOp39
 70
     1
102
RTVSPropertyOp40
 70
     1
102
RTVSPropertyOp41
 70
     1
102
RTVSPropertyOp42
 70
     1
102
RTVSPropertyOp43
 70
     1
102
RTVSPropertyOp44
 70
     1
102
RTVSPropertyOp45
 70
     1
102
RTVSPropertyOp46
 70
     1
102
RTVSPropertyOp47
 70
     1
102
RTVSPropertyOp48
 70
     1
102
RTVSPropertyOp49
 70
     1
102
RTVSPropertyOp50
 70
     1
102
RTVSPropertyOp51
 70
     0
102
RTVSPropertyOp52
 70
     0
102
RTVSPropertyOp53
 70
     1
102
RTVSPropertyOp54
 70
     1
102
RTVSPropertyOp55
 70
     1
102
RTVSPropertyOp56
 70
     1
102
RTVSPropertyOp57
 70
     1
102
RTVSPropertyOp58
 70
     1
102
RTVSPropertyOp59
 70
     1
102
RTVSPropertyOp60
 70
     1
102
RTVSPropertyOp61
 70
     1
102
RTVSPropertyOp62
 70
     1
  0
XRECORD
  5
3FAE
102
{ACAD_REACTORS
330
3FAD
102
}
330
3FAD
100
AcDbXrecord
280
     1
102
RTVSPost2010Prop28
280
     0
102
RTVSPost2010PropOp28
 70
     1
102
RTVSPost2010Prop29
280
     1
102
RTVSPost2010PropOp29
 70
     1
102
RTVSPost2010Prop30
280
     1
102
RTVSPost2010PropOp30
 70
     1
102
RTVSPost2010Prop31
280
     0
102
RTVSPost2010PropOp31
 70
     1
102
RTVSPost2010Prop32
280
     0
102
RTVSPost2010PropOp32
 70
     1
102
RTVSPost2010Prop33
280
     0
102
RTVSPost2010PropOp33
 70
     1
102
RTVSPost2010Prop34
280
     0
102
RTVSPost2010PropOp34
 70
     1
102
RTVSPost2010Prop35
280
     0
102
RTVSPost2010PropOp35
 70
     1
102
RTVSPost2010Prop36
280
     0
102
RTVSPost2010PropOp36
 70
     1
102
RTVSPost2010Prop37
 90
       50
102
RTVSPost2010PropOp37
 70
     1
102
RTVSPost2010Prop38
140
0.0
102
RTVSPost2010PropOp38
 70
     1
102
RTVSPost2010Prop39
140
1.0
102
RTVSPost2010PropOp39
 70
     1
102
RTVSPost2010Prop40
 90
        0
102
RTVSPost2010PropOp40
 70
     1
102
RTVSPost2010Prop41ColorIndex
 90
       18
102
RTVSPost2010Prop41ColorRGB
 90
        0
102
RTVSPost2010PropOp41
 70
     1
102
RTVSPost2010Prop42
 90
       50
102
RTVSPost2010PropOp42
 70
     1
102
RTVSPost2010Prop43
 90
        3
102
RTVSPost2010PropOp43
 70
     1
102
RTVSPost2010Prop44ColorIndex
 90
        5
102
RTVSPost2010Prop44ColorRGB
 90
      255
102
RTVSPost2010PropOp44
 70
     1
102
RTVSPost2010Prop45
280
     0
102
RTVSPost2010PropOp45
 70
     1
102
RTVSPost2010Prop46
 90
       50
102
RTVSPost2010PropOp46
 70
     1
102
RTVSPost2010Prop47
 90
       50
102
RTVSPost2010PropOp47
 70
     1
102
RTVSPost2010Prop48
 90
       50
102
RTVSPost2010PropOp48
 70
     1
102
RTVSPost2010Prop49
280
     0
102
RTVSPost2010PropOp49
 70
     1
102
RTVSPost2010Prop50
 90
       50
102
RTVSPost2010PropOp50
 70
     1
102
RTVSPost2010Prop51ColorIndex
 90
      256
102
RTVSPost2010Prop51ColorRGB
 90
-16777216
102
RTVSPost2010PropOp51
 70
     0
102
RTVSPost2010Prop52
140
1.0
102
RTVSPost2010PropOp52
 70
     0
102
RTVSPost2010Prop53
 90
        2
102
RTVSPost2010PropOp53
 70
     1
102
RTVSPost2010Prop54
  1
strokes_ogs.tif
102
RTVSPost2010PropOp54
 70
     1
102
RTVSPost2010Prop55
280
     0
102
RTVSPost2010PropOp55
 70
     1
102
RTVSPost2010Prop56
140
1.0
102
RTVSPost2010PropOp56
 70
     1
102
RTVSPost2010Prop57
140
1.0
102
RTVSPost2010PropOp57
 70
     1
102
RTVSPropertyOp0
 70
     1
102
RTVSPropertyOp1
 70
     1
102
RTVSPropertyOp2
 70
     1
102
RTVSPropertyOp3
 70
     1
102
RTVSPropertyOp4
 70
     1
102
RTVSPropertyOp5
 70
     1
102
RTVSPropertyOp6
 70
     1
102
RTVSPropertyOp7
 70
     1
102
RTVSPropertyOp8
 70
     1
102
RTVSPropertyOp9
 70
     1
102
RTVSPropertyOp10
 70
     1
102
RTVSPropertyOp11
 70
     1
102
RTVSPropertyOp12
 70
     1
102
RTVSPropertyOp13
 70
     1
102
RTVSPropertyOp14
 70
     1
102
RTVSPropertyOp15
 70
     1
102
RTVSPropertyOp16
 70
     1
102
RTVSPropertyOp17
 70
     1
102
RTVSPropertyOp18
 70
     1
102
RTVSPropertyOp19
 70
     1
102
RTVSPropertyOp20
 70
     1
102
RTVSPropertyOp21
 70
     1
102
RTVSPropertyOp22
 70
     1
102
RTVSPropertyOp23
 70
     1
102
RTVSPropertyOp24
 70
     1
102
RTVSPropertyOp25
 70
     1
102
RTVSPropertyOp26
 70
     1
102
RTVSPropertyOp27
 70
     1
102
RTVSPropertyOp28
 70
     1
102
RTVSPropertyOp29
 70
     1
102
RTVSPropertyOp30
 70
     1
102
RTVSPropertyOp31
 70
     1
102
RTVSPropertyOp32
 70
     1
102
RTVSPropertyOp33
 70
     1
102
RTVSPropertyOp34
 70
     1
102
RTVSPropertyOp35
 70
     1
102
RTVSPropertyOp36
 70
     1
102
RTVSPropertyOp37
 70
     1
102
RTVSPropertyOp38
 70
     1
102
RTVSPropertyOp39
 70
     1
102
RTVSPropertyOp40
 70
     1
102
RTVSPropertyOp41
 70
     1
102
RTVSPropertyOp42
 70
     1
102
RTVSPropertyOp43
 70
     1
102
RTVSPropertyOp44
 70
     1
102
RTVSPropertyOp45
 70
     1
102
RTVSPropertyOp46
 70
     1
102
RTVSPropertyOp47
 70
     1
102
RTVSPropertyOp48
 70
     1
102
RTVSPropertyOp49
 70
     1
102
RTVSPropertyOp50
 70
     1
102
RTVSPropertyOp51
 70
     0
102
RTVSPropertyOp52
 70
     0
102
RTVSPropertyOp53
 70
     1
102
RTVSPropertyOp54
 70
     1
102
RTVSPropertyOp55
 70
     1
102
RTVSPropertyOp56
 70
     1
102
RTVSPropertyOp57
 70
     1
102
RTVSPropertyOp58
 70
     1
102
RTVSPropertyOp59
 70
     1
102
RTVSPropertyOp60
 70
     1
102
RTVSPropertyOp61
 70
     1
102
RTVSPropertyOp62
 70
     1
  0
XRECORD
  5
3FB0
102
{ACAD_REACTORS
330
3FAF
102
}
330
3FAF
100
AcDbXrecord
280
     1
102
RTVSPost2010Prop28
280
     0
102
RTVSPost2010PropOp28
 70
     1
102
RTVSPost2010Prop29
280
     1
102
RTVSPost2010PropOp29
 70
     1
102
RTVSPost2010Prop30
280
     1
102
RTVSPost2010PropOp30
 70
     1
102
RTVSPost2010Prop31
280
     0
102
RTVSPost2010PropOp31
 70
     1
102
RTVSPost2010Prop32
280
     0
102
RTVSPost2010PropOp32
 70
     1
102
RTVSPost2010Prop33
280
     0
102
RTVSPost2010PropOp33
 70
     1
102
RTVSPost2010Prop34
280
     0
102
RTVSPost2010PropOp34
 70
     1
102
RTVSPost2010Prop35
280
     0
102
RTVSPost2010PropOp35
 70
     1
102
RTVSPost2010Prop36
280
     0
102
RTVSPost2010PropOp36
 70
     1
102
RTVSPost2010Prop37
 90
       50
102
RTVSPost2010PropOp37
 70
     1
102
RTVSPost2010Prop38
140
0.0
102
RTVSPost2010PropOp38
 70
     1
102
RTVSPost2010Prop39
140
1.0
102
RTVSPost2010PropOp39
 70
     1
102
RTVSPost2010Prop40
 90
        0
102
RTVSPost2010PropOp40
 70
     1
102
RTVSPost2010Prop41ColorIndex
 90
       18
102
RTVSPost2010Prop41ColorRGB
 90
        0
102
RTVSPost2010PropOp41
 70
     1
102
RTVSPost2010Prop42
 90
       50
102
RTVSPost2010PropOp42
 70
     1
102
RTVSPost2010Prop43
 90
        3
102
RTVSPost2010PropOp43
 70
     1
102
RTVSPost2010Prop44ColorIndex
 90
        5
102
RTVSPost2010Prop44ColorRGB
 90
      255
102
RTVSPost2010PropOp44
 70
     1
102
RTVSPost2010Prop45
280
     0
102
RTVSPost2010PropOp45
 70
     1
102
RTVSPost2010Prop46
 90
       50
102
RTVSPost2010PropOp46
 70
     1
102
RTVSPost2010Prop47
 90
       50
102
RTVSPost2010PropOp47
 70
     1
102
RTVSPost2010Prop48
 90
       50
102
RTVSPost2010PropOp48
 70
     1
102
RTVSPost2010Prop49
280
     0
102
RTVSPost2010PropOp49
 70
     1
102
RTVSPost2010Prop50
 90
       50
102
RTVSPost2010PropOp50
 70
     1
102
RTVSPost2010Prop51ColorIndex
 90
      256
102
RTVSPost2010Prop51ColorRGB
 90
-16777216
102
RTVSPost2010PropOp51
 70
     0
102
RTVSPost2010Prop52
140
1.0
102
RTVSPost2010PropOp52
 70
     0
102
RTVSPost2010Prop53
 90
        2
102
RTVSPost2010PropOp53
 70
     1
102
RTVSPost2010Prop54
  1
strokes_ogs.tif
102
RTVSPost2010PropOp54
 70
     1
102
RTVSPost2010Prop55
280
     0
102
RTVSPost2010PropOp55
 70
     1
102
RTVSPost2010Prop56
140
1.0
102
RTVSPost2010PropOp56
 70
     1
102
RTVSPost2010Prop57
140
1.0
102
RTVSPost2010PropOp57
 70
     1
102
RTVSPropertyOp0
 70
     1
102
RTVSPropertyOp1
 70
     1
102
RTVSPropertyOp2
 70
     1
102
RTVSPropertyOp3
 70
     1
102
RTVSPropertyOp4
 70
     1
102
RTVSPropertyOp5
 70
     1
102
RTVSPropertyOp6
 70
     1
102
RTVSPropertyOp7
 70
     1
102
RTVSPropertyOp8
 70
     1
102
RTVSPropertyOp9
 70
     1
102
RTVSPropertyOp10
 70
     1
102
RTVSPropertyOp11
 70
     1
102
RTVSPropertyOp12
 70
     1
102
RTVSPropertyOp13
 70
     1
102
RTVSPropertyOp14
 70
     1
102
RTVSPropertyOp15
 70
     1
102
RTVSPropertyOp16
 70
     1
102
RTVSPropertyOp17
 70
     1
102
RTVSPropertyOp18
 70
     1
102
RTVSPropertyOp19
 70
     1
102
RTVSPropertyOp20
 70
     1
102
RTVSPropertyOp21
 70
     1
102
RTVSPropertyOp22
 70
     1
102
RTVSPropertyOp23
 70
     1
102
RTVSPropertyOp24
 70
     1
102
RTVSPropertyOp25
 70
     1
102
RTVSPropertyOp26
 70
     1
102
RTVSPropertyOp27
 70
     1
102
RTVSPropertyOp28
 70
     1
102
RTVSPropertyOp29
 70
     1
102
RTVSPropertyOp30
 70
     1
102
RTVSPropertyOp31
 70
     1
102
RTVSPropertyOp32
 70
     1
102
RTVSPropertyOp33
 70
     1
102
RTVSPropertyOp34
 70
     1
102
RTVSPropertyOp35
 70
     1
102
RTVSPropertyOp36
 70
     1
102
RTVSPropertyOp37
 70
     1
102
RTVSPropertyOp38
 70
     1
102
RTVSPropertyOp39
 70
     1
102
RTVSPropertyOp40
 70
     1
102
RTVSPropertyOp41
 70
     1
102
RTVSPropertyOp42
 70
     1
102
RTVSPropertyOp43
 70
     1
102
RTVSPropertyOp44
 70
     1
102
RTVSPropertyOp45
 70
     1
102
RTVSPropertyOp46
 70
     1
102
RTVSPropertyOp47
 70
     1
102
RTVSPropertyOp48
 70
     1
102
RTVSPropertyOp49
 70
     1
102
RTVSPropertyOp50
 70
     1
102
RTVSPropertyOp51
 70
     0
102
RTVSPropertyOp52
 70
     0
102
RTVSPropertyOp53
 70
     1
102
RTVSPropertyOp54
 70
     1
102
RTVSPropertyOp55
 70
     1
102
RTVSPropertyOp56
 70
     1
102
RTVSPropertyOp57
 70
     1
102
RTVSPropertyOp58
 70
     1
102
RTVSPropertyOp59
 70
     1
102
RTVSPropertyOp60
 70
     1
102
RTVSPropertyOp61
 70
     1
102
RTVSPropertyOp62
 70
     1
  0
XRECORD
  5
3FB2
102
{ACAD_REACTORS
330
3FB1
102
}
330
3FB1
100
AcDbXrecord
280
     1
102
RTVSPost2010Prop28
280
     0
102
RTVSPost2010PropOp28
 70
     1
102
RTVSPost2010Prop29
280
     1
102
RTVSPost2010PropOp29
 70
     1
102
RTVSPost2010Prop30
280
     1
102
RTVSPost2010PropOp30
 70
     1
102
RTVSPost2010Prop31
280
     0
102
RTVSPost2010PropOp31
 70
     1
102
RTVSPost2010Prop32
280
     0
102
RTVSPost2010PropOp32
 70
     1
102
RTVSPost2010Prop33
280
     0
102
RTVSPost2010PropOp33
 70
     1
102
RTVSPost2010Prop34
280
     0
102
RTVSPost2010PropOp34
 70
     1
102
RTVSPost2010Prop35
280
     0
102
RTVSPost2010PropOp35
 70
     1
102
RTVSPost2010Prop36
280
     0
102
RTVSPost2010PropOp36
 70
     1
102
RTVSPost2010Prop37
 90
       50
102
RTVSPost2010PropOp37
 70
     1
102
RTVSPost2010Prop38
140
0.0
102
RTVSPost2010PropOp38
 70
     1
102
RTVSPost2010Prop39
140
1.0
102
RTVSPost2010PropOp39
 70
     1
102
RTVSPost2010Prop40
 90
        0
102
RTVSPost2010PropOp40
 70
     1
102
RTVSPost2010Prop41ColorIndex
 90
       18
102
RTVSPost2010Prop41ColorRGB
 90
        0
102
RTVSPost2010PropOp41
 70
     1
102
RTVSPost2010Prop42
 90
       50
102
RTVSPost2010PropOp42
 70
     1
102
RTVSPost2010Prop43
 90
        3
102
RTVSPost2010PropOp43
 70
     1
102
RTVSPost2010Prop44ColorIndex
 90
        5
102
RTVSPost2010Prop44ColorRGB
 90
      255
102
RTVSPost2010PropOp44
 70
     1
102
RTVSPost2010Prop45
280
     0
102
RTVSPost2010PropOp45
 70
     1
102
RTVSPost2010Prop46
 90
       50
102
RTVSPost2010PropOp46
 70
     1
102
RTVSPost2010Prop47
 90
       50
102
RTVSPost2010PropOp47
 70
     1
102
RTVSPost2010Prop48
 90
       50
102
RTVSPost2010PropOp48
 70
     1
102
RTVSPost2010Prop49
280
     0
102
RTVSPost2010PropOp49
 70
     1
102
RTVSPost2010Prop50
 90
       50
102
RTVSPost2010PropOp50
 70
     1
102
RTVSPost2010Prop51ColorIndex
 90
      256
102
RTVSPost2010Prop51ColorRGB
 90
-16777216
102
RTVSPost2010PropOp51
 70
     0
102
RTVSPost2010Prop52
140
1.0
102
RTVSPost2010PropOp52
 70
     0
102
RTVSPost2010Prop53
 90
        2
102
RTVSPost2010PropOp53
 70
     1
102
RTVSPost2010Prop54
  1
strokes_ogs.tif
102
RTVSPost2010PropOp54
 70
     1
102
RTVSPost2010Prop55
280
     0
102
RTVSPost2010PropOp55
 70
     1
102
RTVSPost2010Prop56
140
1.0
102
RTVSPost2010PropOp56
 70
     1
102
RTVSPost2010Prop57
140
1.0
102
RTVSPost2010PropOp57
 70
     1
102
RTVSPropertyOp0
 70
     1
102
RTVSPropertyOp1
 70
     1
102
RTVSPropertyOp2
 70
     1
102
RTVSPropertyOp3
 70
     1
102
RTVSPropertyOp4
 70
     1
102
RTVSPropertyOp5
 70
     1
102
RTVSPropertyOp6
 70
     1
102
RTVSPropertyOp7
 70
     1
102
RTVSPropertyOp8
 70
     1
102
RTVSPropertyOp9
 70
     1
102
RTVSPropertyOp10
 70
     1
102
RTVSPropertyOp11
 70
     1
102
RTVSPropertyOp12
 70
     1
102
RTVSPropertyOp13
 70
     1
102
RTVSPropertyOp14
 70
     1
102
RTVSPropertyOp15
 70
     1
102
RTVSPropertyOp16
 70
     1
102
RTVSPropertyOp17
 70
     1
102
RTVSPropertyOp18
 70
     1
102
RTVSPropertyOp19
 70
     1
102
RTVSPropertyOp20
 70
     1
102
RTVSPropertyOp21
 70
     1
102
RTVSPropertyOp22
 70
     1
102
RTVSPropertyOp23
 70
     1
102
RTVSPropertyOp24
 70
     1
102
RTVSPropertyOp25
 70
     1
102
RTVSPropertyOp26
 70
     1
102
RTVSPropertyOp27
 70
     1
102
RTVSPropertyOp28
 70
     1
102
RTVSPropertyOp29
 70
     1
102
RTVSPropertyOp30
 70
     1
102
RTVSPropertyOp31
 70
     1
102
RTVSPropertyOp32
 70
     1
102
RTVSPropertyOp33
 70
     1
102
RTVSPropertyOp34
 70
     1
102
RTVSPropertyOp35
 70
     1
102
RTVSPropertyOp36
 70
     1
102
RTVSPropertyOp37
 70
     1
102
RTVSPropertyOp38
 70
     1
102
RTVSPropertyOp39
 70
     1
102
RTVSPropertyOp40
 70
     1
102
RTVSPropertyOp41
 70
     1
102
RTVSPropertyOp42
 70
     1
102
RTVSPropertyOp43
 70
     1
102
RTVSPropertyOp44
 70
     1
102
RTVSPropertyOp45
 70
     1
102
RTVSPropertyOp46
 70
     1
102
RTVSPropertyOp47
 70
     1
102
RTVSPropertyOp48
 70
     1
102
RTVSPropertyOp49
 70
     1
102
RTVSPropertyOp50
 70
     1
102
RTVSPropertyOp51
 70
     0
102
RTVSPropertyOp52
 70
     0
102
RTVSPropertyOp53
 70
     1
102
RTVSPropertyOp54
 70
     1
102
RTVSPropertyOp55
 70
     1
102
RTVSPropertyOp56
 70
     1
102
RTVSPropertyOp57
 70
     1
102
RTVSPropertyOp58
 70
     1
102
RTVSPropertyOp59
 70
     1
102
RTVSPropertyOp60
 70
     1
102
RTVSPropertyOp61
 70
     1
102
RTVSPropertyOp62
 70
     1
  0
XRECORD
  5
3FBA
102
{ACAD_REACTORS
330
3FB9
102
}
330
3FB9
100
AcDbXrecord
280
     1
102
RTVSPost2010Prop28
280
     0
102
RTVSPost2010PropOp28
 70
     1
102
RTVSPost2010Prop29
280
     1
102
RTVSPost2010PropOp29
 70
     1
102
RTVSPost2010Prop30
280
     1
102
RTVSPost2010PropOp30
 70
     1
102
RTVSPost2010Prop31
280
     0
102
RTVSPost2010PropOp31
 70
     1
102
RTVSPost2010Prop32
280
     0
102
RTVSPost2010PropOp32
 70
     1
102
RTVSPost2010Prop33
280
     0
102
RTVSPost2010PropOp33
 70
     1
102
RTVSPost2010Prop34
280
     0
102
RTVSPost2010PropOp34
 70
     1
102
RTVSPost2010Prop35
280
     0
102
RTVSPost2010PropOp35
 70
     1
102
RTVSPost2010Prop36
280
     0
102
RTVSPost2010PropOp36
 70
     1
102
RTVSPost2010Prop37
 90
       50
102
RTVSPost2010PropOp37
 70
     1
102
RTVSPost2010Prop38
140
0.0
102
RTVSPost2010PropOp38
 70
     1
102
RTVSPost2010Prop39
140
1.0
102
RTVSPost2010PropOp39
 70
     1
102
RTVSPost2010Prop40
 90
        0
102
RTVSPost2010PropOp40
 70
     1
102
RTVSPost2010Prop41ColorIndex
 90
       18
102
RTVSPost2010Prop41ColorRGB
 90
        0
102
RTVSPost2010PropOp41
 70
     1
102
RTVSPost2010Prop42
 90
       50
102
RTVSPost2010PropOp42
 70
     1
102
RTVSPost2010Prop43
 90
        3
102
RTVSPost2010PropOp43
 70
     1
102
RTVSPost2010Prop44ColorIndex
 90
        5
102
RTVSPost2010Prop44ColorRGB
 90
      255
102
RTVSPost2010PropOp44
 70
     1
102
RTVSPost2010Prop45
280
     0
102
RTVSPost2010PropOp45
 70
     1
102
RTVSPost2010Prop46
 90
       50
102
RTVSPost2010PropOp46
 70
     1
102
RTVSPost2010Prop47
 90
       50
102
RTVSPost2010PropOp47
 70
     1
102
RTVSPost2010Prop48
 90
       50
102
RTVSPost2010PropOp48
 70
     1
102
RTVSPost2010Prop49
280
     0
102
RTVSPost2010PropOp49
 70
     1
102
RTVSPost2010Prop50
 90
       50
102
RTVSPost2010PropOp50
 70
     1
102
RTVSPost2010Prop51ColorIndex
 90
      256
102
RTVSPost2010Prop51ColorRGB
 90
-16777216
102
RTVSPost2010PropOp51
 70
     0
102
RTVSPost2010Prop52
140
1.0
102
RTVSPost2010PropOp52
 70
     0
102
RTVSPost2010Prop53
 90
        2
102
RTVSPost2010PropOp53
 70
     1
102
RTVSPost2010Prop54
  1
strokes_ogs.tif
102
RTVSPost2010PropOp54
 70
     1
102
RTVSPost2010Prop55
280
     0
102
RTVSPost2010PropOp55
 70
     1
102
RTVSPost2010Prop56
140
1.0
102
RTVSPost2010PropOp56
 70
     1
102
RTVSPost2010Prop57
140
1.0
102
RTVSPost2010PropOp57
 70
     1
102
RTVSPropertyOp0
 70
     1
102
RTVSPropertyOp1
 70
     1
102
RTVSPropertyOp2
 70
     1
102
RTVSPropertyOp3
 70
     1
102
RTVSPropertyOp4
 70
     1
102
RTVSPropertyOp5
 70
     1
102
RTVSPropertyOp6
 70
     1
102
RTVSPropertyOp7
 70
     1
102
RTVSPropertyOp8
 70
     1
102
RTVSPropertyOp9
 70
     1
102
RTVSPropertyOp10
 70
     1
102
RTVSPropertyOp11
 70
     1
102
RTVSPropertyOp12
 70
     1
102
RTVSPropertyOp13
 70
     1
102
RTVSPropertyOp14
 70
     1
102
RTVSPropertyOp15
 70
     1
102
RTVSPropertyOp16
 70
     1
102
RTVSPropertyOp17
 70
     1
102
RTVSPropertyOp18
 70
     1
102
RTVSPropertyOp19
 70
     1
102
RTVSPropertyOp20
 70
     1
102
RTVSPropertyOp21
 70
     1
102
RTVSPropertyOp22
 70
     1
102
RTVSPropertyOp23
 70
     1
102
RTVSPropertyOp24
 70
     1
102
RTVSPropertyOp25
 70
     1
102
RTVSPropertyOp26
 70
     1
102
RTVSPropertyOp27
 70
     1
102
RTVSPropertyOp28
 70
     1
102
RTVSPropertyOp29
 70
     1
102
RTVSPropertyOp30
 70
     1
102
RTVSPropertyOp31
 70
     1
102
RTVSPropertyOp32
 70
     1
102
RTVSPropertyOp33
 70
     1
102
RTVSPropertyOp34
 70
     1
102
RTVSPropertyOp35
 70
     1
102
RTVSPropertyOp36
 70
     1
102
RTVSPropertyOp37
 70
     1
102
RTVSPropertyOp38
 70
     1
102
RTVSPropertyOp39
 70
     1
102
RTVSPropertyOp40
 70
     1
102
RTVSPropertyOp41
 70
     1
102
RTVSPropertyOp42
 70
     1
102
RTVSPropertyOp43
 70
     1
102
RTVSPropertyOp44
 70
     1
102
RTVSPropertyOp45
 70
     1
102
RTVSPropertyOp46
 70
     1
102
RTVSPropertyOp47
 70
     1
102
RTVSPropertyOp48
 70
     1
102
RTVSPropertyOp49
 70
     1
102
RTVSPropertyOp50
 70
     1
102
RTVSPropertyOp51
 70
     0
102
RTVSPropertyOp52
 70
     0
102
RTVSPropertyOp53
 70
     1
102
RTVSPropertyOp54
 70
     1
102
RTVSPropertyOp55
 70
     1
102
RTVSPropertyOp56
 70
     1
102
RTVSPropertyOp57
 70
     1
102
RTVSPropertyOp58
 70
     1
102
RTVSPropertyOp59
 70
     1
102
RTVSPropertyOp60
 70
     1
102
RTVSPropertyOp61
 70
     1
102
RTVSPropertyOp62
 70
     1
  0
XRECORD
  5
3FD6
102
{ACAD_REACTORS
330
3FD5
102
}
330
3FD5
100
AcDbXrecord
280
     1
102
RTVSPost2010Prop28
280
     0
102
RTVSPost2010PropOp28
 70
     0
102
RTVSPost2010Prop29
280
     1
102
RTVSPost2010PropOp29
 70
     0
102
RTVSPost2010Prop30
280
     1
102
RTVSPost2010PropOp30
 70
     0
102
RTVSPost2010Prop31
280
     0
102
RTVSPost2010PropOp31
 70
     0
102
RTVSPost2010Prop32
280
     0
102
RTVSPost2010PropOp32
 70
     0
102
RTVSPost2010Prop33
280
     0
102
RTVSPost2010PropOp33
 70
     0
102
RTVSPost2010Prop34
280
     0
102
RTVSPost2010PropOp34
 70
     0
102
RTVSPost2010Prop35
280
     0
102
RTVSPost2010PropOp35
 70
     0
102
RTVSPost2010Prop36
280
     0
102
RTVSPost2010PropOp36
 70
     0
102
RTVSPost2010Prop37
 90
       50
102
RTVSPost2010PropOp37
 70
     0
102
RTVSPost2010Prop38
140
0.0
102
RTVSPost2010PropOp38
 70
     0
102
RTVSPost2010Prop39
140
1.0
102
RTVSPost2010PropOp39
 70
     0
102
RTVSPost2010Prop40
 90
        0
102
RTVSPost2010PropOp40
 70
     0
102
RTVSPost2010Prop41ColorIndex
 90
       18
102
RTVSPost2010Prop41ColorRGB
 90
        0
102
RTVSPost2010PropOp41
 70
     0
102
RTVSPost2010Prop42
 90
       50
102
RTVSPost2010PropOp42
 70
     0
102
RTVSPost2010Prop43
 90
        3
102
RTVSPost2010PropOp43
 70
     0
102
RTVSPost2010Prop44ColorIndex
 90
        5
102
RTVSPost2010Prop44ColorRGB
 90
      255
102
RTVSPost2010PropOp44
 70
     0
102
RTVSPost2010Prop45
280
     0
102
RTVSPost2010PropOp45
 70
     0
102
RTVSPost2010Prop46
 90
       50
102
RTVSPost2010PropOp46
 70
     0
102
RTVSPost2010Prop47
 90
       50
102
RTVSPost2010PropOp47
 70
     0
102
RTVSPost2010Prop48
 90
       50
102
RTVSPost2010PropOp48
 70
     0
102
RTVSPost2010Prop49
280
     0
102
RTVSPost2010PropOp49
 70
     0
102
RTVSPost2010Prop50
 90
       50
102
RTVSPost2010PropOp50
 70
     0
102
RTVSPost2010Prop51ColorIndex
 90
      256
102
RTVSPost2010Prop51ColorRGB
 90
-16777216
102
RTVSPost2010PropOp51
 70
     0
102
RTVSPost2010Prop52
140
1.0
102
RTVSPost2010PropOp52
 70
     0
102
RTVSPost2010Prop53
 90
        2
102
RTVSPost2010PropOp53
 70
     0
102
RTVSPost2010Prop54
  1
strokes_ogs.tif
102
RTVSPost2010PropOp54
 70
     0
102
RTVSPost2010Prop55
280
     0
102
RTVSPost2010PropOp55
 70
     0
102
RTVSPost2010Prop56
140
1.0
102
RTVSPost2010PropOp56
 70
     0
102
RTVSPost2010Prop57
140
1.0
102
RTVSPost2010PropOp57
 70
     0
102
RTVSPropertyOp0
 70
     0
102
RTVSPropertyOp1
 70
     0
102
RTVSPropertyOp2
 70
     0
102
RTVSPropertyOp3
 70
     0
102
RTVSPropertyOp4
 70
     0
102
RTVSPropertyOp5
 70
     0
102
RTVSPropertyOp6
 70
     0
102
RTVSPropertyOp7
 70
     0
102
RTVSPropertyOp8
 70
     0
102
RTVSPropertyOp9
 70
     0
102
RTVSPropertyOp10
 70
     0
102
RTVSPropertyOp11
 70
     0
102
RTVSPropertyOp12
 70
     0
102
RTVSPropertyOp13
 70
     0
102
RTVSPropertyOp14
 70
     2
102
RTVSPropertyOp15
 70
     0
102
RTVSPropertyOp16
 70
     0
102
RTVSPropertyOp17
 70
     0
102
RTVSPropertyOp18
 70
     0
102
RTVSPropertyOp19
 70
     0
102
RTVSPropertyOp20
 70
     0
102
RTVSPropertyOp21
 70
     0
102
RTVSPropertyOp22
 70
     0
102
RTVSPropertyOp23
 70
     0
102
RTVSPropertyOp24
 70
     0
102
RTVSPropertyOp25
 70
     0
102
RTVSPropertyOp26
 70
     0
102
RTVSPropertyOp27
 70
     0
102
RTVSPropertyOp28
 70
     0
102
RTVSPropertyOp29
 70
     0
102
RTVSPropertyOp30
 70
     0
102
RTVSPropertyOp31
 70
     0
102
RTVSPropertyOp32
 70
     0
102
RTVSPropertyOp33
 70
     0
102
RTVSPropertyOp34
 70
     0
102
RTVSPropertyOp35
 70
     0
102
RTVSPropertyOp36
 70
     0
102
RTVSPropertyOp37
 70
     0
102
RTVSPropertyOp38
 70
     0
102
RTVSPropertyOp39
 70
     0
102
RTVSPropertyOp40
 70
     0
102
RTVSPropertyOp41
 70
     0
102
RTVSPropertyOp42
 70
     0
102
RTVSPropertyOp43
 70
     0
102
RTVSPropertyOp44
 70
     0
102
RTVSPropertyOp45
 70
     0
102
RTVSPropertyOp46
 70
     0
102
RTVSPropertyOp47
 70
     0
102
RTVSPropertyOp48
 70
     0
102
RTVSPropertyOp49
 70
     0
102
RTVSPropertyOp50
 70
     0
102
RTVSPropertyOp51
 70
     0
102
RTVSPropertyOp52
 70
     0
102
RTVSPropertyOp53
 70
     0
102
RTVSPropertyOp54
 70
     0
102
RTVSPropertyOp55
 70
     0
102
RTVSPropertyOp56
 70
     0
102
RTVSPropertyOp57
 70
     0
102
RTVSPropertyOp58
 70
     1
102
RTVSPropertyOp59
 70
     1
102
RTVSPropertyOp60
 70
     1
102
RTVSPropertyOp61
 70
     1
102
RTVSPropertyOp62
 70
     1
  0
XRECORD
  5
3FC6
102
{ACAD_REACTORS
330
3FC5
102
}
330
3FC5
100
AcDbXrecord
280
     1
102
RTVSPost2010Prop28
280
     0
102
RTVSPost2010PropOp28
 70
     1
102
RTVSPost2010Prop29
280
     1
102
RTVSPost2010PropOp29
 70
     1
102
RTVSPost2010Prop30
280
     1
102
RTVSPost2010PropOp30
 70
     1
102
RTVSPost2010Prop31
280
     0
102
RTVSPost2010PropOp31
 70
     1
102
RTVSPost2010Prop32
280
     0
102
RTVSPost2010PropOp32
 70
     1
102
RTVSPost2010Prop33
280
     0
102
RTVSPost2010PropOp33
 70
     1
102
RTVSPost2010Prop34
280
     0
102
RTVSPost2010PropOp34
 70
     1
102
RTVSPost2010Prop35
280
     0
102
RTVSPost2010PropOp35
 70
     1
102
RTVSPost2010Prop36
280
     0
102
RTVSPost2010PropOp36
 70
     1
102
RTVSPost2010Prop37
 90
       50
102
RTVSPost2010PropOp37
 70
     1
102
RTVSPost2010Prop38
140
0.0
102
RTVSPost2010PropOp38
 70
     1
102
RTVSPost2010Prop39
140
1.0
102
RTVSPost2010PropOp39
 70
     1
102
RTVSPost2010Prop40
 90
        0
102
RTVSPost2010PropOp40
 70
     1
102
RTVSPost2010Prop41ColorIndex
 90
       18
102
RTVSPost2010Prop41ColorRGB
 90
        0
102
RTVSPost2010PropOp41
 70
     1
102
RTVSPost2010Prop42
 90
       50
102
RTVSPost2010PropOp42
 70
     1
102
RTVSPost2010Prop43
 90
        3
102
RTVSPost2010PropOp43
 70
     1
102
RTVSPost2010Prop44ColorIndex
 90
        5
102
RTVSPost2010Prop44ColorRGB
 90
      255
102
RTVSPost2010PropOp44
 70
     1
102
RTVSPost2010Prop45
280
     0
102
RTVSPost2010PropOp45
 70
     1
102
RTVSPost2010Prop46
 90
       50
102
RTVSPost2010PropOp46
 70
     1
102
RTVSPost2010Prop47
 90
       50
102
RTVSPost2010PropOp47
 70
     1
102
RTVSPost2010Prop48
 90
       50
102
RTVSPost2010PropOp48
 70
     1
102
RTVSPost2010Prop49
280
     0
102
RTVSPost2010PropOp49
 70
     1
102
RTVSPost2010Prop50
 90
       50
102
RTVSPost2010PropOp50
 70
     1
102
RTVSPost2010Prop51ColorIndex
 90
      256
102
RTVSPost2010Prop51ColorRGB
 90
-16777216
102
RTVSPost2010PropOp51
 70
     0
102
RTVSPost2010Prop52
140
1.0
102
RTVSPost2010PropOp52
 70
     0
102
RTVSPost2010Prop53
 90
        2
102
RTVSPost2010PropOp53
 70
     1
102
RTVSPost2010Prop54
  1
strokes_ogs.tif
102
RTVSPost2010PropOp54
 70
     1
102
RTVSPost2010Prop55
280
     0
102
RTVSPost2010PropOp55
 70
     1
102
RTVSPost2010Prop56
140
1.0
102
RTVSPost2010PropOp56
 70
     1
102
RTVSPost2010Prop57
140
1.0
102
RTVSPost2010PropOp57
 70
     1
102
RTVSPropertyOp0
 70
     1
102
RTVSPropertyOp1
 70
     1
102
RTVSPropertyOp2
 70
     1
102
RTVSPropertyOp3
 70
     1
102
RTVSPropertyOp4
 70
     1
102
RTVSPropertyOp5
 70
     1
102
RTVSPropertyOp6
 70
     1
102
RTVSPropertyOp7
 70
     1
102
RTVSPropertyOp8
 70
     1
102
RTVSPropertyOp9
 70
     1
102
RTVSPropertyOp10
 70
     1
102
RTVSPropertyOp11
 70
     1
102
RTVSPropertyOp12
 70
     1
102
RTVSPropertyOp13
 70
     1
102
RTVSPropertyOp14
 70
     1
102
RTVSPropertyOp15
 70
     1
102
RTVSPropertyOp16
 70
     1
102
RTVSPropertyOp17
 70
     1
102
RTVSPropertyOp18
 70
     1
102
RTVSPropertyOp19
 70
     1
102
RTVSPropertyOp20
 70
     1
102
RTVSPropertyOp21
 70
     1
102
RTVSPropertyOp22
 70
     1
102
RTVSPropertyOp23
 70
     1
102
RTVSPropertyOp24
 70
     1
102
RTVSPropertyOp25
 70
     1
102
RTVSPropertyOp26
 70
     1
102
RTVSPropertyOp27
 70
     1
102
RTVSPropertyOp28
 70
     1
102
RTVSPropertyOp29
 70
     1
102
RTVSPropertyOp30
 70
     1
102
RTVSPropertyOp31
 70
     1
102
RTVSPropertyOp32
 70
     1
102
RTVSPropertyOp33
 70
     1
102
RTVSPropertyOp34
 70
     1
102
RTVSPropertyOp35
 70
     1
102
RTVSPropertyOp36
 70
     1
102
RTVSPropertyOp37
 70
     1
102
RTVSPropertyOp38
 70
     1
102
RTVSPropertyOp39
 70
     1
102
RTVSPropertyOp40
 70
     1
102
RTVSPropertyOp41
 70
     1
102
RTVSPropertyOp42
 70
     1
102
RTVSPropertyOp43
 70
     1
102
RTVSPropertyOp44
 70
     1
102
RTVSPropertyOp45
 70
     1
102
RTVSPropertyOp46
 70
     1
102
RTVSPropertyOp47
 70
     1
102
RTVSPropertyOp48
 70
     1
102
RTVSPropertyOp49
 70
     1
102
RTVSPropertyOp50
 70
     1
102
RTVSPropertyOp51
 70
     0
102
RTVSPropertyOp52
 70
     0
102
RTVSPropertyOp53
 70
     1
102
RTVSPropertyOp54
 70
     1
102
RTVSPropertyOp55
 70
     1
102
RTVSPropertyOp56
 70
     1
102
RTVSPropertyOp57
 70
     1
102
RTVSPropertyOp58
 70
     1
102
RTVSPropertyOp59
 70
     1
102
RTVSPropertyOp60
 70
     1
102
RTVSPropertyOp61
 70
     1
102
RTVSPropertyOp62
 70
     1
  0
XRECORD
  5
3FD8
102
{ACAD_REACTORS
330
3FD7
102
}
330
3FD7
100
AcDbXrecord
280
     1
102
RTVSPost2010Prop28
280
     0
102
RTVSPost2010PropOp28
 70
     0
102
RTVSPost2010Prop29
280
     1
102
RTVSPost2010PropOp29
 70
     0
102
RTVSPost2010Prop30
280
     1
102
RTVSPost2010PropOp30
 70
     0
102
RTVSPost2010Prop31
280
     0
102
RTVSPost2010PropOp31
 70
     0
102
RTVSPost2010Prop32
280
     0
102
RTVSPost2010PropOp32
 70
     0
102
RTVSPost2010Prop33
280
     0
102
RTVSPost2010PropOp33
 70
     0
102
RTVSPost2010Prop34
280
     0
102
RTVSPost2010PropOp34
 70
     0
102
RTVSPost2010Prop35
280
     0
102
RTVSPost2010PropOp35
 70
     0
102
RTVSPost2010Prop36
280
     0
102
RTVSPost2010PropOp36
 70
     0
102
RTVSPost2010Prop37
 90
       50
102
RTVSPost2010PropOp37
 70
     0
102
RTVSPost2010Prop38
140
0.0
102
RTVSPost2010PropOp38
 70
     0
102
RTVSPost2010Prop39
140
1.0
102
RTVSPost2010PropOp39
 70
     0
102
RTVSPost2010Prop40
 90
        0
102
RTVSPost2010PropOp40
 70
     0
102
RTVSPost2010Prop41ColorIndex
 90
       18
102
RTVSPost2010Prop41ColorRGB
 90
        0
102
RTVSPost2010PropOp41
 70
     0
102
RTVSPost2010Prop42
 90
       50
102
RTVSPost2010PropOp42
 70
     0
102
RTVSPost2010Prop43
 90
        3
102
RTVSPost2010PropOp43
 70
     0
102
RTVSPost2010Prop44ColorIndex
 90
        5
102
RTVSPost2010Prop44ColorRGB
 90
      255
102
RTVSPost2010PropOp44
 70
     0
102
RTVSPost2010Prop45
280
     0
102
RTVSPost2010PropOp45
 70
     0
102
RTVSPost2010Prop46
 90
       50
102
RTVSPost2010PropOp46
 70
     0
102
RTVSPost2010Prop47
 90
       50
102
RTVSPost2010PropOp47
 70
     0
102
RTVSPost2010Prop48
 90
       50
102
RTVSPost2010PropOp48
 70
     0
102
RTVSPost2010Prop49
280
     0
102
RTVSPost2010PropOp49
 70
     0
102
RTVSPost2010Prop50
 90
       50
102
RTVSPost2010PropOp50
 70
     0
102
RTVSPost2010Prop51ColorIndex
 90
      256
102
RTVSPost2010Prop51ColorRGB
 90
-16777216
102
RTVSPost2010PropOp51
 70
     0
102
RTVSPost2010Prop52
140
1.0
102
RTVSPost2010PropOp52
 70
     0
102
RTVSPost2010Prop53
 90
        2
102
RTVSPost2010PropOp53
 70
     0
102
RTVSPost2010Prop54
  1
strokes_ogs.tif
102
RTVSPost2010PropOp54
 70
     0
102
RTVSPost2010Prop55
280
     0
102
RTVSPost2010PropOp55
 70
     0
102
RTVSPost2010Prop56
140
1.0
102
RTVSPost2010PropOp56
 70
     0
102
RTVSPost2010Prop57
140
1.0
102
RTVSPost2010PropOp57
 70
     0
102
RTVSPropertyOp0
 70
     0
102
RTVSPropertyOp1
 70
     0
102
RTVSPropertyOp2
 70
     0
102
RTVSPropertyOp3
 70
     0
102
RTVSPropertyOp4
 70
     0
102
RTVSPropertyOp5
 70
     0
102
RTVSPropertyOp6
 70
     0
102
RTVSPropertyOp7
 70
     0
102
RTVSPropertyOp8
 70
     0
102
RTVSPropertyOp9
 70
     0
102
RTVSPropertyOp10
 70
     0
102
RTVSPropertyOp11
 70
     0
102
RTVSPropertyOp12
 70
     0
102
RTVSPropertyOp13
 70
     0
102
RTVSPropertyOp14
 70
     2
102
RTVSPropertyOp15
 70
     0
102
RTVSPropertyOp16
 70
     0
102
RTVSPropertyOp17
 70
     0
102
RTVSPropertyOp18
 70
     0
102
RTVSPropertyOp19
 70
     0
102
RTVSPropertyOp20
 70
     0
102
RTVSPropertyOp21
 70
     0
102
RTVSPropertyOp22
 70
     0
102
RTVSPropertyOp23
 70
     0
102
RTVSPropertyOp24
 70
     0
102
RTVSPropertyOp25
 70
     0
102
RTVSPropertyOp26
 70
     0
102
RTVSPropertyOp27
 70
     0
102
RTVSPropertyOp28
 70
     0
102
RTVSPropertyOp29
 70
     0
102
RTVSPropertyOp30
 70
     0
102
RTVSPropertyOp31
 70
     0
102
RTVSPropertyOp32
 70
     0
102
RTVSPropertyOp33
 70
     0
102
RTVSPropertyOp34
 70
     0
102
RTVSPropertyOp35
 70
     0
102
RTVSPropertyOp36
 70
     0
102
RTVSPropertyOp37
 70
     0
102
RTVSPropertyOp38
 70
     0
102
RTVSPropertyOp39
 70
     0
102
RTVSPropertyOp40
 70
     0
102
RTVSPropertyOp41
 70
     0
102
RTVSPropertyOp42
 70
     0
102
RTVSPropertyOp43
 70
     0
102
RTVSPropertyOp44
 70
     0
102
RTVSPropertyOp45
 70
     0
102
RTVSPropertyOp46
 70
     0
102
RTVSPropertyOp47
 70
     0
102
RTVSPropertyOp48
 70
     0
102
RTVSPropertyOp49
 70
     0
102
RTVSPropertyOp50
 70
     0
102
RTVSPropertyOp51
 70
     0
102
RTVSPropertyOp52
 70
     0
102
RTVSPropertyOp53
 70
     0
102
RTVSPropertyOp54
 70
     0
102
RTVSPropertyOp55
 70
     0
102
RTVSPropertyOp56
 70
     0
102
RTVSPropertyOp57
 70
     0
102
RTVSPropertyOp58
 70
     1
102
RTVSPropertyOp59
 70
     1
102
RTVSPropertyOp60
 70
     1
102
RTVSPropertyOp61
 70
     1
102
RTVSPropertyOp62
 70
     1
  0
XRECORD
  5
3FBE
102
{ACAD_REACTORS
330
3FBD
102
}
330
3FBD
100
AcDbXrecord
280
     1
102
RTVSPost2010Prop28
280
     0
102
RTVSPost2010PropOp28
 70
     1
102
RTVSPost2010Prop29
280
     1
102
RTVSPost2010PropOp29
 70
     1
102
RTVSPost2010Prop30
280
     1
102
RTVSPost2010PropOp30
 70
     1
102
RTVSPost2010Prop31
280
     0
102
RTVSPost2010PropOp31
 70
     1
102
RTVSPost2010Prop32
280
     0
102
RTVSPost2010PropOp32
 70
     1
102
RTVSPost2010Prop33
280
     0
102
RTVSPost2010PropOp33
 70
     1
102
RTVSPost2010Prop34
280
     0
102
RTVSPost2010PropOp34
 70
     1
102
RTVSPost2010Prop35
280
     0
102
RTVSPost2010PropOp35
 70
     1
102
RTVSPost2010Prop36
280
     0
102
RTVSPost2010PropOp36
 70
     1
102
RTVSPost2010Prop37
 90
       50
102
RTVSPost2010PropOp37
 70
     1
102
RTVSPost2010Prop38
140
0.0
102
RTVSPost2010PropOp38
 70
     1
102
RTVSPost2010Prop39
140
1.0
102
RTVSPost2010PropOp39
 70
     1
102
RTVSPost2010Prop40
 90
        0
102
RTVSPost2010PropOp40
 70
     1
102
RTVSPost2010Prop41ColorIndex
 90
       18
102
RTVSPost2010Prop41ColorRGB
 90
        0
102
RTVSPost2010PropOp41
 70
     1
102
RTVSPost2010Prop42
 90
       50
102
RTVSPost2010PropOp42
 70
     1
102
RTVSPost2010Prop43
 90
        3
102
RTVSPost2010PropOp43
 70
     1
102
RTVSPost2010Prop44ColorIndex
 90
        5
102
RTVSPost2010Prop44ColorRGB
 90
      255
102
RTVSPost2010PropOp44
 70
     1
102
RTVSPost2010Prop45
280
     0
102
RTVSPost2010PropOp45
 70
     1
102
RTVSPost2010Prop46
 90
       50
102
RTVSPost2010PropOp46
 70
     1
102
RTVSPost2010Prop47
 90
       50
102
RTVSPost2010PropOp47
 70
     1
102
RTVSPost2010Prop48
 90
       50
102
RTVSPost2010PropOp48
 70
     1
102
RTVSPost2010Prop49
280
     0
102
RTVSPost2010PropOp49
 70
     1
102
RTVSPost2010Prop50
 90
       50
102
RTVSPost2010PropOp50
 70
     1
102
RTVSPost2010Prop51ColorIndex
 90
      256
102
RTVSPost2010Prop51ColorRGB
 90
-16777216
102
RTVSPost2010PropOp51
 70
     0
102
RTVSPost2010Prop52
140
1.0
102
RTVSPost2010PropOp52
 70
     0
102
RTVSPost2010Prop53
 90
        2
102
RTVSPost2010PropOp53
 70
     1
102
RTVSPost2010Prop54
  1
strokes_ogs.tif
102
RTVSPost2010PropOp54
 70
     1
102
RTVSPost2010Prop55
280
     0
102
RTVSPost2010PropOp55
 70
     1
102
RTVSPost2010Prop56
140
1.0
102
RTVSPost2010PropOp56
 70
     1
102
RTVSPost2010Prop57
140
1.0
102
RTVSPost2010PropOp57
 70
     1
102
RTVSPropertyOp0
 70
     1
102
RTVSPropertyOp1
 70
     1
102
RTVSPropertyOp2
 70
     1
102
RTVSPropertyOp3
 70
     1
102
RTVSPropertyOp4
 70
     1
102
RTVSPropertyOp5
 70
     1
102
RTVSPropertyOp6
 70
     1
102
RTVSPropertyOp7
 70
     1
102
RTVSPropertyOp8
 70
     1
102
RTVSPropertyOp9
 70
     1
102
RTVSPropertyOp10
 70
     1
102
RTVSPropertyOp11
 70
     1
102
RTVSPropertyOp12
 70
     1
102
RTVSPropertyOp13
 70
     1
102
RTVSPropertyOp14
 70
     1
102
RTVSPropertyOp15
 70
     1
102
RTVSPropertyOp16
 70
     1
102
RTVSPropertyOp17
 70
     1
102
RTVSPropertyOp18
 70
     1
102
RTVSPropertyOp19
 70
     1
102
RTVSPropertyOp20
 70
     1
102
RTVSPropertyOp21
 70
     1
102
RTVSPropertyOp22
 70
     1
102
RTVSPropertyOp23
 70
     1
102
RTVSPropertyOp24
 70
     1
102
RTVSPropertyOp25
 70
     1
102
RTVSPropertyOp26
 70
     1
102
RTVSPropertyOp27
 70
     1
102
RTVSPropertyOp28
 70
     1
102
RTVSPropertyOp29
 70
     1
102
RTVSPropertyOp30
 70
     1
102
RTVSPropertyOp31
 70
     1
102
RTVSPropertyOp32
 70
     1
102
RTVSPropertyOp33
 70
     1
102
RTVSPropertyOp34
 70
     1
102
RTVSPropertyOp35
 70
     1
102
RTVSPropertyOp36
 70
     1
102
RTVSPropertyOp37
 70
     1
102
RTVSPropertyOp38
 70
     1
102
RTVSPropertyOp39
 70
     1
102
RTVSPropertyOp40
 70
     1
102
RTVSPropertyOp41
 70
     1
102
RTVSPropertyOp42
 70
     1
102
RTVSPropertyOp43
 70
     1
102
RTVSPropertyOp44
 70
     1
102
RTVSPropertyOp45
 70
     1
102
RTVSPropertyOp46
 70
     1
102
RTVSPropertyOp47
 70
     1
102
RTVSPropertyOp48
 70
     1
102
RTVSPropertyOp49
 70
     1
102
RTVSPropertyOp50
 70
     1
102
RTVSPropertyOp51
 70
     0
102
RTVSPropertyOp52
 70
     0
102
RTVSPropertyOp53
 70
     1
102
RTVSPropertyOp54
 70
     1
102
RTVSPropertyOp55
 70
     1
102
RTVSPropertyOp56
 70
     1
102
RTVSPropertyOp57
 70
     1
102
RTVSPropertyOp58
 70
     1
102
RTVSPropertyOp59
 70
     1
102
RTVSPropertyOp60
 70
     1
102
RTVSPropertyOp61
 70
     1
102
RTVSPropertyOp62
 70
     1
  0
XRECORD
  5
3FD4
102
{ACAD_REACTORS
330
3FD3
102
}
330
3FD3
100
AcDbXrecord
280
     1
102
RTVSPost2010Prop28
280
     0
102
RTVSPost2010PropOp28
 70
     1
102
RTVSPost2010Prop29
280
     1
102
RTVSPost2010PropOp29
 70
     1
102
RTVSPost2010Prop30
280
     1
102
RTVSPost2010PropOp30
 70
     1
102
RTVSPost2010Prop31
280
     0
102
RTVSPost2010PropOp31
 70
     1
102
RTVSPost2010Prop32
280
     0
102
RTVSPost2010PropOp32
 70
     1
102
RTVSPost2010Prop33
280
     0
102
RTVSPost2010PropOp33
 70
     1
102
RTVSPost2010Prop34
280
     0
102
RTVSPost2010PropOp34
 70
     1
102
RTVSPost2010Prop35
280
     0
102
RTVSPost2010PropOp35
 70
     1
102
RTVSPost2010Prop36
280
     0
102
RTVSPost2010PropOp36
 70
     1
102
RTVSPost2010Prop37
 90
       50
102
RTVSPost2010PropOp37
 70
     1
102
RTVSPost2010Prop38
140
0.0
102
RTVSPost2010PropOp38
 70
     1
102
RTVSPost2010Prop39
140
1.0
102
RTVSPost2010PropOp39
 70
     1
102
RTVSPost2010Prop40
 90
        0
102
RTVSPost2010PropOp40
 70
     1
102
RTVSPost2010Prop41ColorIndex
 90
       18
102
RTVSPost2010Prop41ColorRGB
 90
        0
102
RTVSPost2010PropOp41
 70
     1
102
RTVSPost2010Prop42
 90
       50
102
RTVSPost2010PropOp42
 70
     1
102
RTVSPost2010Prop43
 90
        3
102
RTVSPost2010PropOp43
 70
     1
102
RTVSPost2010Prop44ColorIndex
 90
        5
102
RTVSPost2010Prop44ColorRGB
 90
      255
102
RTVSPost2010PropOp44
 70
     1
102
RTVSPost2010Prop45
280
     0
102
RTVSPost2010PropOp45
 70
     1
102
RTVSPost2010Prop46
 90
       50
102
RTVSPost2010PropOp46
 70
     1
102
RTVSPost2010Prop47
 90
       50
102
RTVSPost2010PropOp47
 70
     1
102
RTVSPost2010Prop48
 90
       50
102
RTVSPost2010PropOp48
 70
     1
102
RTVSPost2010Prop49
280
     0
102
RTVSPost2010PropOp49
 70
     1
102
RTVSPost2010Prop50
 90
       50
102
RTVSPost2010PropOp50
 70
     1
102
RTVSPost2010Prop51ColorIndex
 90
      256
102
RTVSPost2010Prop51ColorRGB
 90
-16777216
102
RTVSPost2010PropOp51
 70
     0
102
RTVSPost2010Prop52
140
1.0
102
RTVSPost2010PropOp52
 70
     0
102
RTVSPost2010Prop53
 90
        2
102
RTVSPost2010PropOp53
 70
     1
102
RTVSPost2010Prop54
  1
strokes_ogs.tif
102
RTVSPost2010PropOp54
 70
     1
102
RTVSPost2010Prop55
280
     0
102
RTVSPost2010PropOp55
 70
     1
102
RTVSPost2010Prop56
140
1.0
102
RTVSPost2010PropOp56
 70
     1
102
RTVSPost2010Prop57
140
1.0
102
RTVSPost2010PropOp57
 70
     1
102
RTVSPropertyOp0
 70
     1
102
RTVSPropertyOp1
 70
     1
102
RTVSPropertyOp2
 70
     1
102
RTVSPropertyOp3
 70
     1
102
RTVSPropertyOp4
 70
     1
102
RTVSPropertyOp5
 70
     1
102
RTVSPropertyOp6
 70
     1
102
RTVSPropertyOp7
 70
     1
102
RTVSPropertyOp8
 70
     1
102
RTVSPropertyOp9
 70
     1
102
RTVSPropertyOp10
 70
     1
102
RTVSPropertyOp11
 70
     1
102
RTVSPropertyOp12
 70
     1
102
RTVSPropertyOp13
 70
     1
102
RTVSPropertyOp14
 70
     1
102
RTVSPropertyOp15
 70
     1
102
RTVSPropertyOp16
 70
     1
102
RTVSPropertyOp17
 70
     1
102
RTVSPropertyOp18
 70
     1
102
RTVSPropertyOp19
 70
     1
102
RTVSPropertyOp20
 70
     1
102
RTVSPropertyOp21
 70
     1
102
RTVSPropertyOp22
 70
     1
102
RTVSPropertyOp23
 70
     1
102
RTVSPropertyOp24
 70
     1
102
RTVSPropertyOp25
 70
     1
102
RTVSPropertyOp26
 70
     1
102
RTVSPropertyOp27
 70
     1
102
RTVSPropertyOp28
 70
     1
102
RTVSPropertyOp29
 70
     1
102
RTVSPropertyOp30
 70
     1
102
RTVSPropertyOp31
 70
     1
102
RTVSPropertyOp32
 70
     1
102
RTVSPropertyOp33
 70
     1
102
RTVSPropertyOp34
 70
     1
102
RTVSPropertyOp35
 70
     1
102
RTVSPropertyOp36
 70
     1
102
RTVSPropertyOp37
 70
     1
102
RTVSPropertyOp38
 70
     1
102
RTVSPropertyOp39
 70
     1
102
RTVSPropertyOp40
 70
     1
102
RTVSPropertyOp41
 70
     1
102
RTVSPropertyOp42
 70
     1
102
RTVSPropertyOp43
 70
     1
102
RTVSPropertyOp44
 70
     1
102
RTVSPropertyOp45
 70
     1
102
RTVSPropertyOp46
 70
     1
102
RTVSPropertyOp47
 70
     1
102
RTVSPropertyOp48
 70
     1
102
RTVSPropertyOp49
 70
     1
102
RTVSPropertyOp50
 70
     1
102
RTVSPropertyOp51
 70
     0
102
RTVSPropertyOp52
 70
     0
102
RTVSPropertyOp53
 70
     1
102
RTVSPropertyOp54
 70
     1
102
RTVSPropertyOp55
 70
     1
102
RTVSPropertyOp56
 70
     1
102
RTVSPropertyOp57
 70
     1
102
RTVSPropertyOp58
 70
     1
102
RTVSPropertyOp59
 70
     1
102
RTVSPropertyOp60
 70
     1
102
RTVSPropertyOp61
 70
     1
102
RTVSPropertyOp62
 70
     1
  0
XRECORD
  5
3FD2
102
{ACAD_REACTORS
330
3FD1
102
}
330
3FD1
100
AcDbXrecord
280
     1
102
RTVSPost2010Prop28
280
     0
102
RTVSPost2010PropOp28
 70
     1
102
RTVSPost2010Prop29
280
     1
102
RTVSPost2010PropOp29
 70
     1
102
RTVSPost2010Prop30
280
     1
102
RTVSPost2010PropOp30
 70
     1
102
RTVSPost2010Prop31
280
     0
102
RTVSPost2010PropOp31
 70
     1
102
RTVSPost2010Prop32
280
     0
102
RTVSPost2010PropOp32
 70
     1
102
RTVSPost2010Prop33
280
     0
102
RTVSPost2010PropOp33
 70
     1
102
RTVSPost2010Prop34
280
     0
102
RTVSPost2010PropOp34
 70
     1
102
RTVSPost2010Prop35
280
     0
102
RTVSPost2010PropOp35
 70
     1
102
RTVSPost2010Prop36
280
     0
102
RTVSPost2010PropOp36
 70
     1
102
RTVSPost2010Prop37
 90
       50
102
RTVSPost2010PropOp37
 70
     1
102
RTVSPost2010Prop38
140
0.0
102
RTVSPost2010PropOp38
 70
     1
102
RTVSPost2010Prop39
140
1.0
102
RTVSPost2010PropOp39
 70
     1
102
RTVSPost2010Prop40
 90
        0
102
RTVSPost2010PropOp40
 70
     1
102
RTVSPost2010Prop41ColorIndex
 90
       18
102
RTVSPost2010Prop41ColorRGB
 90
        0
102
RTVSPost2010PropOp41
 70
     1
102
RTVSPost2010Prop42
 90
       50
102
RTVSPost2010PropOp42
 70
     1
102
RTVSPost2010Prop43
 90
        3
102
RTVSPost2010PropOp43
 70
     1
102
RTVSPost2010Prop44ColorIndex
 90
        5
102
RTVSPost2010Prop44ColorRGB
 90
      255
102
RTVSPost2010PropOp44
 70
     1
102
RTVSPost2010Prop45
280
     0
102
RTVSPost2010PropOp45
 70
     1
102
RTVSPost2010Prop46
 90
       50
102
RTVSPost2010PropOp46
 70
     1
102
RTVSPost2010Prop47
 90
       50
102
RTVSPost2010PropOp47
 70
     1
102
RTVSPost2010Prop48
 90
       50
102
RTVSPost2010PropOp48
 70
     1
102
RTVSPost2010Prop49
280
     0
102
RTVSPost2010PropOp49
 70
     1
102
RTVSPost2010Prop50
 90
       50
102
RTVSPost2010PropOp50
 70
     1
102
RTVSPost2010Prop51ColorIndex
 90
      256
102
RTVSPost2010Prop51ColorRGB
 90
-16777216
102
RTVSPost2010PropOp51
 70
     0
102
RTVSPost2010Prop52
140
1.0
102
RTVSPost2010PropOp52
 70
     0
102
RTVSPost2010Prop53
 90
        2
102
RTVSPost2010PropOp53
 70
     1
102
RTVSPost2010Prop54
  1
strokes_ogs.tif
102
RTVSPost2010PropOp54
 70
     1
102
RTVSPost2010Prop55
280
     0
102
RTVSPost2010PropOp55
 70
     1
102
RTVSPost2010Prop56
140
1.0
102
RTVSPost2010PropOp56
 70
     1
102
RTVSPost2010Prop57
140
1.0
102
RTVSPost2010PropOp57
 70
     1
102
RTVSPropertyOp0
 70
     1
102
RTVSPropertyOp1
 70
     1
102
RTVSPropertyOp2
 70
     1
102
RTVSPropertyOp3
 70
     1
102
RTVSPropertyOp4
 70
     1
102
RTVSPropertyOp5
 70
     1
102
RTVSPropertyOp6
 70
     1
102
RTVSPropertyOp7
 70
     1
102
RTVSPropertyOp8
 70
     1
102
RTVSPropertyOp9
 70
     1
102
RTVSPropertyOp10
 70
     1
102
RTVSPropertyOp11
 70
     1
102
RTVSPropertyOp12
 70
     1
102
RTVSPropertyOp13
 70
     1
102
RTVSPropertyOp14
 70
     1
102
RTVSPropertyOp15
 70
     1
102
RTVSPropertyOp16
 70
     1
102
RTVSPropertyOp17
 70
     1
102
RTVSPropertyOp18
 70
     1
102
RTVSPropertyOp19
 70
     1
102
RTVSPropertyOp20
 70
     1
102
RTVSPropertyOp21
 70
     1
102
RTVSPropertyOp22
 70
     1
102
RTVSPropertyOp23
 70
     1
102
RTVSPropertyOp24
 70
     1
102
RTVSPropertyOp25
 70
     1
102
RTVSPropertyOp26
 70
     1
102
RTVSPropertyOp27
 70
     1
102
RTVSPropertyOp28
 70
     1
102
RTVSPropertyOp29
 70
     1
102
RTVSPropertyOp30
 70
     1
102
RTVSPropertyOp31
 70
     1
102
RTVSPropertyOp32
 70
     1
102
RTVSPropertyOp33
 70
     1
102
RTVSPropertyOp34
 70
     1
102
RTVSPropertyOp35
 70
     1
102
RTVSPropertyOp36
 70
     1
102
RTVSPropertyOp37
 70
     1
102
RTVSPropertyOp38
 70
     1
102
RTVSPropertyOp39
 70
     1
102
RTVSPropertyOp40
 70
     1
102
RTVSPropertyOp41
 70
     1
102
RTVSPropertyOp42
 70
     1
102
RTVSPropertyOp43
 70
     1
102
RTVSPropertyOp44
 70
     1
102
RTVSPropertyOp45
 70
     1
102
RTVSPropertyOp46
 70
     1
102
RTVSPropertyOp47
 70
     1
102
RTVSPropertyOp48
 70
     1
102
RTVSPropertyOp49
 70
     1
102
RTVSPropertyOp50
 70
     1
102
RTVSPropertyOp51
 70
     0
102
RTVSPropertyOp52
 70
     0
102
RTVSPropertyOp53
 70
     1
102
RTVSPropertyOp54
 70
     1
102
RTVSPropertyOp55
 70
     1
102
RTVSPropertyOp56
 70
     1
102
RTVSPropertyOp57
 70
     1
102
RTVSPropertyOp58
 70
     1
102
RTVSPropertyOp59
 70
     1
102
RTVSPropertyOp60
 70
     1
102
RTVSPropertyOp61
 70
     1
102
RTVSPropertyOp62
 70
     1
  0
XRECORD
  5
3FCC
102
{ACAD_REACTORS
330
3FCB
102
}
330
3FCB
100
AcDbXrecord
280
     1
102
RTVSPost2010Prop28
280
     0
102
RTVSPost2010PropOp28
 70
     1
102
RTVSPost2010Prop29
280
     1
102
RTVSPost2010PropOp29
 70
     1
102
RTVSPost2010Prop30
280
     1
102
RTVSPost2010PropOp30
 70
     1
102
RTVSPost2010Prop31
280
     0
102
RTVSPost2010PropOp31
 70
     1
102
RTVSPost2010Prop32
280
     0
102
RTVSPost2010PropOp32
 70
     1
102
RTVSPost2010Prop33
280
     0
102
RTVSPost2010PropOp33
 70
     1
102
RTVSPost2010Prop34
280
     0
102
RTVSPost2010PropOp34
 70
     1
102
RTVSPost2010Prop35
280
     0
102
RTVSPost2010PropOp35
 70
     1
102
RTVSPost2010Prop36
280
     0
102
RTVSPost2010PropOp36
 70
     1
102
RTVSPost2010Prop37
 90
       50
102
RTVSPost2010PropOp37
 70
     1
102
RTVSPost2010Prop38
140
0.0
102
RTVSPost2010PropOp38
 70
     1
102
RTVSPost2010Prop39
140
1.0
102
RTVSPost2010PropOp39
 70
     1
102
RTVSPost2010Prop40
 90
        0
102
RTVSPost2010PropOp40
 70
     1
102
RTVSPost2010Prop41ColorIndex
 90
       18
102
RTVSPost2010Prop41ColorRGB
 90
        0
102
RTVSPost2010PropOp41
 70
     1
102
RTVSPost2010Prop42
 90
       50
102
RTVSPost2010PropOp42
 70
     1
102
RTVSPost2010Prop43
 90
        3
102
RTVSPost2010PropOp43
 70
     1
102
RTVSPost2010Prop44ColorIndex
 90
        5
102
RTVSPost2010Prop44ColorRGB
 90
      255
102
RTVSPost2010PropOp44
 70
     1
102
RTVSPost2010Prop45
280
     0
102
RTVSPost2010PropOp45
 70
     1
102
RTVSPost2010Prop46
 90
       50
102
RTVSPost2010PropOp46
 70
     1
102
RTVSPost2010Prop47
 90
       50
102
RTVSPost2010PropOp47
 70
     1
102
RTVSPost2010Prop48
 90
       50
102
RTVSPost2010PropOp48
 70
     1
102
RTVSPost2010Prop49
280
     0
102
RTVSPost2010PropOp49
 70
     1
102
RTVSPost2010Prop50
 90
       50
102
RTVSPost2010PropOp50
 70
     1
102
RTVSPost2010Prop51ColorIndex
 90
      256
102
RTVSPost2010Prop51ColorRGB
 90
-16777216
102
RTVSPost2010PropOp51
 70
     0
102
RTVSPost2010Prop52
140
1.0
102
RTVSPost2010PropOp52
 70
     0
102
RTVSPost2010Prop53
 90
        2
102
RTVSPost2010PropOp53
 70
     1
102
RTVSPost2010Prop54
  1
strokes_ogs.tif
102
RTVSPost2010PropOp54
 70
     1
102
RTVSPost2010Prop55
280
     0
102
RTVSPost2010PropOp55
 70
     1
102
RTVSPost2010Prop56
140
1.0
102
RTVSPost2010PropOp56
 70
     1
102
RTVSPost2010Prop57
140
1.0
102
RTVSPost2010PropOp57
 70
     1
102
RTVSPropertyOp0
 70
     1
102
RTVSPropertyOp1
 70
     1
102
RTVSPropertyOp2
 70
     1
102
RTVSPropertyOp3
 70
     1
102
RTVSPropertyOp4
 70
     1
102
RTVSPropertyOp5
 70
     1
102
RTVSPropertyOp6
 70
     1
102
RTVSPropertyOp7
 70
     1
102
RTVSPropertyOp8
 70
     1
102
RTVSPropertyOp9
 70
     1
102
RTVSPropertyOp10
 70
     1
102
RTVSPropertyOp11
 70
     1
102
RTVSPropertyOp12
 70
     1
102
RTVSPropertyOp13
 70
     1
102
RTVSPropertyOp14
 70
     1
102
RTVSPropertyOp15
 70
     1
102
RTVSPropertyOp16
 70
     1
102
RTVSPropertyOp17
 70
     1
102
RTVSPropertyOp18
 70
     1
102
RTVSPropertyOp19
 70
     1
102
RTVSPropertyOp20
 70
     1
102
RTVSPropertyOp21
 70
     1
102
RTVSPropertyOp22
 70
     1
102
RTVSPropertyOp23
 70
     1
102
RTVSPropertyOp24
 70
     1
102
RTVSPropertyOp25
 70
     1
102
RTVSPropertyOp26
 70
     1
102
RTVSPropertyOp27
 70
     1
102
RTVSPropertyOp28
 70
     1
102
RTVSPropertyOp29
 70
     1
102
RTVSPropertyOp30
 70
     1
102
RTVSPropertyOp31
 70
     1
102
RTVSPropertyOp32
 70
     1
102
RTVSPropertyOp33
 70
     1
102
RTVSPropertyOp34
 70
     1
102
RTVSPropertyOp35
 70
     1
102
RTVSPropertyOp36
 70
     1
102
RTVSPropertyOp37
 70
     1
102
RTVSPropertyOp38
 70
     1
102
RTVSPropertyOp39
 70
     1
102
RTVSPropertyOp40
 70
     1
102
RTVSPropertyOp41
 70
     1
102
RTVSPropertyOp42
 70
     1
102
RTVSPropertyOp43
 70
     1
102
RTVSPropertyOp44
 70
     1
102
RTVSPropertyOp45
 70
     1
102
RTVSPropertyOp46
 70
     1
102
RTVSPropertyOp47
 70
     1
102
RTVSPropertyOp48
 70
     1
102
RTVSPropertyOp49
 70
     1
102
RTVSPropertyOp50
 70
     1
102
RTVSPropertyOp51
 70
     0
102
RTVSPropertyOp52
 70
     0
102
RTVSPropertyOp53
 70
     1
102
RTVSPropertyOp54
 70
     1
102
RTVSPropertyOp55
 70
     1
102
RTVSPropertyOp56
 70
     1
102
RTVSPropertyOp57
 70
     1
102
RTVSPropertyOp58
 70
     1
102
RTVSPropertyOp59
 70
     1
102
RTVSPropertyOp60
 70
     1
102
RTVSPropertyOp61
 70
     1
102
RTVSPropertyOp62
 70
     1
  0
XRECORD
  5
3FCE
102
{ACAD_REACTORS
330
3FCD
102
}
330
3FCD
100
AcDbXrecord
280
     1
102
RTVSPost2010Prop28
280
     0
102
RTVSPost2010PropOp28
 70
     1
102
RTVSPost2010Prop29
280
     1
102
RTVSPost2010PropOp29
 70
     1
102
RTVSPost2010Prop30
280
     1
102
RTVSPost2010PropOp30
 70
     1
102
RTVSPost2010Prop31
280
     0
102
RTVSPost2010PropOp31
 70
     1
102
RTVSPost2010Prop32
280
     0
102
RTVSPost2010PropOp32
 70
     1
102
RTVSPost2010Prop33
280
     0
102
RTVSPost2010PropOp33
 70
     1
102
RTVSPost2010Prop34
280
     0
102
RTVSPost2010PropOp34
 70
     1
102
RTVSPost2010Prop35
280
     0
102
RTVSPost2010PropOp35
 70
     1
102
RTVSPost2010Prop36
280
     0
102
RTVSPost2010PropOp36
 70
     1
102
RTVSPost2010Prop37
 90
       50
102
RTVSPost2010PropOp37
 70
     1
102
RTVSPost2010Prop38
140
0.0
102
RTVSPost2010PropOp38
 70
     1
102
RTVSPost2010Prop39
140
1.0
102
RTVSPost2010PropOp39
 70
     1
102
RTVSPost2010Prop40
 90
        0
102
RTVSPost2010PropOp40
 70
     1
102
RTVSPost2010Prop41ColorIndex
 90
       18
102
RTVSPost2010Prop41ColorRGB
 90
        0
102
RTVSPost2010PropOp41
 70
     1
102
RTVSPost2010Prop42
 90
       50
102
RTVSPost2010PropOp42
 70
     1
102
RTVSPost2010Prop43
 90
        3
102
RTVSPost2010PropOp43
 70
     1
102
RTVSPost2010Prop44ColorIndex
 90
        5
102
RTVSPost2010Prop44ColorRGB
 90
      255
102
RTVSPost2010PropOp44
 70
     1
102
RTVSPost2010Prop45
280
     0
102
RTVSPost2010PropOp45
 70
     1
102
RTVSPost2010Prop46
 90
       50
102
RTVSPost2010PropOp46
 70
     1
102
RTVSPost2010Prop47
 90
       50
102
RTVSPost2010PropOp47
 70
     1
102
RTVSPost2010Prop48
 90
       50
102
RTVSPost2010PropOp48
 70
     1
102
RTVSPost2010Prop49
280
     0
102
RTVSPost2010PropOp49
 70
     1
102
RTVSPost2010Prop50
 90
       50
102
RTVSPost2010PropOp50
 70
     1
102
RTVSPost2010Prop51ColorIndex
 90
      256
102
RTVSPost2010Prop51ColorRGB
 90
-16777216
102
RTVSPost2010PropOp51
 70
     0
102
RTVSPost2010Prop52
140
1.0
102
RTVSPost2010PropOp52
 70
     0
102
RTVSPost2010Prop53
 90
        2
102
RTVSPost2010PropOp53
 70
     1
102
RTVSPost2010Prop54
  1
strokes_ogs.tif
102
RTVSPost2010PropOp54
 70
     1
102
RTVSPost2010Prop55
280
     0
102
RTVSPost2010PropOp55
 70
     1
102
RTVSPost2010Prop56
140
1.0
102
RTVSPost2010PropOp56
 70
     1
102
RTVSPost2010Prop57
140
1.0
102
RTVSPost2010PropOp57
 70
     1
102
RTVSPropertyOp0
 70
     1
102
RTVSPropertyOp1
 70
     1
102
RTVSPropertyOp2
 70
     1
102
RTVSPropertyOp3
 70
     1
102
RTVSPropertyOp4
 70
     1
102
RTVSPropertyOp5
 70
     1
102
RTVSPropertyOp6
 70
     1
102
RTVSPropertyOp7
 70
     1
102
RTVSPropertyOp8
 70
     1
102
RTVSPropertyOp9
 70
     1
102
RTVSPropertyOp10
 70
     1
102
RTVSPropertyOp11
 70
     1
102
RTVSPropertyOp12
 70
     1
102
RTVSPropertyOp13
 70
     1
102
RTVSPropertyOp14
 70
     1
102
RTVSPropertyOp15
 70
     1
102
RTVSPropertyOp16
 70
     1
102
RTVSPropertyOp17
 70
     1
102
RTVSPropertyOp18
 70
     1
102
RTVSPropertyOp19
 70
     1
102
RTVSPropertyOp20
 70
     1
102
RTVSPropertyOp21
 70
     1
102
RTVSPropertyOp22
 70
     1
102
RTVSPropertyOp23
 70
     1
102
RTVSPropertyOp24
 70
     1
102
RTVSPropertyOp25
 70
     1
102
RTVSPropertyOp26
 70
     1
102
RTVSPropertyOp27
 70
     1
102
RTVSPropertyOp28
 70
     1
102
RTVSPropertyOp29
 70
     1
102
RTVSPropertyOp30
 70
     1
102
RTVSPropertyOp31
 70
     1
102
RTVSPropertyOp32
 70
     1
102
RTVSPropertyOp33
 70
     1
102
RTVSPropertyOp34
 70
     1
102
RTVSPropertyOp35
 70
     1
102
RTVSPropertyOp36
 70
     1
102
RTVSPropertyOp37
 70
     1
102
RTVSPropertyOp38
 70
     1
102
RTVSPropertyOp39
 70
     1
102
RTVSPropertyOp40
 70
     1
102
RTVSPropertyOp41
 70
     1
102
RTVSPropertyOp42
 70
     1
102
RTVSPropertyOp43
 70
     1
102
RTVSPropertyOp44
 70
     1
102
RTVSPropertyOp45
 70
     1
102
RTVSPropertyOp46
 70
     1
102
RTVSPropertyOp47
 70
     1
102
RTVSPropertyOp48
 70
     1
102
RTVSPropertyOp49
 70
     1
102
RTVSPropertyOp50
 70
     1
102
RTVSPropertyOp51
 70
     0
102
RTVSPropertyOp52
 70
     0
102
RTVSPropertyOp53
 70
     1
102
RTVSPropertyOp54
 70
     1
102
RTVSPropertyOp55
 70
     1
102
RTVSPropertyOp56
 70
     1
102
RTVSPropertyOp57
 70
     1
102
RTVSPropertyOp58
 70
     1
102
RTVSPropertyOp59
 70
     1
102
RTVSPropertyOp60
 70
     1
102
RTVSPropertyOp61
 70
     1
102
RTVSPropertyOp62
 70
     1
  0
XRECORD
  5
3FC4
102
{ACAD_REACTORS
330
3FC3
102
}
330
3FC3
100
AcDbXrecord
280
     1
102
RTVSPost2010Prop28
280
     0
102
RTVSPost2010PropOp28
 70
     1
102
RTVSPost2010Prop29
280
     1
102
RTVSPost2010PropOp29
 70
     1
102
RTVSPost2010Prop30
280
     1
102
RTVSPost2010PropOp30
 70
     1
102
RTVSPost2010Prop31
280
     0
102
RTVSPost2010PropOp31
 70
     1
102
RTVSPost2010Prop32
280
     0
102
RTVSPost2010PropOp32
 70
     1
102
RTVSPost2010Prop33
280
     0
102
RTVSPost2010PropOp33
 70
     1
102
RTVSPost2010Prop34
280
     0
102
RTVSPost2010PropOp34
 70
     1
102
RTVSPost2010Prop35
280
     0
102
RTVSPost2010PropOp35
 70
     1
102
RTVSPost2010Prop36
280
     0
102
RTVSPost2010PropOp36
 70
     1
102
RTVSPost2010Prop37
 90
       50
102
RTVSPost2010PropOp37
 70
     1
102
RTVSPost2010Prop38
140
0.0
102
RTVSPost2010PropOp38
 70
     1
102
RTVSPost2010Prop39
140
1.0
102
RTVSPost2010PropOp39
 70
     1
102
RTVSPost2010Prop40
 90
        0
102
RTVSPost2010PropOp40
 70
     1
102
RTVSPost2010Prop41ColorIndex
 90
       18
102
RTVSPost2010Prop41ColorRGB
 90
        0
102
RTVSPost2010PropOp41
 70
     1
102
RTVSPost2010Prop42
 90
       50
102
RTVSPost2010PropOp42
 70
     1
102
RTVSPost2010Prop43
 90
        3
102
RTVSPost2010PropOp43
 70
     1
102
RTVSPost2010Prop44ColorIndex
 90
        5
102
RTVSPost2010Prop44ColorRGB
 90
      255
102
RTVSPost2010PropOp44
 70
     1
102
RTVSPost2010Prop45
280
     0
102
RTVSPost2010PropOp45
 70
     1
102
RTVSPost2010Prop46
 90
       50
102
RTVSPost2010PropOp46
 70
     1
102
RTVSPost2010Prop47
 90
       50
102
RTVSPost2010PropOp47
 70
     1
102
RTVSPost2010Prop48
 90
       50
102
RTVSPost2010PropOp48
 70
     1
102
RTVSPost2010Prop49
280
     0
102
RTVSPost2010PropOp49
 70
     1
102
RTVSPost2010Prop50
 90
       50
102
RTVSPost2010PropOp50
 70
     1
102
RTVSPost2010Prop51ColorIndex
 90
      256
102
RTVSPost2010Prop51ColorRGB
 90
-16777216
102
RTVSPost2010PropOp51
 70
     0
102
RTVSPost2010Prop52
140
1.0
102
RTVSPost2010PropOp52
 70
     0
102
RTVSPost2010Prop53
 90
        2
102
RTVSPost2010PropOp53
 70
     1
102
RTVSPost2010Prop54
  1
strokes_ogs.tif
102
RTVSPost2010PropOp54
 70
     1
102
RTVSPost2010Prop55
280
     0
102
RTVSPost2010PropOp55
 70
     1
102
RTVSPost2010Prop56
140
1.0
102
RTVSPost2010PropOp56
 70
     1
102
RTVSPost2010Prop57
140
1.0
102
RTVSPost2010PropOp57
 70
     1
102
RTVSPropertyOp0
 70
     1
102
RTVSPropertyOp1
 70
     1
102
RTVSPropertyOp2
 70
     1
102
RTVSPropertyOp3
 70
     1
102
RTVSPropertyOp4
 70
     1
102
RTVSPropertyOp5
 70
     1
102
RTVSPropertyOp6
 70
     1
102
RTVSPropertyOp7
 70
     1
102
RTVSPropertyOp8
 70
     1
102
RTVSPropertyOp9
 70
     1
102
RTVSPropertyOp10
 70
     1
102
RTVSPropertyOp11
 70
     1
102
RTVSPropertyOp12
 70
     1
102
RTVSPropertyOp13
 70
     1
102
RTVSPropertyOp14
 70
     1
102
RTVSPropertyOp15
 70
     1
102
RTVSPropertyOp16
 70
     1
102
RTVSPropertyOp17
 70
     1
102
RTVSPropertyOp18
 70
     1
102
RTVSPropertyOp19
 70
     1
102
RTVSPropertyOp20
 70
     1
102
RTVSPropertyOp21
 70
     1
102
RTVSPropertyOp22
 70
     1
102
RTVSPropertyOp23
 70
     1
102
RTVSPropertyOp24
 70
     1
102
RTVSPropertyOp25
 70
     1
102
RTVSPropertyOp26
 70
     1
102
RTVSPropertyOp27
 70
     1
102
RTVSPropertyOp28
 70
     1
102
RTVSPropertyOp29
 70
     1
102
RTVSPropertyOp30
 70
     1
102
RTVSPropertyOp31
 70
     1
102
RTVSPropertyOp32
 70
     1
102
RTVSPropertyOp33
 70
     1
102
RTVSPropertyOp34
 70
     1
102
RTVSPropertyOp35
 70
     1
102
RTVSPropertyOp36
 70
     1
102
RTVSPropertyOp37
 70
     1
102
RTVSPropertyOp38
 70
     1
102
RTVSPropertyOp39
 70
     1
102
RTVSPropertyOp40
 70
     1
102
RTVSPropertyOp41
 70
     1
102
RTVSPropertyOp42
 70
     1
102
RTVSPropertyOp43
 70
     1
102
RTVSPropertyOp44
 70
     1
102
RTVSPropertyOp45
 70
     1
102
RTVSPropertyOp46
 70
     1
102
RTVSPropertyOp47
 70
     1
102
RTVSPropertyOp48
 70
     1
102
RTVSPropertyOp49
 70
     1
102
RTVSPropertyOp50
 70
     1
102
RTVSPropertyOp51
 70
     0
102
RTVSPropertyOp52
 70
     0
102
RTVSPropertyOp53
 70
     1
102
RTVSPropertyOp54
 70
     1
102
RTVSPropertyOp55
 70
     1
102
RTVSPropertyOp56
 70
     1
102
RTVSPropertyOp57
 70
     1
102
RTVSPropertyOp58
 70
     1
102
RTVSPropertyOp59
 70
     1
102
RTVSPropertyOp60
 70
     1
102
RTVSPropertyOp61
 70
     1
102
RTVSPropertyOp62
 70
     1
  0
XRECORD
  5
3FB8
102
{ACAD_REACTORS
330
3FB7
102
}
330
3FB7
100
AcDbXrecord
280
     1
102
RTVSPost2010Prop28
280
     0
102
RTVSPost2010PropOp28
 70
     1
102
RTVSPost2010Prop29
280
     1
102
RTVSPost2010PropOp29
 70
     1
102
RTVSPost2010Prop30
280
     1
102
RTVSPost2010PropOp30
 70
     1
102
RTVSPost2010Prop31
280
     0
102
RTVSPost2010PropOp31
 70
     1
102
RTVSPost2010Prop32
280
     0
102
RTVSPost2010PropOp32
 70
     1
102
RTVSPost2010Prop33
280
     0
102
RTVSPost2010PropOp33
 70
     1
102
RTVSPost2010Prop34
280
     0
102
RTVSPost2010PropOp34
 70
     1
102
RTVSPost2010Prop35
280
     0
102
RTVSPost2010PropOp35
 70
     1
102
RTVSPost2010Prop36
280
     0
102
RTVSPost2010PropOp36
 70
     1
102
RTVSPost2010Prop37
 90
       50
102
RTVSPost2010PropOp37
 70
     1
102
RTVSPost2010Prop38
140
0.0
102
RTVSPost2010PropOp38
 70
     1
102
RTVSPost2010Prop39
140
1.0
102
RTVSPost2010PropOp39
 70
     1
102
RTVSPost2010Prop40
 90
        0
102
RTVSPost2010PropOp40
 70
     1
102
RTVSPost2010Prop41ColorIndex
 90
       18
102
RTVSPost2010Prop41ColorRGB
 90
        0
102
RTVSPost2010PropOp41
 70
     1
102
RTVSPost2010Prop42
 90
       50
102
RTVSPost2010PropOp42
 70
     1
102
RTVSPost2010Prop43
 90
        3
102
RTVSPost2010PropOp43
 70
     1
102
RTVSPost2010Prop44ColorIndex
 90
        5
102
RTVSPost2010Prop44ColorRGB
 90
      255
102
RTVSPost2010PropOp44
 70
     1
102
RTVSPost2010Prop45
280
     0
102
RTVSPost2010PropOp45
 70
     1
102
RTVSPost2010Prop46
 90
       50
102
RTVSPost2010PropOp46
 70
     1
102
RTVSPost2010Prop47
 90
       50
102
RTVSPost2010PropOp47
 70
     1
102
RTVSPost2010Prop48
 90
       50
102
RTVSPost2010PropOp48
 70
     1
102
RTVSPost2010Prop49
280
     0
102
RTVSPost2010PropOp49
 70
     1
102
RTVSPost2010Prop50
 90
       50
102
RTVSPost2010PropOp50
 70
     1
102
RTVSPost2010Prop51ColorIndex
 90
      256
102
RTVSPost2010Prop51ColorRGB
 90
-16777216
102
RTVSPost2010PropOp51
 70
     0
102
RTVSPost2010Prop52
140
1.0
102
RTVSPost2010PropOp52
 70
     0
102
RTVSPost2010Prop53
 90
        2
102
RTVSPost2010PropOp53
 70
     1
102
RTVSPost2010Prop54
  1
strokes_ogs.tif
102
RTVSPost2010PropOp54
 70
     1
102
RTVSPost2010Prop55
280
     0
102
RTVSPost2010PropOp55
 70
     1
102
RTVSPost2010Prop56
140
1.0
102
RTVSPost2010PropOp56
 70
     1
102
RTVSPost2010Prop57
140
1.0
102
RTVSPost2010PropOp57
 70
     1
102
RTVSPropertyOp0
 70
     1
102
RTVSPropertyOp1
 70
     1
102
RTVSPropertyOp2
 70
     1
102
RTVSPropertyOp3
 70
     1
102
RTVSPropertyOp4
 70
     1
102
RTVSPropertyOp5
 70
     1
102
RTVSPropertyOp6
 70
     1
102
RTVSPropertyOp7
 70
     1
102
RTVSPropertyOp8
 70
     1
102
RTVSPropertyOp9
 70
     1
102
RTVSPropertyOp10
 70
     1
102
RTVSPropertyOp11
 70
     1
102
RTVSPropertyOp12
 70
     1
102
RTVSPropertyOp13
 70
     1
102
RTVSPropertyOp14
 70
     1
102
RTVSPropertyOp15
 70
     1
102
RTVSPropertyOp16
 70
     1
102
RTVSPropertyOp17
 70
     1
102
RTVSPropertyOp18
 70
     1
102
RTVSPropertyOp19
 70
     1
102
RTVSPropertyOp20
 70
     1
102
RTVSPropertyOp21
 70
     1
102
RTVSPropertyOp22
 70
     1
102
RTVSPropertyOp23
 70
     1
102
RTVSPropertyOp24
 70
     1
102
RTVSPropertyOp25
 70
     1
102
RTVSPropertyOp26
 70
     1
102
RTVSPropertyOp27
 70
     1
102
RTVSPropertyOp28
 70
     1
102
RTVSPropertyOp29
 70
     1
102
RTVSPropertyOp30
 70
     1
102
RTVSPropertyOp31
 70
     1
102
RTVSPropertyOp32
 70
     1
102
RTVSPropertyOp33
 70
     1
102
RTVSPropertyOp34
 70
     1
102
RTVSPropertyOp35
 70
     1
102
RTVSPropertyOp36
 70
     1
102
RTVSPropertyOp37
 70
     1
102
RTVSPropertyOp38
 70
     1
102
RTVSPropertyOp39
 70
     1
102
RTVSPropertyOp40
 70
     1
102
RTVSPropertyOp41
 70
     1
102
RTVSPropertyOp42
 70
     1
102
RTVSPropertyOp43
 70
     1
102
RTVSPropertyOp44
 70
     1
102
RTVSPropertyOp45
 70
     1
102
RTVSPropertyOp46
 70
     1
102
RTVSPropertyOp47
 70
     1
102
RTVSPropertyOp48
 70
     1
102
RTVSPropertyOp49
 70
     1
102
RTVSPropertyOp50
 70
     1
102
RTVSPropertyOp51
 70
     0
102
RTVSPropertyOp52
 70
     0
102
RTVSPropertyOp53
 70
     1
102
RTVSPropertyOp54
 70
     1
102
RTVSPropertyOp55
 70
     1
102
RTVSPropertyOp56
 70
     1
102
RTVSPropertyOp57
 70
     1
102
RTVSPropertyOp58
 70
     1
102
RTVSPropertyOp59
 70
     1
102
RTVSPropertyOp60
 70
     1
102
RTVSPropertyOp61
 70
     1
102
RTVSPropertyOp62
 70
     1
  0
XRECORD
  5
3FD0
102
{ACAD_REACTORS
330
3FCF
102
}
330
3FCF
100
AcDbXrecord
280
     1
102
RTVSPost2010Prop28
280
     0
102
RTVSPost2010PropOp28
 70
     1
102
RTVSPost2010Prop29
280
     1
102
RTVSPost2010PropOp29
 70
     1
102
RTVSPost2010Prop30
280
     1
102
RTVSPost2010PropOp30
 70
     1
102
RTVSPost2010Prop31
280
     0
102
RTVSPost2010PropOp31
 70
     1
102
RTVSPost2010Prop32
280
     0
102
RTVSPost2010PropOp32
 70
     1
102
RTVSPost2010Prop33
280
     0
102
RTVSPost2010PropOp33
 70
     1
102
RTVSPost2010Prop34
280
     0
102
RTVSPost2010PropOp34
 70
     1
102
RTVSPost2010Prop35
280
     0
102
RTVSPost2010PropOp35
 70
     1
102
RTVSPost2010Prop36
280
     0
102
RTVSPost2010PropOp36
 70
     1
102
RTVSPost2010Prop37
 90
       50
102
RTVSPost2010PropOp37
 70
     1
102
RTVSPost2010Prop38
140
0.0
102
RTVSPost2010PropOp38
 70
     1
102
RTVSPost2010Prop39
140
1.0
102
RTVSPost2010PropOp39
 70
     1
102
RTVSPost2010Prop40
 90
        0
102
RTVSPost2010PropOp40
 70
     1
102
RTVSPost2010Prop41ColorIndex
 90
       18
102
RTVSPost2010Prop41ColorRGB
 90
        0
102
RTVSPost2010PropOp41
 70
     1
102
RTVSPost2010Prop42
 90
       50
102
RTVSPost2010PropOp42
 70
     1
102
RTVSPost2010Prop43
 90
        3
102
RTVSPost2010PropOp43
 70
     1
102
RTVSPost2010Prop44ColorIndex
 90
        5
102
RTVSPost2010Prop44ColorRGB
 90
      255
102
RTVSPost2010PropOp44
 70
     1
102
RTVSPost2010Prop45
280
     0
102
RTVSPost2010PropOp45
 70
     1
102
RTVSPost2010Prop46
 90
       50
102
RTVSPost2010PropOp46
 70
     1
102
RTVSPost2010Prop47
 90
       50
102
RTVSPost2010PropOp47
 70
     1
102
RTVSPost2010Prop48
 90
       50
102
RTVSPost2010PropOp48
 70
     1
102
RTVSPost2010Prop49
280
     0
102
RTVSPost2010PropOp49
 70
     1
102
RTVSPost2010Prop50
 90
       50
102
RTVSPost2010PropOp50
 70
     1
102
RTVSPost2010Prop51ColorIndex
 90
      256
102
RTVSPost2010Prop51ColorRGB
 90
-16777216
102
RTVSPost2010PropOp51
 70
     0
102
RTVSPost2010Prop52
140
1.0
102
RTVSPost2010PropOp52
 70
     0
102
RTVSPost2010Prop53
 90
        2
102
RTVSPost2010PropOp53
 70
     1
102
RTVSPost2010Prop54
  1
strokes_ogs.tif
102
RTVSPost2010PropOp54
 70
     1
102
RTVSPost2010Prop55
280
     0
102
RTVSPost2010PropOp55
 70
     1
102
RTVSPost2010Prop56
140
1.0
102
RTVSPost2010PropOp56
 70
     1
102
RTVSPost2010Prop57
140
1.0
102
RTVSPost2010PropOp57
 70
     1
102
RTVSPropertyOp0
 70
     1
102
RTVSPropertyOp1
 70
     1
102
RTVSPropertyOp2
 70
     1
102
RTVSPropertyOp3
 70
     1
102
RTVSPropertyOp4
 70
     1
102
RTVSPropertyOp5
 70
     1
102
RTVSPropertyOp6
 70
     1
102
RTVSPropertyOp7
 70
     1
102
RTVSPropertyOp8
 70
     1
102
RTVSPropertyOp9
 70
     1
102
RTVSPropertyOp10
 70
     1
102
RTVSPropertyOp11
 70
     1
102
RTVSPropertyOp12
 70
     1
102
RTVSPropertyOp13
 70
     1
102
RTVSPropertyOp14
 70
     1
102
RTVSPropertyOp15
 70
     1
102
RTVSPropertyOp16
 70
     1
102
RTVSPropertyOp17
 70
     1
102
RTVSPropertyOp18
 70
     1
102
RTVSPropertyOp19
 70
     1
102
RTVSPropertyOp20
 70
     1
102
RTVSPropertyOp21
 70
     1
102
RTVSPropertyOp22
 70
     1
102
RTVSPropertyOp23
 70
     1
102
RTVSPropertyOp24
 70
     1
102
RTVSPropertyOp25
 70
     1
102
RTVSPropertyOp26
 70
     1
102
RTVSPropertyOp27
 70
     1
102
RTVSPropertyOp28
 70
     1
102
RTVSPropertyOp29
 70
     1
102
RTVSPropertyOp30
 70
     1
102
RTVSPropertyOp31
 70
     1
102
RTVSPropertyOp32
 70
     1
102
RTVSPropertyOp33
 70
     1
102
RTVSPropertyOp34
 70
     1
102
RTVSPropertyOp35
 70
     1
102
RTVSPropertyOp36
 70
     1
102
RTVSPropertyOp37
 70
     1
102
RTVSPropertyOp38
 70
     1
102
RTVSPropertyOp39
 70
     1
102
RTVSPropertyOp40
 70
     1
102
RTVSPropertyOp41
 70
     1
102
RTVSPropertyOp42
 70
     1
102
RTVSPropertyOp43
 70
     1
102
RTVSPropertyOp44
 70
     1
102
RTVSPropertyOp45
 70
     1
102
RTVSPropertyOp46
 70
     1
102
RTVSPropertyOp47
 70
     1
102
RTVSPropertyOp48
 70
     1
102
RTVSPropertyOp49
 70
     1
102
RTVSPropertyOp50
 70
     1
102
RTVSPropertyOp51
 70
     0
102
RTVSPropertyOp52
 70
     0
102
RTVSPropertyOp53
 70
     1
102
RTVSPropertyOp54
 70
     1
102
RTVSPropertyOp55
 70
     1
102
RTVSPropertyOp56
 70
     1
102
RTVSPropertyOp57
 70
     1
102
RTVSPropertyOp58
 70
     1
102
RTVSPropertyOp59
 70
     1
102
RTVSPropertyOp60
 70
     1
102
RTVSPropertyOp61
 70
     1
102
RTVSPropertyOp62
 70
     1
  0
ENDSEC
  0
EOF
