  0
SECTION
  2
HEADER
  9
$ACADVER
  1
AC1018
  9
$ACADMAINTVER
 70
   104
  9
$DWGCODEPAGE
  3
ANSI_1250
  9
$LASTSAVEDBY
  1
EVA
  9
$INSBASE
 10
0.0
 20
0.0
 30
0.0
  9
$EXTMIN
 10
34.98416187842849
 20
130.19960197347
 30
0.0
  9
$EXTMAX
 10
973.3705366356399
 20
1002.04945369666
 30
0.0
  9
$LIMMIN
 10
0.0
 20
0.0
  9
$LIMMAX
 10
271.6285070728513
 20
136.3429239280804
  9
$ORTHOMODE
 70
     1
  9
$REGENMODE
 70
     1
  9
$FILLMODE
 70
     1
  9
$QTEXTMODE
 70
     0
  9
$MIRRTEXT
 70
     0
  9
$LTSCALE
 40
15.0
  9
$ATTMODE
 70
     1
  9
$TEXTSIZE
 40
14.0
  9
$TRACEWID
 40
1.0
  9
$TEXTSTYLE
  7
ROMANS
  9
$CLAYER
  8
_INSULATION
  9
$CELTYPE
  6
VERDECKTX2
  9
$CECOLOR
 62
   256
  9
$CELTSCALE
 40
5.0
  9
$DISPSILH
 70
     0
  9
$DIMSCALE
 40
5.0
  9
$DIMASZ
 40
3.5
  9
$DIMEXO
 40
0.0
  9
$DIMDLI
 40
3.75
  9
$DIMRND
 40
0.0
  9
$DIMDLE
 40
0.0
  9
$DIMEXE
 40
1.25
  9
$DIMTP
 40
0.0
  9
$DIMTM
 40
0.0
  9
$DIMTXT
 40
3.5
  9
$DIMCEN
 40
3.5
  9
$DIMTSZ
 40
0.0
  9
$DIMTOL
 70
     0
  9
$DIMLIM
 70
     0
  9
$DIMTIH
 70
     0
  9
$DIMTOH
 70
     0
  9
$DIMSE1
 70
     0
  9
$DIMSE2
 70
     0
  9
$DIMTAD
 70
     1
  9
$DIMZIN
 70
     8
  9
$DIMBLK
  1

  9
$DIMASO
 70
     1
  9
$DIMSHO
 70
     1
  9
$DIMPOST
  1

  9
$DIMAPOST
  1

  9
$DIMALT
 70
     0
  9
$DIMALTD
 70
     4
  9
$DIMALTF
 40
0.0394
  9
$DIMLFAC
 40
1.0
  9
$DIMTOFL
 70
     0
  9
$DIMTVP
 40
0.0
  9
$DIMTIX
 70
     0
  9
$DIMSOXD
 70
     0
  9
$DIMSAH
 70
     0
  9
$DIMBLK1
  1

  9
$DIMBLK2
  1

  9
$DIMSTYLE
  2
18
  9
$DIMCLRD
 70
     0
  9
$DIMCLRE
 70
     0
  9
$DIMCLRT
 70
     2
  9
$DIMTFAC
 40
1.0
  9
$DIMGAP
 40
0.625
  9
$DIMJUST
 70
     0
  9
$DIMSD1
 70
     0
  9
$DIMSD2
 70
     0
  9
$DIMTOLJ
 70
     1
  9
$DIMTZIN
 70
     0
  9
$DIMALTZ
 70
     0
  9
$DIMALTTZ
 70
     0
  9
$DIMUPT
 70
     0
  9
$DIMDEC
 70
     0
  9
$DIMTDEC
 70
     4
  9
$DIMALTU
 70
     8
  9
$DIMALTTD
 70
     4
  9
$DIMTXSTY
  7
ROMANS
  9
$DIMAUNIT
 70
     0
  9
$DIMADEC
 70
     0
  9
$DIMALTRND
 40
0.0
  9
$DIMAZIN
 70
     0
  9
$DIMDSEP
 70
    46
  9
$DIMATFIT
 70
     3
  9
$DIMFRAC
 70
     0
  9
$DIMLDRBLK
  1

  9
$DIMLUNIT
 70
     6
  9
$DIMLWD
 70
    -2
  9
$DIMLWE
 70
    -2
  9
$DIMTMOVE
 70
     0
  9
$LUNITS
 70
     2
  9
$LUPREC
 70
     4
  9
$SKETCHINC
 40
1.0
  9
$FILLETRAD
 40
0.0
  9
$AUNITS
 70
     0
  9
$AUPREC
 70
     0
  9
$MENU
  1
.
  9
$ELEVATION
 40
0.0
  9
$PELEVATION
 40
0.0
  9
$THICKNESS
 40
0.0
  9
$LIMCHECK
 70
     0
  9
$CHAMFERA
 40
10.0
  9
$CHAMFERB
 40
10.0
  9
$CHAMFERC
 40
20.0
  9
$CHAMFERD
 40
0.0
  9
$SKPOLY
 70
     0
  9
$TDCREATE
 40
2451600.645418067
  9
$TDUCREATE
 40
2451600.562084734
  9
$TDUPDATE
 40
2457248.462353993
  9
$TDUUPDATE
 40
2457248.379020660
  9
$TDINDWG
 40
1.7059421296
  9
$TDUSRTIMER
 40
1.7059418981
  9
$USRTIMER
 70
     1
  9
$ANGBASE
 50
0.0
  9
$ANGDIR
 70
     0
  9
$PDMODE
 70
     0
  9
$PDSIZE
 40
0.0
  9
$PLINEWID
 40
0.0
  9
$SPLFRAME
 70
     0
  9
$SPLINETYPE
 70
     6
  9
$SPLINESEGS
 70
     8
  9
$HANDSEED
  5
4B12
  9
$SURFTAB1
 70
     6
  9
$SURFTAB2
 70
     6
  9
$SURFTYPE
 70
     6
  9
$SURFU
 70
     6
  9
$SURFV
 70
     6
  9
$UCSBASE
  2

  9
$UCSNAME
  2

  9
$UCSORG
 10
429.5919336590117
 20
503.5094195393948
 30
0.0
  9
$UCSXDIR
 10
1.0
 20
0.0
 30
0.0
  9
$UCSYDIR
 10
0.0
 20
1.0
 30
0.0
  9
$UCSORTHOREF
  2

  9
$UCSORTHOVIEW
 70
     0
  9
$UCSORGTOP
 10
0.0
 20
0.0
 30
0.0
  9
$UCSORGBOTTOM
 10
0.0
 20
0.0
 30
0.0
  9
$UCSORGLEFT
 10
0.0
 20
0.0
 30
0.0
  9
$UCSORGRIGHT
 10
0.0
 20
0.0
 30
0.0
  9
$UCSORGFRONT
 10
0.0
 20
0.0
 30
0.0
  9
$UCSORGBACK
 10
0.0
 20
0.0
 30
0.0
  9
$PUCSBASE
  2

  9
$PUCSNAME
  2

  9
$PUCSORG
 10
0.0
 20
0.0
 30
0.0
  9
$PUCSXDIR
 10
1.0
 20
0.0
 30
0.0
  9
$PUCSYDIR
 10
0.0
 20
1.0
 30
0.0
  9
$PUCSORTHOREF
  2

  9
$PUCSORTHOVIEW
 70
     0
  9
$PUCSORGTOP
 10
0.0
 20
0.0
 30
0.0
  9
$PUCSORGBOTTOM
 10
0.0
 20
0.0
 30
0.0
  9
$PUCSORGLEFT
 10
0.0
 20
0.0
 30
0.0
  9
$PUCSORGRIGHT
 10
0.0
 20
0.0
 30
0.0
  9
$PUCSORGFRONT
 10
0.0
 20
0.0
 30
0.0
  9
$PUCSORGBACK
 10
0.0
 20
0.0
 30
0.0
  9
$USERI1
 70
     0
  9
$USERI2
 70
     0
  9
$USERI3
 70
     0
  9
$USERI4
 70
     0
  9
$USERI5
 70
     0
  9
$USERR1
 40
0.0
  9
$USERR2
 40
0.0
  9
$USERR3
 40
0.0
  9
$USERR4
 40
0.0
  9
$USERR5
 40
0.0
  9
$WORLDVIEW
 70
     1
  9
$SHADEDGE
 70
     3
  9
$SHADEDIF
 70
    70
  9
$TILEMODE
 70
     0
  9
$MAXACTVP
 70
    48
  9
$PINSBASE
 10
0.0
 20
0.0
 30
0.0
  9
$PLIMCHECK
 70
     0
  9
$PEXTMIN
 10
5.453180443651859
 20
2.60347351219342
 30
0.0
  9
$PEXTMAX
 10
194.1062893262004
 20
281.2368592961239
 30
0.0
  9
$PLIMMIN
 10
-6.043083190917968
 20
-6.762742042541503
  9
$PLIMMAX
 10
203.9302444458008
 20
290.2055807113647
  9
$UNITMODE
 70
     0
  9
$VISRETAIN
 70
     1
  9
$PLINEGEN
 70
     0
  9
$PSLTSCALE
 70
     0
  9
$TREEDEPTH
 70
  3020
  9
$CMLSTYLE
  2
STANDARD
  9
$CMLJUST
 70
     0
  9
$CMLSCALE
 40
20.0
  9
$PROXYGRAPHICS
 70
     1
  9
$MEASUREMENT
 70
     0
  9
$CELWEIGHT
370
    -1
  9
$ENDCAPS
280
     0
  9
$JOINSTYLE
280
     0
  9
$LWDISPLAY
290
     0
  9
$INSUNITS
 70
     0
  9
$HYPERLINKBASE
  1

  9
$STYLESHEET
  1

  9
$XEDIT
290
     1
  9
$CEPSNTYPE
380
     0
  9
$PSTYLEMODE
290
     1
  9
$FINGERPRINTGUID
  2
{9E2E0D10-E48E-11D3-BEBA-006008753510}
  9
$VERSIONGUID
  2
{8F94101F-674F-4C43-9C7E-5B35FC182E3E}
  9
$EXTNAMES
290
     1
  9
$PSVPSCALE
 40
0.0
  9
$OLESTARTUP
290
     0
  9
$SORTENTS
280
    96
  9
$INDEXCTL
280
     0
  9
$HIDETEXT
280
     0
  9
$XCLIPFRAME
290
     0
  9
$HALOGAP
280
     0
  9
$OBSCOLOR
 70
   257
  9
$OBSLTYPE
280
     0
  9
$INTERSECTIONDISPLAY
280
     0
  9
$INTERSECTIONCOLOR
 70
   257
  9
$DIMASSOC
280
     1
  9
$PROJECTNAME
  1

  0
ENDSEC
  0
SECTION
  2
CLASSES
  0
CLASS
  1
ACDBDICTIONARYWDFLT
  2
AcDbDictionaryWithDefault
  3
ObjectDBX Classes
 90
        0
 91
        1
280
     0
281
     0
  0
CLASS
  1
RASTERVARIABLES
  2
AcDbRasterVariables
  3
ISM
 90
        0
 91
        1
280
     0
281
     0
  0
CLASS
  1
IMAGEDEF
  2
AcDbRasterImageDef
  3
ISM
 90
        0
 91
        1
280
     0
281
     0
  0
CLASS
  1
IMAGEDEF_REACTOR
  2
AcDbRasterImageDefReactor
  3
ISM
 90
        1
 91
        0
280
     0
281
     0
  0
CLASS
  1
IMAGE
  2
AcDbRasterImage
  3
ISM
 90
     2175
 91
        0
280
     0
281
     1
  0
CLASS
  1
DICTIONARYVAR
  2
AcDbDictionaryVar
  3
ObjectDBX Classes
 90
        0
 91
       13
280
     0
281
     0
  0
CLASS
  1
MATERIAL
  2
AcDbMaterial
  3
ObjectDBX Classes
 90
     1153
 91
        3
280
     0
281
     0
  0
CLASS
  1
VISUALSTYLE
  2
AcDbVisualStyle
  3
ObjectDBX Classes
 90
     4095
 91
       24
280
     0
281
     0
  0
CLASS
  1
TABLESTYLE
  2
AcDbTableStyle
  3
ObjectDBX Classes
 90
     4095
 91
        1
280
     0
281
     0
  0
CLASS
  1
SCALE
  2
AcDbScale
  3
ObjectDBX Classes
 90
     1153
 91
       17
280
     0
281
     0
  0
CLASS
  1
MLEADERSTYLE
  2
AcDbMLeaderStyle
  3
ACDB_MLEADERSTYLE_CLASS
 90
     4095
 91
        1
280
     0
281
     0
  0
CLASS
  1
ACDBSECTIONVIEWSTYLE
  2
AcDbSectionViewStyle
  3
ObjectDBX Classes
 90
     1025
 91
        1
280
     0
281
     0
  0
CLASS
  1
ACDBDETAILVIEWSTYLE
  2
AcDbDetailViewStyle
  3
ObjectDBX Classes
 90
     1025
 91
        1
280
     0
281
     0
  0
CLASS
  1
CELLSTYLEMAP
  2
AcDbCellStyleMap
  3
ObjectDBX Classes
 90
     1152
 91
        2
280
     0
281
     0
  0
ENDSEC
  0
SECTION
  2
TABLES
  0
TABLE
  2
VPORT
  5
8
330
0
100
AcDbSymbolTable
 70
     1
  0
VPORT
  5
4958
330
8
100
AcDbSymbolTableRecord
100
AcDbViewportTableRecord
  2
*Active
 70
     0
 10
0.0
 20
0.0
 11
1.0
 21
1.0
 12
336.4989001667832
 22
464.7701277283031
 13
0.0
 23
0.0
 14
10.0
 24
10.0
 15
10.0
 25
10.0
 16
0.0
 26
0.0
 36
1.0
 17
0.0
 27
0.0
 37
0.0
 40
3827.898229198961
 41
1.581724581724581
 42
50.0
 43
0.0
 44
0.0
 50
0.0
 51
0.0
 71
     0
 72
 20000
 73
     1
 74
     0
 75
     0
 76
     0
 77
     0
 78
     0
281
     0
 65
     1
110
429.5919336590117
120
503.5094195393948
130
0.0
111
1.0
121
0.0
131
0.0
112
0.0
122
1.0
132
0.0
 79
     0
146
0.0
1001
ACAD_NAV_VCDISPLAY
1070
     3
  0
ENDTAB
  0
TABLE
  2
LTYPE
  5
5
330
0
100
AcDbSymbolTable
 70
     7
  0
LTYPE
  5
12
330
5
100
AcDbSymbolTableRecord
100
AcDbLinetypeTableRecord
  2
BYBLOCK
 70
     0
  3

 72
    65
 73
     0
 40
0.0
  0
LTYPE
  5
13
330
5
100
AcDbSymbolTableRecord
100
AcDbLinetypeTableRecord
  2
BYLAYER
 70
     0
  3

 72
    65
 73
     0
 40
0.0
  0
LTYPE
  5
14
330
5
100
AcDbSymbolTableRecord
100
AcDbLinetypeTableRecord
  2
CONTINUOUS
 70
     0
  3
Solid line
 72
    65
 73
     0
 40
0.0
  0
LTYPE
  5
113E
330
5
100
AcDbSymbolTableRecord
100
AcDbLinetypeTableRecord
  2
VERDECKTX2
 70
     0
  3
Verdeckt (2x) ____ ____ ____ ____ ____ ____ ___
 72
    65
 73
     2
 40
19.05
 49
12.7
 74
     0
 49
-6.349999999999999
 74
     0
  0
LTYPE
  5
1201
330
5
100
AcDbSymbolTableRecord
100
AcDbLinetypeTableRecord
  2
GESTRICHELT
 70
     0
  3
__ __ __ __ __ __ __ __ __ __ __ __ __ __ __
 72
    65
 73
     2
 40
0.75
 49
0.5
 74
     0
 49
-0.25
 74
     0
  0
LTYPE
  5
1202
330
5
100
AcDbSymbolTableRecord
100
AcDbLinetypeTableRecord
  2
STRICHPUNKT
 70
     0
  3
__ . __ . __ . __ . __ . __ . __ . __ . __ . __
 72
    65
 73
     4
 40
1.0
 49
0.5
 74
     0
 49
-0.25
 74
     0
 49
0.0
 74
     0
 49
-0.25
 74
     0
  0
LTYPE
  5
1203
330
5
100
AcDbSymbolTableRecord
100
AcDbLinetypeTableRecord
  2
VERDECKT
 70
     0
  3
_ _ _ _ _ _ _ _ _ _ _ _ _ _ _ _ _ _ _ _ _ _ _
 72
    65
 73
     2
 40
0.375
 49
0.25
 74
     0
 49
-0.125
 74
     0
  0
LTYPE
  5
1204
330
5
100
AcDbSymbolTableRecord
100
AcDbLinetypeTableRecord
  2
AUSGEZOGEN
 70
     0
  3
Ausgezogene Linie
 72
    65
 73
     0
 40
0.0
  0
LTYPE
  5
49A4
330
5
100
AcDbSymbolTableRecord
100
AcDbLinetypeTableRecord
  2
PHANTOM2
 70
     0
  3
___ _ _ ___ _ _ ___ _ _ ___ _ _
 72
    65
 73
     6
 40
1.25
 49
0.625
 74
     0
 49
-0.125
 74
     0
 49
0.125
 74
     0
 49
-0.125
 74
     0
 49
0.125
 74
     0
 49
-0.125
 74
     0
  0
ENDTAB
  0
TABLE
  2
LAYER
  5
2
102
{ACAD_XDICTIONARY
360
49D4
102
}
330
0
100
AcDbSymbolTable
 70
    14
  0
LAYER
  5
E
102
{ACAD_XDICTIONARY
360
49AD
102
}
330
2
100
AcDbSymbolTableRecord
100
AcDbLayerTableRecord
  2
0
 70
     0
 62
     7
  6
CONTINUOUS
370
    -3
390
5E8
  0
LAYER
  5
B7
102
{ACAD_XDICTIONARY
360
49AF
102
}
330
2
100
AcDbSymbolTableRecord
100
AcDbLayerTableRecord
  2
V5
 70
     0
 62
     7
  6
CONTINUOUS
370
    -3
390
5E8
  0
LAYER
  5
8F4
102
{ACAD_XDICTIONARY
360
49B1
102
}
330
2
100
AcDbSymbolTableRecord
100
AcDbLayerTableRecord
  2
Mansfen
 70
     0
 62
     4
  6
CONTINUOUS
290
     0
370
    -3
390
5E8
  0
LAYER
  5
9AF
102
{ACAD_XDICTIONARY
360
49B3
102
}
330
2
100
AcDbSymbolTableRecord
100
AcDbLayerTableRecord
  2
TXT-E
 70
     0
 62
     1
  6
CONTINUOUS
370
    -3
390
5E8
  0
LAYER
  5
1205
102
{ACAD_XDICTIONARY
360
49B5
102
}
330
2
100
AcDbSymbolTableRecord
100
AcDbLayerTableRecord
  2
V7
 70
     0
 62
     5
  6
CONTINUOUS
370
    -3
390
5E8
  0
LAYER
  5
1206
102
{ACAD_XDICTIONARY
360
49B7
102
}
330
2
100
AcDbSymbolTableRecord
100
AcDbLayerTableRecord
  2
V35
 70
     0
 62
     3
  6
CONTINUOUS
370
    -3
390
5E8
  0
LAYER
  5
1207
102
{ACAD_XDICTIONARY
360
49B9
102
}
330
2
100
AcDbSymbolTableRecord
100
AcDbLayerTableRecord
  2
V25
 70
     0
 62
     4
  6
CONTINUOUS
370
    -3
390
5E8
  0
LAYER
  5
1209
102
{ACAD_XDICTIONARY
360
49BB
102
}
330
2
100
AcDbSymbolTableRecord
100
AcDbLayerTableRecord
  2
ACHS
 70
     0
 62
     4
  6
STRICHPUNKT
370
    -3
390
5E8
  0
LAYER
  5
120A
102
{ACAD_XDICTIONARY
360
49BD
102
}
330
2
100
AcDbSymbolTableRecord
100
AcDbLayerTableRecord
  2
TXT-D
 70
     0
 62
     7
  6
CONTINUOUS
370
    -3
390
5E8
  0
LAYER
  5
120B
102
{ACAD_XDICTIONARY
360
49BF
102
}
330
2
100
AcDbSymbolTableRecord
100
AcDbLayerTableRecord
  2
ISO
 70
     0
 62
     4
  6
CONTINUOUS
370
    -3
390
5E8
  0
LAYER
  5
120D
102
{ACAD_XDICTIONARY
360
49C1
102
}
330
2
100
AcDbSymbolTableRecord
100
AcDbLayerTableRecord
  2
KLIPP
 70
     0
 62
     7
  6
CONTINUOUS
370
    -3
390
5E8
  0
LAYER
  5
120E
102
{ACAD_XDICTIONARY
360
49C3
102
}
330
2
100
AcDbSymbolTableRecord
100
AcDbLayerTableRecord
  2
ISOTRI46
 70
     0
 62
     4
  6
AUSGEZOGEN
370
    -3
390
5E8
  0
LAYER
  5
25B2
102
{ACAD_XDICTIONARY
360
49C5
102
}
330
2
100
AcDbSymbolTableRecord
100
AcDbLayerTableRecord
  2
_INSULATION
 70
     0
 62
     4
  6
CONTINUOUS
370
    -3
390
5E8
  0
LAYER
  5
49D9
102
{ACAD_XDICTIONARY
360
49DA
102
}
330
2
100
AcDbSymbolTableRecord
100
AcDbLayerTableRecord
  2
INSULATION
 70
     0
 62
     4
  6
CONTINUOUS
370
    -3
390
5E8
  0
ENDTAB
  0
TABLE
  2
STYLE
  5
3
330
0
100
AcDbSymbolTable
 70
     3
  0
STYLE
  5
F
330
3
100
AcDbSymbolTableRecord
100
AcDbTextStyleTableRecord
  2
STANDARD
 70
     0
 40
0.0
 41
1.0
 50
0.0
 71
     0
 42
2.5
  3
txt
  4

  0
STYLE
  5
BF
330
3
100
AcDbSymbolTableRecord
100
AcDbTextStyleTableRecord
  2
ROMANS
 70
     0
 40
14.0
 41
1.0
 50
0.0
 71
     0
 42
14.0
  3
arial.ttf
  4

1001
ACAD
1000
Arial
1071
       34
  0
STYLE
  5
91F
330
3
100
AcDbSymbolTableRecord
100
AcDbTextStyleTableRecord
  2
Stil1
 70
     0
 40
3.0
 41
1.0
 50
0.0
 71
     0
 42
3.0
  3
arial.ttf
  4

1001
ACAD
1000
Arial
1071
       34
  0
ENDTAB
  0
TABLE
  2
VIEW
  5
6
330
0
100
AcDbSymbolTable
 70
     0
  0
ENDTAB
  0
TABLE
  2
UCS
  5
7
330
0
100
AcDbSymbolTable
 70
     0
  0
ENDTAB
  0
TABLE
  2
APPID
  5
9
330
0
100
AcDbSymbolTable
 70
     7
  0
APPID
  5
10
330
9
100
AcDbSymbolTableRecord
100
AcDbRegAppTableRecord
  2
ACAD
 70
     0
  0
APPID
  5
190C
330
9
100
AcDbSymbolTableRecord
100
AcDbRegAppTableRecord
  2
CONTENTBLOCKICON
 70
     0
  0
APPID
  5
25B4
330
9
100
AcDbSymbolTableRecord
100
AcDbRegAppTableRecord
  2
DCO15
 70
     0
  0
APPID
  5
2E52
330
9
100
AcDbSymbolTableRecord
100
AcDbRegAppTableRecord
  2
AME_SOL
 70
     0
  0
APPID
  5
49DB
330
9
100
AcDbSymbolTableRecord
100
AcDbRegAppTableRecord
  2
ACAD_NAV_VCDISPLAY
 70
     0
  0
APPID
  5
4A19
330
9
100
AcDbSymbolTableRecord
100
AcDbRegAppTableRecord
  2
ACAD_EXEMPT_FROM_CAD_STANDARDS
 70
     0
  0
APPID
  5
4B07
330
9
100
AcDbSymbolTableRecord
100
AcDbRegAppTableRecord
  2
ACAD_MLEADERVER
 70
     0
  0
ENDTAB
  0
TABLE
  2
DIMSTYLE
  5
A
330
0
100
AcDbSymbolTable
 70
     1
100
AcDbDimStyleTable
 71
     1
340
280
  0
DIMSTYLE
105
280
330
A
100
AcDbSymbolTableRecord
100
AcDbDimStyleTableRecord
  2
18
 70
     0
 40
5.0
 41
3.5
 42
0.0
 43
3.75
 44
1.25
 73
     0
 74
     0
 77
     1
 78
     8
140
3.5
141
3.5
143
0.0394
147
0.625
171
     4
178
     2
271
     0
273
     8
274
     4
277
     6
340
BF
  0
ENDTAB
  0
TABLE
  2
BLOCK_RECORD
  5
1
330
0
100
AcDbSymbolTable
 70
     3
  0
BLOCK_RECORD
  5
18
102
{ACAD_XDICTIONARY
360
81C
102
}
330
1
100
AcDbSymbolTableRecord
100
AcDbBlockTableRecord
  2
*MODEL_SPACE
340
5EB
  0
BLOCK_RECORD
  5
15
102
{ACAD_XDICTIONARY
360
81A
102
}
330
1
100
AcDbSymbolTableRecord
100
AcDbBlockTableRecord
  2
*PAPER_SPACE
340
5EC
  0
BLOCK_RECORD
  5
1190
330
1
100
AcDbSymbolTableRecord
100
AcDbBlockTableRecord
  2
Z45-6
340
0
102
{BLKREFS
331
15A4
331
15C0
102
}
  0
BLOCK_RECORD
  5
1BC4
330
1
100
AcDbSymbolTableRecord
100
AcDbBlockTableRecord
  2
*X1
340
0
102
{BLKREFS
331
23A5
331
23B0
102
}
  0
BLOCK_RECORD
  5
4A29
102
{ACAD_XDICTIONARY
360
4A2B
102
}
330
1
100
AcDbSymbolTableRecord
100
AcDbBlockTableRecord
  2
A$C155A3E6C
340
0
  0
ENDTAB
  0
ENDSEC
  0
SECTION
  2
BLOCKS
  0
BLOCK
  5
19
330
18
100
AcDbEntity
  8
0
100
AcDbBlockBegin
  2
*MODEL_SPACE
 70
     0
 10
0.0
 20
0.0
 30
0.0
  3
*MODEL_SPACE
  1

  0
ENDBLK
  5
1A
330
18
100
AcDbEntity
  8
0
100
AcDbBlockEnd
  0
BLOCK
  5
16
330
15
100
AcDbEntity
 67
     1
  8
0
100
AcDbBlockBegin
  2
*PAPER_SPACE
 70
     0
 10
0.0
 20
0.0
 30
0.0
  3
*PAPER_SPACE
  1

  0
ENDBLK
  5
17
330
15
100
AcDbEntity
 67
     1
  8
0
100
AcDbBlockEnd
  0
BLOCK
  5
1196
330
1190
100
AcDbEntity
  8
0
100
AcDbBlockBegin
  2
Z45-6
 70
     0
 10
0.0
 20
0.0
 30
0.0
  3
Z45-6
  1

  0
LWPOLYLINE
  5
1191
330
1190
100
AcDbEntity
  8
V5
100
AcDbPolyline
 90
        2
 70
     0
 43
2.0
 10
-0.1961004211822228
 20
2.241438070706408
 10
0.065366807060741
 20
-0.7471460235688028
  0
LWPOLYLINE
  5
1192
330
1190
100
AcDbEntity
  8
V5
100
AcDbPolyline
 90
        2
 70
     0
 43
1.5
 10
42.33827466889914
 20
3.704119066775319
 10
0.0
 20
0.0
  0
LWPOLYLINE
  5
1193
330
1190
100
AcDbEntity
  8
V5
100
AcDbPolyline
 90
        2
 70
     0
 43
3.0
 10
41.88070701947395
 20
8.934141231756939
 10
42.40364147595989
 20
2.956973043206517
  0
LWPOLYLINE
  5
1194
330
1190
100
AcDbEntity
  8
V5
100
AcDbPolyline
 90
        2
 70
     0
 43
1.5
 10
85.28054319352566
 20
11.97827001771134
 10
41.9460738265347
 20
8.186995208188136
  0
LWPOLYLINE
  5
1195
330
1190
100
AcDbEntity
  8
V5
100
AcDbPolyline
 90
        2
 70
     0
 43
2.0
 10
84.48044891661613
 20
9.649676204257275
 10
84.28434849543391
 20
11.89111427496368
  0
ENDBLK
  5
1197
330
1190
100
AcDbEntity
  8
0
100
AcDbBlockEnd
  0
BLOCK
  5
1BD8
330
1BC4
100
AcDbEntity
  8
0
100
AcDbBlockBegin
  2
*X1
 70
     1
 10
0.0
 20
0.0
 30
0.0
  3
*X1
  1

  0
LINE
  5
1BC5
330
1BC4
100
AcDbEntity
  8
0
 62
     0
380
     1
100
AcDbLine
 10
400.3929631487156
 20
418.0706326783792
 30
0.0
 11
423.9673170016094
 21
441.6449865312731
 31
0.0
  0
LINE
  5
1BC6
330
1BC4
100
AcDbEntity
  8
0
 62
     0
380
     1
100
AcDbLine
 10
400.3929631487156
 20
426.9094674432111
 30
0.0
 11
423.9673170016094
 21
450.483821296105
 31
0.0
  0
LINE
  5
1BC7
330
1BC4
100
AcDbEntity
  8
0
 62
     0
380
     1
100
AcDbLine
 10
400.3929631487156
 20
435.7483022080429
 30
0.0
 11
423.9673170016094
 21
459.3226560609368
 31
0.0
  0
LINE
  5
1BC8
330
1BC4
100
AcDbEntity
  8
0
 62
     0
380
     1
100
AcDbLine
 10
400.3929631487156
 20
444.5871369728748
 30
0.0
 11
419.7887208586543
 21
463.9828946828136
 31
0.0
  0
LINE
  5
1BC9
330
1BC4
100
AcDbEntity
  8
0
 62
     0
380
     1
100
AcDbLine
 10
400.3929631487156
 20
453.4259717377066
 30
0.0
 11
410.9498860938225
 21
463.9828946828136
 31
0.0
  0
LINE
  5
1BCA
330
1BC4
100
AcDbEntity
  8
0
 62
     0
380
     1
100
AcDbLine
 10
400.3929631487156
 20
462.2648065025385
 30
0.0
 11
402.1110513289906
 21
463.9828946828136
 31
0.0
  0
LINE
  5
1BCB
330
1BC4
100
AcDbEntity
  8
0
 62
     0
380
     1
100
AcDbLine
 10
400.3929631487156
 20
409.2317979135474
 30
0.0
 11
423.9673170016094
 21
432.8061517664413
 31
0.0
  0
LINE
  5
1BCC
330
1BC4
100
AcDbEntity
  8
0
 62
     0
380
     1
100
AcDbLine
 10
404.5301302529932
 20
404.5301302529932
 30
0.0
 11
423.9673170016094
 21
423.9673170016094
 31
0.0
  0
LINE
  5
1BCD
330
1BC4
100
AcDbEntity
  8
0
 62
     0
380
     1
100
AcDbLine
 10
413.3689650178251
 20
404.5301302529932
 30
0.0
 11
423.9673170016094
 21
415.1284822367776
 31
0.0
  0
LINE
  5
1BCE
330
1BC4
100
AcDbEntity
  8
0
 62
     0
380
     1
100
AcDbLine
 10
422.2077997826568
 20
404.5301302529932
 30
0.0
 11
423.9673170016094
 21
406.2896474719457
 31
0.0
  0
LINE
  5
1BCF
330
1BC4
100
AcDbEntity
  8
0
 62
     0
380
     1
100
AcDbLine
 10
423.9673170016094
 20
415.7219856574158
 30
0.0
 11
400.3929631487156
 21
439.2963395103097
 31
0.0
  0
LINE
  5
1BD0
330
1BC4
100
AcDbEntity
  8
0
 62
     0
380
     1
100
AcDbLine
 10
423.9673170016094
 20
406.883150892584
 30
0.0
 11
400.3929631487156
 21
430.4575047454779
 31
0.0
  0
LINE
  5
1BD1
330
1BC4
100
AcDbEntity
  8
0
 62
     0
380
     1
100
AcDbLine
 10
417.4815028763684
 20
404.5301302529932
 30
0.0
 11
400.3929631487156
 21
421.6186699806461
 31
0.0
  0
LINE
  5
1BD2
330
1BC4
100
AcDbEntity
  8
0
 62
     0
380
     1
100
AcDbLine
 10
408.6426681115366
 20
404.5301302529932
 30
0.0
 11
400.3929631487156
 21
412.7798352158142
 31
0.0
  0
LINE
  5
1BD3
330
1BC4
100
AcDbEntity
  8
0
 62
     0
380
     1
100
AcDbLine
 10
423.9673170016094
 20
424.5608204222476
 30
0.0
 11
400.3929631487156
 21
448.1351742751416
 31
0.0
  0
LINE
  5
1BD4
330
1BC4
100
AcDbEntity
  8
0
 62
     0
380
     1
100
AcDbLine
 10
423.9673170016094
 20
433.3996551870796
 30
0.0
 11
400.3929631487156
 21
456.9740090399734
 31
0.0
  0
LINE
  5
1BD5
330
1BC4
100
AcDbEntity
  8
0
 62
     0
380
     1
100
AcDbLine
 10
423.9673170016094
 20
442.2384899519114
 30
0.0
 11
402.2229122707072
 21
463.9828946828136
 31
0.0
  0
LINE
  5
1BD6
330
1BC4
100
AcDbEntity
  8
0
 62
     0
380
     1
100
AcDbLine
 10
423.9673170016094
 20
451.0773247167432
 30
0.0
 11
411.0617470355391
 21
463.9828946828136
 31
0.0
  0
LINE
  5
1BD7
330
1BC4
100
AcDbEntity
  8
0
 62
     0
380
     1
100
AcDbLine
 10
423.9673170016094
 20
459.916159481575
 30
0.0
 11
419.9005818003709
 21
463.9828946828136
 31
0.0
  0
ENDBLK
  5
1BD9
330
1BC4
100
AcDbEntity
  8
0
100
AcDbBlockEnd
  0
BLOCK
  5
4A2C
330
4A29
100
AcDbEntity
  8
0
 48
5.0
100
AcDbBlockBegin
  2
A$C155A3E6C
 70
     0
 10
0.0
 20
0.0
 30
0.0
  3
A$C155A3E6C
  1

  0
MTEXT
  5
4A2A
102
{ACAD_XDICTIONARY
360
4B10
102
}
330
4A29
100
AcDbEntity
  8
TXT-D
100
AcDbMText
 10
2.018523547789167
 20
-2.342959022199124
 30
0.0
 40
2.8
 41
106.1716
 71
     1
 72
     5
  1
{\C7;* Poplastovan\U+00E9 klipsy nejsou vyr\U+00E1b\U+011Bny ve v\U+0161ech rozm\U+011Brech}
  7
ROMANS
 73
     1
 44
1.0
  0
ENDBLK
  5
4A2D
330
4A29
100
AcDbEntity
  8
0
 48
5.0
100
AcDbBlockEnd
  0
ENDSEC
  0
SECTION
  2
ENTITIES
  0
LINE
  5
156C
330
18
100
AcDbEntity
  8
V5
100
AcDbLine
 10
92.11931322095541
 20
681.4896688350461
 30
0.0
 11
246.3939951307243
 21
694.9869545712187
 31
0.0
  0
LINE
  5
156D
330
18
100
AcDbEntity
  8
V5
100
AcDbLine
 10
92.11931322095541
 20
661.4132720841789
 30
0.0
 11
248.1371099856774
 21
675.0630606093839
 31
0.0
  0
LINE
  5
156E
330
18
100
AcDbEntity
  8
V5
100
AcDbLine
 10
476.0747849366768
 20
715.0814199089203
 30
0.0
 11
478.7673238200358
 21
684.6282472714424
 31
0.0
  0
LINE
  5
156F
330
18
100
AcDbEntity
  8
V5
100
AcDbLine
 10
92.11931322095541
 20
622.2642984199889
 30
0.0
 11
251.5361839528361
 21
636.2114673838057
 31
0.0
  0
ARC
  5
1570
330
18
100
AcDbEntity
  8
V5
100
AcDbCircle
 10
438.7731789531691
 20
659.9420083282369
 30
0.0
 40
7.0
100
AcDbArc
 50
275.0
 51
349.9999999999998
  0
LINE
  5
1576
330
18
100
AcDbEntity
  8
V5
100
AcDbLine
 10
312.0732330760612
 20
641.5077729053995
 30
0.0
 11
421.4572391522291
 21
651.0776334081157
 31
0.0
  0
LINE
  5
1577
330
18
100
AcDbEntity
  8
V5
100
AcDbLine
 10
356.8308541135603
 20
684.5725310167609
 30
0.0
 11
418.2159675331928
 21
689.943032550232
 31
0.0
  0
LINE
  5
1579
330
18
100
AcDbEntity
  8
V5
100
AcDbLine
 10
388.0684300161989
 20
707.3818615351391
 30
0.0
 11
476.0747849366768
 21
715.0814199089203
 31
0.0
  0
LINE
  5
157A
330
18
100
AcDbEntity
  8
V5
100
AcDbLine
 10
418.2159675331927
 20
689.943032550232
 30
0.0
 11
477.81789979163
 21
695.1575259470854
 31
0.0
  0
LINE
  5
157B
330
18
100
AcDbEntity
  8
V5
100
AcDbLine
 10
421.4572391522291
 20
651.0776334081155
 30
0.0
 11
439.3832691524026
 21
652.9686454415947
 31
0.0
  0
LINE
  5
157C
330
18
100
AcDbEntity
  8
V25
  6
Continuous
100
AcDbLine
 10
429.5919372941775
 20
499.4941401892214
 30
0.0
 11
92.01824467838788
 21
469.9602692987906
 31
0.0
  0
LINE
  5
157D
330
18
100
AcDbEntity
  8
V25
  6
Continuous
100
AcDbLine
 10
429.5919336590117
 20
503.5094195393948
 30
0.0
 11
92.11931322095665
 21
473.9843910006778
 31
0.0
  0
LINE
  5
157E
330
18
100
AcDbEntity
  8
V25
100
AcDbLine
 10
243.39032207512
 20
378.613763670796
 30
0.0
 11
246.969958286675
 21
337.6983345478641
 31
0.0
  0
LINE
  5
157F
330
18
100
AcDbEntity
  8
V25
100
AcDbLine
 10
497.5386819220155
 20
387.6311898024048
 30
0.0
 11
92.32307845147932
 21
352.1794182149171
 31
0.0
  0
LINE
  5
1580
330
18
100
AcDbEntity
  8
V25
100
AcDbLine
 10
496.7476764066709
 20
375.5161477365054
 30
0.0
 11
92.11931322095541
 21
340.1157530167051
 31
0.0
  0
LINE
  5
1581
330
18
100
AcDbEntity
  8
ACHS
100
AcDbLine
 10
516.7476764066707
 20
179.6247387932588
 30
0.0
 11
516.7476764066707
 21
160.5782990296688
 31
0.0
  0
LINE
  5
1582
330
18
100
AcDbEntity
  8
V25
100
AcDbLine
 10
496.7476764066709
 20
187.3515251727098
 30
0.0
 11
92.11931322095541
 21
151.9511304529097
 31
0.0
  0
LINE
  5
1583
330
18
100
AcDbEntity
  8
V25
100
AcDbLine
 10
496.7476764066709
 20
199.3973632232301
 30
0.0
 11
92.11931322095541
 21
163.99696850343
 31
0.0
  0
LINE
  5
1584
330
18
100
AcDbEntity
  8
V25
100
AcDbLine
 10
496.7476764066709
 20
387.5619857870258
 30
0.0
 11
516.7476764066707
 21
387.5619857870256
 31
0.0
  0
LINE
  5
1585
330
18
100
AcDbEntity
  8
V25
100
AcDbLine
 10
496.7476764066709
 20
387.5619857870256
 30
0.0
 11
496.7476764066709
 21
179.6247387932589
 31
0.0
  0
LINE
  5
1586
330
18
100
AcDbEntity
  8
V25
100
AcDbLine
 10
496.7476764066709
 20
179.6247387932589
 30
0.0
 11
516.7476764066707
 21
179.6247387932588
 31
0.0
  0
LINE
  5
1587
330
18
100
AcDbEntity
  8
V25
100
AcDbLine
 10
536.7476764066707
 20
179.6247387932589
 30
0.0
 11
516.7476764066707
 21
179.6247387932588
 31
0.0
  0
LINE
  5
1588
330
18
100
AcDbEntity
  8
V25
100
AcDbLine
 10
536.7476764066707
 20
387.5619857870256
 30
0.0
 11
536.7476764066707
 21
179.6247387932589
 31
0.0
  0
LINE
  5
1589
330
18
100
AcDbEntity
  8
V25
100
AcDbLine
 10
536.7476764066707
 20
387.5619857870256
 30
0.0
 11
516.7476764066707
 21
387.5619857870256
 31
0.0
  0
LINE
  5
158A
330
18
100
AcDbEntity
  8
V25
100
AcDbLine
 10
536.7476764066707
 20
199.3973632232299
 30
0.0
 11
942.1193132209896
 21
163.9319404870292
 31
0.0
  0
LINE
  5
158B
330
18
100
AcDbEntity
  8
V25
100
AcDbLine
 10
536.7476764066707
 20
187.3515251727098
 30
0.0
 11
942.1193132209896
 21
151.886102436509
 31
0.0
  0
LINE
  5
158C
330
18
100
AcDbEntity
  8
ACHS
100
AcDbLine
 10
516.7476764066707
 20
179.6247387932588
 30
0.0
 11
516.7476764066707
 21
160.5782990296688
 31
0.0
  0
LINE
  5
158D
330
18
100
AcDbEntity
  8
V25
100
AcDbLine
 10
536.7476764066707
 20
375.5161477365054
 30
0.0
 11
942.1193132209896
 21
340.0507250003047
 31
0.0
  0
LINE
  5
158E
330
18
100
AcDbEntity
  8
V25
100
AcDbLine
 10
535.9566708913259
 20
387.6311898024045
 30
0.0
 11
941.172274361862
 21
352.1794182149171
 31
0.0
  0
LINE
  5
158F
330
18
100
AcDbEntity
  8
V25
  6
Continuous
100
AcDbLine
 10
603.9034191543282
 20
503.5094195393948
 30
0.0
 11
941.3760395923858
 21
473.9843910006778
 31
0.0
  0
LINE
  5
1590
330
18
100
AcDbEntity
  8
V25
  6
Continuous
100
AcDbLine
 10
603.9034227894935
 20
499.4941401892214
 30
0.0
 11
941.376039592386
 21
469.9691116512034
 31
0.0
  0
LINE
  5
1591
330
18
100
AcDbEntity
  8
V5
100
AcDbLine
 10
651.85106749202
 20
647.5159358224527
 30
0.0
 11
594.0772495681762
 21
652.5704899393989
 31
0.0
  0
LINE
  5
1592
330
18
100
AcDbEntity
  8
V5
100
AcDbLine
 10
655.0923391110564
 20
686.3813349645694
 30
0.0
 11
555.6426189289408
 21
695.0820580713297
 31
0.0
  0
LINE
  5
1593
330
18
100
AcDbEntity
  8
V5
100
AcDbLine
 10
685.2398766280501
 20
703.8201639494765
 30
0.0
 11
557.3857337838941
 21
715.0059520331645
 31
0.0
  0
ARC
  5
1594
330
18
100
AcDbEntity
  8
V5
100
AcDbCircle
 10
560.0866202341732
 20
683.5475507558641
 30
0.0
 40
5.436441765014149
100
AcDbArc
 50
172.7875264641498
 51
222.5114243976578
  0
LINE
  5
1597
330
18
100
AcDbEntity
  8
V5
100
AcDbLine
 10
577.0967605851217
 20
684.4409684582319
 30
0.0
 11
583.005607103195
 21
685.4828575242336
 31
0.0
  0
LINE
  5
1598
330
18
100
AcDbEntity
  8
V5
100
AcDbLine
 10
587.7936854963245
 20
658.3283155823734
 30
0.0
 11
583.005607103195
 21
685.4828575242336
 31
0.0
  0
ARC
  5
1599
330
18
100
AcDbEntity
  8
V5
100
AcDbCircle
 10
594.6873397674099
 20
659.5438528260419
 30
0.0
 40
7.0
100
AcDbArc
 50
190.0000000000002
 51
265.0
  0
LINE
  5
159A
330
18
100
AcDbEntity
  8
V5
100
AcDbLine
 10
941.3760395923858
 20
622.1857829560114
 30
0.0
 11
781.9523518268866
 21
636.1335483329892
 31
0.0
  0
LINE
  5
159B
330
18
100
AcDbEntity
  8
V5
100
AcDbLine
 10
557.3857337838941
 20
715.0059520331645
 30
0.0
 11
554.656611147165
 21
683.8119375547001
 31
0.0
  0
LINE
  5
159C
330
18
100
AcDbEntity
  8
V5
100
AcDbLine
 10
941.3760395923858
 20
661.3347566202016
 30
0.0
 11
785.351425794045
 21
674.9851415585668
 31
0.0
  0
LINE
  5
159D
330
18
100
AcDbEntity
  8
V5
100
AcDbLine
 10
941.376039592386
 20
681.4111533710688
 30
0.0
 11
787.0945406489982
 21
694.9090355204019
 31
0.0
  0
LWPOLYLINE
  5
159F
330
18
100
AcDbEntity
  8
V5
  6
GESTRICHELT
 48
5.0
100
AcDbPolyline
 90
        4
 70
     0
 43
4.0
 10
941.376039592386
 20
471.9987930621673
 10
603.8387921204941
 20
501.5074247949449
 42
0.0436447037660184
 10
429.5918931252355
 20
501.5017763180618
 10
92.11977893946778
 20
471.9767920706813
  0
LWPOLYLINE
  5
15A0
330
18
100
AcDbEntity
  8
V7
100
AcDbPolyline
 90
        4
 70
     0
 43
0.0
 10
941.376039592386
 20
616.1628639307512
 10
593.5543151116903
 20
646.593321750849
 42
-0.3394542588633749
 10
581.8848389782514
 20
657.2864265163717
 10
577.0967605851217
 20
684.4409684582319
  0
LINE
  5
15A2
330
18
100
AcDbEntity
  8
V25
100
AcDbLine
 10
790.1050307382215
 20
378.613763670796
 30
0.0
 11
786.5253945266665
 21
337.6983345478641
 31
0.0
  0
LINE
  5
15A3
330
18
100
AcDbEntity
  8
V25
100
AcDbLine
 10
516.7476764066707
 20
384.5787583598053
 30
0.0
 11
516.7476764066707
 21
179.6247387932588
 31
0.0
  0
INSERT
  5
15A4
330
18
100
AcDbEntity
  8
V5
100
AcDbBlockReference
  2
Z45-6
 10
417.5764503514699
 20
713.2967781708085
 30
0.0
  0
LINE
  5
15AF
330
18
100
AcDbEntity
  8
ACHS
 48
4.0
100
AcDbLine
 10
516.7476764066707
 20
745.4344723158937
 30
0.0
 11
516.7476764066707
 21
384.578758359805
 31
0.0
  0
LINE
  5
15B0
330
18
100
AcDbEntity
  8
V5
100
AcDbLine
 10
318.9138438907906
 20
701.3316192183391
 30
0.0
 11
388.0684300161985
 21
707.3818615351395
 31
0.0
  0
LINE
  5
15B1
330
18
100
AcDbEntity
  8
V5
100
AcDbLine
 10
774.3029666545195
 20
636.8027828185145
 30
0.0
 11
753.6258612456746
 21
638.6117951363189
 31
0.0
  0
LINE
  5
15B2
330
18
100
AcDbEntity
  8
V5
100
AcDbLine
 10
777.702040621678
 20
675.6543760440924
 30
0.0
 11
757.0249352128331
 21
677.4633883618967
 31
0.0
  0
LINE
  5
15B3
330
18
100
AcDbEntity
  8
V5
100
AcDbLine
 10
779.4451554766311
 20
695.5782700059273
 30
0.0
 11
758.7680500677861
 21
697.3872823237315
 31
0.0
  0
LINE
  5
15B4
330
18
100
AcDbEntity
  8
V5
100
AcDbLine
 10
725.2248824428655
 20
680.2455324787951
 30
0.0
 11
655.0923391110562
 21
686.3813349645689
 31
0.0
  0
LINE
  5
15B5
330
18
100
AcDbEntity
  8
V5
100
AcDbLine
 10
721.4581746943907
 20
641.4261030414117
 30
0.0
 11
651.85106749202
 21
647.5159358224527
 31
0.0
  0
LINE
  5
15B6
330
18
100
AcDbEntity
  8
TXT-D
100
AcDbLine
 10
504.5637117908547
 20
769.8714174422968
 30
0.0
 11
495.388484460626
 21
769.8714174422968
 31
0.0
  0
LINE
  5
15B7
330
18
100
AcDbEntity
  8
TXT-D
100
AcDbLine
 10
495.388484460626
 20
777.9107075033437
 30
0.0
 11
504.5637117908547
 21
774.7243936694015
 31
0.0
  0
LINE
  5
15B8
330
18
100
AcDbEntity
  8
V5
100
AcDbLine
 10
254.0433803030913
 20
695.6561890567443
 30
0.0
 11
274.7204857119363
 21
697.4652013745489
 31
0.0
  0
LINE
  5
15B9
330
18
100
AcDbEntity
  8
V5
100
AcDbLine
 10
255.7864951580445
 20
675.7322950949094
 30
0.0
 11
276.4636005668895
 21
677.541307412714
 31
0.0
  0
LINE
  5
15BA
330
18
100
AcDbEntity
  8
V5
100
AcDbLine
 10
308.9062157784882
 20
680.3796684588625
 30
0.0
 11
356.8308541135604
 21
684.5725310167614
 31
0.0
  0
LINE
  5
15BB
330
18
100
AcDbEntity
  8
V5
100
AcDbLine
 10
259.1855691252031
 20
636.8807018693312
 30
0.0
 11
279.862674534048
 21
638.6897141871356
 31
0.0
  0
LINE
  5
15BD
330
18
100
AcDbEntity
  8
TXT-D
100
AcDbLine
 10
495.388484460626
 20
771.5380798354593
 30
0.0
 11
504.5637117908547
 21
774.7243936694015
 31
0.0
  0
LINE
  5
15BF
330
18
100
AcDbEntity
  8
KLIPP
  6
VERDECKT
 62
     6
 48
2.5
100
AcDbLine
 10
682.0534143527269
 20
645.7366732110041
 30
0.0
 11
673.3055285413852
 21
646.5020140493158
 31
0.0
  0
INSERT
  5
15C0
330
18
100
AcDbEntity
  8
V5
100
AcDbBlockReference
  2
Z45-6
 10
615.8840683691094
 20
712.8986226686137
 30
0.0
 41
-1.0
  0
LINE
  5
15C1
330
18
100
AcDbEntity
  8
TXT-D
  6
ByBlock
 62
     1
100
AcDbLine
 10
570.5062438966126
 20
674.2543557361422
 30
0.0
 11
570.5062438966128
 21
830.9170285098128
 31
0.0
  0
LINE
  5
15C4
330
18
100
AcDbEntity
  8
TXT-D
  6
ByBlock
 62
     1
100
AcDbLine
 10
606.1117496453651
 20
867.5166229653463
 30
0.0
 11
606.111749645365
 21
712.410207049305
 31
0.0
  0
LINE
  5
15C6
330
18
100
AcDbEntity
  8
TXT-D
  6
ByBlock
 62
     1
100
AcDbLine
 10
680.9482733358491
 20
904.907108346391
 30
0.0
 11
648.5808651486404
 21
904.907108346391
 31
0.0
  0
LINE
  5
15C7
330
18
100
AcDbEntity
  8
TXT-D
  6
ByBlock
 62
     1
100
AcDbLine
 10
648.5808651486404
 20
904.907108346391
 30
0.0
 11
648.5808651486404
 21
628.5617390119315
 31
0.0
  0
LINE
  5
15C8
330
18
100
AcDbEntity
  8
TXT-D
  6
ByBlock
 62
     1
100
AcDbLine
 10
629.7734920733664
 20
903.897086427151
 30
0.0
 11
629.7734920733664
 21
719.7698366623614
 31
0.0
  0
LINE
  5
15C9
330
18
100
AcDbEntity
  8
TXT-D
  6
ByBlock
 62
     1
100
AcDbLine
 10
744.7925169720113
 20
836.5616113176484
 30
0.0
 11
733.706345897443
 21
836.5616113176484
 31
0.0
  0
LINE
  5
15CA
330
18
100
AcDbEntity
  8
TXT-D
  6
ByBlock
 62
     1
100
AcDbLine
 10
733.706345897443
 20
836.5616113176484
 30
0.0
 11
733.706345897443
 21
679.0221118307993
 31
0.0
  0
LINE
  5
15CB
330
18
100
AcDbEntity
  8
TXT-D
  6
ByBlock
 62
     1
100
AcDbLine
 10
803.6321245732658
 20
800.5083001179908
 30
0.0
 11
766.7940720248541
 21
800.5083001179908
 31
0.0
  0
LINE
  5
15CC
330
18
100
AcDbEntity
  8
TXT-D
  6
ByBlock
 62
     1
100
AcDbLine
 10
766.7940720248541
 20
800.5083001179908
 30
0.0
 11
766.7940720248541
 21
702.5954306921139
 31
0.0
  0
LINE
  5
15CD
330
18
100
AcDbEntity
  8
TXT-D
  6
ByBlock
 62
     1
100
AcDbLine
 10
804.3806864978151
 20
759.3095284811846
 30
0.0
 11
789.1372012702839
 21
759.3095284811846
 31
0.0
  0
LINE
  5
15CE
330
18
100
AcDbEntity
  8
TXT-D
  6
ByBlock
 62
     1
100
AcDbLine
 10
789.1372012702839
 20
759.3095284811846
 30
0.0
 11
789.1372012702839
 21
681.6832458589685
 31
0.0
  0
LINE
  5
15CF
330
18
100
AcDbEntity
  8
TXT-D
  6
ByBlock
 62
     1
100
AcDbLine
 10
744.7925169720113
 20
836.5616113176484
 30
0.0
 11
803.6321245732658
 21
836.5616113176484
 31
0.0
  0
LINE
  5
15D0
330
18
100
AcDbEntity
  8
TXT-D
  6
ByBlock
 62
     1
100
AcDbLine
 10
196.4168875317682
 20
266.1090984552077
 30
0.0
 11
177.0384699294423
 21
266.1090984552075
 31
0.0
  0
LINE
  5
15D1
330
18
100
AcDbEntity
  8
TXT-D
  6
ByBlock
 62
     1
100
AcDbLine
 10
196.4168875317682
 20
236.1736938603209
 30
0.0
 11
138.7850435929292
 21
236.1736938603211
 31
0.0
  0
LINE
  5
15D2
330
18
100
AcDbEntity
  8
TXT-D
  6
ByBlock
 62
     1
100
AcDbLine
 10
177.0384699294423
 20
266.1090984552075
 30
0.0
 11
177.0384699294423
 21
518.5717868342816
 31
0.0
  0
LINE
  5
15D3
330
18
100
AcDbEntity
  8
TXT-D
  6
ByBlock
 62
     1
100
AcDbLine
 10
138.7850435929292
 20
236.1736938603211
 30
0.0
 11
138.7850435929292
 21
478.1361319902494
 31
0.0
  0
LINE
  5
15D4
330
18
100
AcDbEntity
  8
TXT-D
  6
ByBlock
 62
     1
100
AcDbLine
 10
379.9399265756143
 20
723.849376715574
 30
0.0
 11
377.1332271706364
 21
755.9300977125996
 31
0.0
  0
LINE
  5
15D5
330
18
100
AcDbEntity
  8
TXT-D
  6
ByBlock
 62
     1
100
AcDbLine
 10
474.4498323070433
 20
733.6547134551397
 30
0.0
 11
471.7765634148511
 21
764.2103167122408
 31
0.0
  0
LINE
  5
15D6
330
18
100
AcDbEntity
  8
TXT-D
  6
ByBlock
 62
     1
100
AcDbLine
 10
394.5817158305231
 20
754.027918689672
 30
0.0
 11
454.3582376415266
 21
759.257686693145
 31
0.0
  0
SOLID
  5
15D7
330
18
100
AcDbEntity
  8
TXT-D
  6
ByBlock
 62
     1
100
AcDbTrace
 10
394.8359200802038
 20
751.1223508202375
 30
0.0
 11
394.3275115808424
 21
756.9334865591062
 31
0.0
 12
377.1483086139176
 22
752.5026931915878
 32
0.0
 13
377.1483086139176
 23
752.5026931915878
 33
0.0
  0
SOLID
  5
15D8
330
18
100
AcDbEntity
  8
TXT-D
  6
ByBlock
 62
     1
100
AcDbTrace
 10
454.6124418912073
 20
756.3521188237106
 30
0.0
 11
454.104033391846
 21
762.1632545625792
 31
0.0
 12
471.7916448581322
 22
760.7829121912289
 32
0.0
 13
471.7916448581322
 23
760.7829121912289
 33
0.0
  0
TEXT
  5
15D9
330
18
100
AcDbEntity
  8
TXT-D
100
AcDbText
 10
412.4948069839958
 20
760.0905031679935
 30
0.0
 40
14.0
  1
100
 50
4.999999999999999
  7
ROMANS
100
AcDbText
  0
LINE
  5
15DB
330
18
100
AcDbEntity
  8
TXT-D
  6
ByBlock
 62
     1
100
AcDbLine
 10
474.4981780590682
 20
733.1021189808804
 30
0.0
 11
471.9348627858396
 21
762.4009466223505
 31
0.0
  0
LINE
  5
15DC
330
18
100
AcDbEntity
  8
TXT-D
  6
ByBlock
 62
     1
100
AcDbLine
 10
478.9003804792739
 20
764.29540292702
 30
0.0
 11
478.900380479274
 21
700.7321659114278
 31
0.0
  0
LINE
  5
15DD
330
18
100
AcDbEntity
  8
TXT-D
  6
ByBlock
 62
     1
100
AcDbLine
 10
554.5949723340555
 20
762.8727444534511
 30
0.0
 11
554.5949723340555
 21
701.9526731780479
 31
0.0
  0
LINE
  5
15DE
330
18
100
AcDbEntity
  8
TXT-D
  6
ByBlock
 62
     1
100
AcDbLine
 10
478.9003804792738
 20
761.8496554555242
 30
0.0
 11
554.5949723340555
 21
761.8496554555242
 31
0.0
  0
LINE
  5
15DF
330
18
100
AcDbEntity
  8
TXT-D
  6
ByBlock
 62
     1
100
AcDbLine
 10
554.5949723340555
 20
761.8496554555242
 30
0.0
 11
516.7476764066665
 21
761.8496554555242
 31
0.0
  0
SOLID
  5
15E0
330
18
100
AcDbEntity
  8
TXT-D
  6
ByBlock
 62
     1
100
AcDbTrace
 10
496.4003804792739
 20
758.9329887888576
 30
0.0
 11
496.4003804792739
 21
764.7663221221908
 31
0.0
 12
478.9003804792739
 22
761.8496554555242
 32
0.0
 13
478.9003804792739
 23
761.8496554555242
 33
0.0
  0
SOLID
  5
15E1
330
18
100
AcDbEntity
  8
TXT-D
  6
ByBlock
 62
     1
100
AcDbTrace
 10
537.0949723340555
 20
758.9329887888576
 30
0.0
 11
537.0949723340555
 21
764.7663221221908
 31
0.0
 12
554.5949723340555
 22
761.8496554555242
 32
0.0
 13
554.5949723340555
 23
761.8496554555242
 33
0.0
  0
TEXT
  5
15E2
330
18
100
AcDbEntity
  8
TXT-D
100
AcDbText
 10
507.0333906923807
 20
767.8496554555241
 30
0.0
 40
14.0
  1
70
  7
ROMANS
100
AcDbText
  0
LWPOLYLINE
  5
1604
330
18
100
AcDbEntity
  8
V5
100
AcDbPolyline
 90
        5
 70
     0
 43
0.0
 10
806.8763242534247
 20
698.5689799414696
 10
797.0464997219566
 20
705.4518971776822
 10
520.1043736524515
 20
729.6811936615311
 10
243.1622475829462
 20
705.4518971776822
 10
233.332423051478
 20
698.5689799414696
  0
LWPOLYLINE
  5
1605
330
18
100
AcDbEntity
  8
V5
100
AcDbPolyline
 90
       51
 70
     0
 43
0.0
 10
92.11931322095541
 20
464.624708149251
 10
98.10917705303303
 20
459.5986156169526
 10
104.8035004296072
 20
467.5765995509721
 10
169.6914623859617
 20
473.2535606214545
 10
176.9733142949643
 20
456.8867979074473
 10
185.7060532895312
 20
449.5591598379387
 10
207.6039365993576
 20
400.3412597007684
 10
216.3366755939246
 20
393.0136216312598
 10
227.0837575062951
 20
368.8583735259931
 10
243.94409372142
 20
370.333461808052
 10
260.804429936545
 20
371.8085500901111
 10
267.1937247115326
 20
397.4630368894315
 10
274.5213627810409
 20
406.1957758839985
 10
287.5399693717021
 20
458.4684730575788
 10
294.8676074412107
 20
467.2012120521457
 10
299.1967731378887
 20
484.58380717865
 10
364.0847350942433
 20
490.2607682491326
 10
372.0627190282631
 20
483.5664448725585
 10
378.7570424048372
 20
491.5444288065781
 10
443.6450043611917
 20
497.2213898770604
 10
450.9268562701943
 20
480.8546271630531
 10
459.6595952647613
 20
473.5269890935446
 10
481.5574785745877
 20
424.3090889563743
 10
490.2902175691546
 20
416.9814508868657
 10
501.0372994815252
 20
392.8262027815987
 10
516.7476764066707
 20
392.8262027815987
 10
532.4580533318164
 20
392.8262027815987
 10
543.2051352441869
 20
416.9814508868657
 10
551.9378742387539
 20
424.3090889563743
 10
573.8357575485801
 20
473.5269890935446
 10
582.5684965431471
 20
480.8546271630531
 10
589.8503484521497
 20
497.2213898770604
 10
654.7383104085042
 20
491.5444288065781
 10
661.4326337850782
 20
483.5664448725585
 10
669.4106177190981
 20
490.2607682491326
 10
734.2985796754528
 20
484.58380717865
 10
738.6277453721306
 20
467.2012120521457
 10
745.9553834416392
 20
458.4684730575788
 10
758.9739900323007
 20
406.1957758839985
 10
766.301628101809
 20
397.4630368894315
 10
772.6909228767965
 20
371.8085500901111
 10
789.5512590919215
 20
370.333461808052
 10
806.4115953070464
 20
368.8583735259931
 10
817.1586772194169
 20
393.0136216312598
 10
825.8914162139838
 20
400.3412597007684
 10
847.7892995238104
 20
449.5591598379387
 10
856.5220385183772
 20
456.8867979074473
 10
863.8038904273798
 20
473.2535606214545
 10
928.6918523837343
 20
467.5765995509721
 10
935.3861757603086
 20
459.5986156169526
 10
941.3760395923862
 20
464.624708149251
  0
LINE
  5
160A
330
18
100
AcDbEntity
  8
TXT-D
100
AcDbLine
 10
400.4524011214607
 20
762.9243835507399
 30
0.0
 11
409.3150083927967
 21
766.8982462514142
 31
0.0
  0
LINE
  5
160B
330
18
100
AcDbEntity
  8
TXT-D
100
AcDbLine
 10
399.8969900238121
 20
769.2727614463989
 30
0.0
 11
409.3150083927967
 21
766.8982462514142
 31
0.0
  0
LINE
  5
160C
330
18
100
AcDbEntity
  8
TXT-D
100
AcDbLine
 10
409.7379731404068
 20
762.063737064007
 30
0.0
 11
400.5976603202464
 21
761.2640633111624
 31
0.0
  0
ARC
  5
164F
330
18
100
AcDbEntity
  8
ISO
100
AcDbCircle
 10
381.1203189876522
 20
626.6010546459471
 30
0.0
 40
12.0
100
AcDbArc
 50
4.999999999999994
 51
57.53181847809312
  0
ARC
  5
1650
330
18
100
AcDbEntity
  8
ISO
100
AcDbCircle
 10
426.7387506752207
 20
518.2336713312039
 30
0.0
 40
12.0
100
AcDbArc
 50
185.0
 51
275.0
  0
ARC
  5
1652
330
18
100
AcDbEntity
  8
ISO
100
AcDbCircle
 10
405.0289917418537
 20
628.6927924718909
 30
0.0
 40
12.0
100
AcDbArc
 50
4.999999999999994
 51
94.99999999999996
  0
ARC
  5
1654
330
18
100
AcDbEntity
  8
ISO
100
AcDbCircle
 10
402.8300779210191
 20
516.14193350526
 30
0.0
 40
12.0
100
AcDbArc
 50
275.0
 51
4.999999999999994
  0
ARC
  5
1655
330
18
100
AcDbEntity
  8
ISO
100
AcDbCircle
 10
405.0289917418537
 20
628.6927924718909
 30
0.0
 40
12.0
100
AcDbArc
 50
95.0
 51
185.0
  0
ARC
  5
1656
330
18
100
AcDbEntity
  8
ISO
100
AcDbCircle
 10
450.6474234294224
 20
520.3254091571476
 30
0.0
 40
12.0
100
AcDbArc
 50
185.0
 51
275.0
  0
ARC
  5
1658
330
18
100
AcDbEntity
  8
ISO
100
AcDbCircle
 10
428.9376644960555
 20
630.7845302978348
 30
0.0
 40
12.0
100
AcDbArc
 50
4.999999999999994
 51
94.99999999999996
  0
ARC
  5
165A
330
18
100
AcDbEntity
  8
ISO
100
AcDbCircle
 10
426.7387506752207
 20
518.2336713312039
 30
0.0
 40
12.0
100
AcDbArc
 50
275.0
 51
4.999999999999994
  0
ARC
  5
165B
330
18
100
AcDbEntity
  8
ISO
100
AcDbCircle
 10
428.9376644960555
 20
630.7845302978348
 30
0.0
 40
12.0
100
AcDbArc
 50
95.0
 51
185.0
  0
ARC
  5
165C
330
18
100
AcDbEntity
  8
ISO
100
AcDbCircle
 10
474.5560961836241
 20
522.4171469830913
 30
0.0
 40
12.0
100
AcDbArc
 50
185.0
 51
275.0
  0
ARC
  5
165E
330
18
100
AcDbEntity
  8
ISO
100
AcDbCircle
 10
452.8463372502572
 20
632.8762681237785
 30
0.0
 40
12.0
100
AcDbArc
 50
4.999999999999994
 51
94.99999999999996
  0
ARC
  5
1660
330
18
100
AcDbEntity
  8
ISO
100
AcDbCircle
 10
450.6474234294224
 20
520.3254091571476
 30
0.0
 40
12.0
100
AcDbArc
 50
275.0
 51
4.999999999999994
  0
ARC
  5
1661
330
18
100
AcDbEntity
  8
ISO
100
AcDbCircle
 10
452.8463372502572
 20
632.8762681237785
 30
0.0
 40
12.0
100
AcDbArc
 50
95.0
 51
185.0
  0
ARC
  5
1662
330
18
100
AcDbEntity
  8
ISO
100
AcDbCircle
 10
499.0486993983436
 20
522.7583496775213
 30
0.0
 40
12.0
100
AcDbArc
 50
185.0
 51
275.0
  0
ARC
  5
1664
330
18
100
AcDbEntity
  8
ISO
100
AcDbCircle
 10
476.7550100044588
 20
634.9680059497225
 30
0.0
 40
12.0
100
AcDbArc
 50
4.999999999999994
 51
94.99999999999996
  0
ARC
  5
1666
330
18
100
AcDbEntity
  8
ISO
100
AcDbCircle
 10
474.5560961836241
 20
522.4171469830913
 30
0.0
 40
12.0
100
AcDbArc
 50
275.0
 51
4.999999999999994
  0
ARC
  5
1667
330
18
100
AcDbEntity
  8
ISO
100
AcDbCircle
 10
476.7550100044588
 20
634.9680059497225
 30
0.0
 40
12.0
100
AcDbArc
 50
95.0
 51
185.0
  0
ARC
  5
166A
330
18
100
AcDbEntity
  8
ISO
100
AcDbCircle
 10
500.6636827586605
 20
637.059743775666
 30
0.0
 40
12.0
100
AcDbArc
 50
4.999999999999994
 51
94.99999999999996
  0
ARC
  5
166C
330
18
100
AcDbEntity
  8
ISO
100
AcDbCircle
 10
499.0486993983436
 20
522.7583496775213
 30
0.0
 40
12.0
100
AcDbArc
 50
275.0
 51
4.999999999999994
  0
ARC
  5
166D
330
18
100
AcDbEntity
  8
ISO
100
AcDbCircle
 10
500.6636827586605
 20
637.059743775666
 30
0.0
 40
12.0
100
AcDbArc
 50
95.0
 51
185.0
  0
ARC
  5
166E
330
18
100
AcDbEntity
  8
ISO
100
AcDbCircle
 10
525.3869399906444
 20
709.5410095024582
 30
0.0
 40
8.639263583973924
100
AcDbArc
 50
90.0
 51
180.0
  0
ARC
  5
166F
330
18
100
AcDbEntity
  8
ISO
100
AcDbCircle
 10
516.7476764066707
 20
657.7054279986144
 30
0.0
 40
8.639263583973924
100
AcDbArc
 50
270.0000000000001
 51
0.0
  0
LINE
  5
1670
330
18
100
AcDbEntity
  8
ISO
100
AcDbLine
 10
516.7476764066707
 20
709.5410095024582
 30
0.0
 11
525.3869399906445
 21
657.7054262371761
 31
0.0
  0
ARC
  5
1671
330
18
100
AcDbEntity
  8
ISO
100
AcDbCircle
 10
525.3869399906444
 20
709.5410095024582
 30
0.0
 40
8.639263583973924
100
AcDbArc
 50
0.0
 51
89.99999999999998
  0
LINE
  5
1672
330
18
100
AcDbEntity
  8
ISO
100
AcDbLine
 10
534.0262035746184
 20
709.5410095024582
 30
0.0
 11
525.3869399906445
 21
657.7054262371761
 31
0.0
  0
ARC
  5
1673
330
18
100
AcDbEntity
  8
ISO
100
AcDbCircle
 10
534.0262035746184
 20
657.7054279986144
 30
0.0
 40
8.639263583973924
100
AcDbArc
 50
180.0
 51
269.9999999999999
  0
ARC
  5
1674
330
18
100
AcDbEntity
  8
ISO
100
AcDbCircle
 10
551.3047307425661
 20
657.7054279986144
 30
0.0
 40
8.639263583973924
100
AcDbArc
 50
180.0
 51
269.9999999999999
  0
ARC
  5
1676
330
18
100
AcDbEntity
  8
ISO
100
AcDbCircle
 10
542.6654671585921
 20
709.5410095024582
 30
0.0
 40
8.639263583973924
100
AcDbArc
 50
0.0
 51
89.99999999999998
  0
LINE
  5
1677
330
18
100
AcDbEntity
  8
ISO
100
AcDbLine
 10
534.0262035746184
 20
709.5410095024582
 30
0.0
 11
542.6654671585922
 21
657.7054262371761
 31
0.0
  0
ARC
  5
1678
330
18
100
AcDbEntity
  8
ISO
100
AcDbCircle
 10
534.0262035746184
 20
657.7054279986144
 30
0.0
 40
8.639263583973924
100
AcDbArc
 50
270.0000000000001
 51
0.0
  0
ARC
  5
1679
330
18
100
AcDbEntity
  8
ISO
100
AcDbCircle
 10
542.6654671585921
 20
709.5410095024582
 30
0.0
 40
8.639263583973924
100
AcDbArc
 50
90.0
 51
180.0
  0
ARC
  5
167A
330
18
100
AcDbEntity
  8
ISO
100
AcDbCircle
 10
568.5832579105137
 20
657.7054279986144
 30
0.0
 40
8.639263583973924
100
AcDbArc
 50
180.0
 51
269.9999999999999
  0
LINE
  5
167B
330
18
100
AcDbEntity
  8
ISO
100
AcDbLine
 10
562.556034826792
 20
673.3776697712516
 30
0.0
 11
559.9439943265399
 21
657.7054262371761
 31
0.0
  0
LINE
  5
167C
330
18
100
AcDbEntity
  8
ISO
100
AcDbLine
 10
556.2833746525654
 20
679.6691450273796
 30
0.0
 11
559.9439943265399
 21
657.7054262371761
 31
0.0
  0
ARC
  5
167D
330
18
100
AcDbEntity
  8
ISO
100
AcDbCircle
 10
551.3047307425661
 20
657.7054279986144
 30
0.0
 40
8.639263583973924
100
AcDbArc
 50
270.0000000000001
 51
0.0
  0
ARC
  5
1681
330
18
100
AcDbEntity
  8
ISO
100
AcDbCircle
 10
568.5832579105137
 20
657.7054279986144
 30
0.0
 40
8.639263583973924
100
AcDbArc
 50
270.0000000000001
 51
6.798440662567117
  0
ARC
  5
1684
330
18
100
AcDbEntity
  8
ISO
100
AcDbCircle
 10
464.9120949028278
 20
657.7054279986144
 30
0.0
 40
8.639263583973924
100
AcDbArc
 50
169.7841883355984
 51
269.9999999999999
  0
ARC
  5
1688
330
18
100
AcDbEntity
  8
ISO
100
AcDbCircle
 10
482.1906220707754
 20
657.7054279986144
 30
0.0
 40
8.639263583973924
100
AcDbArc
 50
180.0
 51
269.9999999999999
  0
LINE
  5
1689
330
18
100
AcDbEntity
  8
ISO
100
AcDbLine
 10
477.298648967944
 20
680.1891698880563
 30
0.0
 11
473.5513584868016
 21
657.7054262371761
 31
0.0
  0
LINE
  5
168A
330
18
100
AcDbEntity
  8
ISO
100
AcDbLine
 10
470.8774739058545
 20
673.7487342680313
 30
0.0
 11
473.5513584868016
 21
657.7054262371761
 31
0.0
  0
ARC
  5
168B
330
18
100
AcDbEntity
  8
ISO
100
AcDbCircle
 10
464.9120949028278
 20
657.7054279986144
 30
0.0
 40
8.639263583973924
100
AcDbArc
 50
270.0000000000001
 51
0.0000000000000254
  0
ARC
  5
168C
330
18
100
AcDbEntity
  8
ISO
100
AcDbCircle
 10
487.4709154963533
 20
709.5410095024582
 30
0.0
 40
8.639263583973924
100
AcDbArc
 50
0.0
 51
90.0
  0
ARC
  5
168D
330
18
100
AcDbEntity
  8
ISO
100
AcDbCircle
 10
499.4691492387231
 20
657.7054279986144
 30
0.0
 40
8.639263583973924
100
AcDbArc
 50
180.0
 51
269.9999999999999
  0
ARC
  5
168F
330
18
100
AcDbEntity
  8
ISO
100
AcDbCircle
 10
487.4709154963533
 20
709.5410095024582
 30
0.0
 40
8.639263583973924
100
AcDbArc
 50
90.0
 51
180.0
  0
ARC
  5
1691
330
18
100
AcDbEntity
  8
ISO
100
AcDbCircle
 10
482.1906220707754
 20
657.7054279986144
 30
0.0
 40
8.639263583973924
100
AcDbArc
 50
270.0000000000001
 51
0.0000000000000254
  0
ARC
  5
1692
330
18
100
AcDbEntity
  8
ISO
100
AcDbCircle
 10
499.4691492387231
 20
657.7054279986144
 30
0.0
 40
8.639263583973924
100
AcDbArc
 50
270.0000000000001
 51
0.0000000000000254
  0
ARC
  5
1694
330
18
100
AcDbEntity
  8
ISO
100
AcDbCircle
 10
504.7494426643011
 20
709.5410095024582
 30
0.0
 40
8.639263583973924
100
AcDbArc
 50
90.0
 51
180.0
  0
LINE
  5
1695
330
18
100
AcDbEntity
  8
ISO
100
AcDbLine
 10
516.7476764066708
 20
709.5410095024582
 30
0.0
 11
508.108412822697
 21
657.7054262371761
 31
0.0
  0
ARC
  5
1696
330
18
100
AcDbEntity
  8
ISO
100
AcDbCircle
 10
516.7476764066708
 20
657.7054279986144
 30
0.0
 40
8.639263583973924
100
AcDbArc
 50
180.0
 51
269.9999999999999
  0
ARC
  5
1697
330
18
100
AcDbEntity
  8
ISO
100
AcDbCircle
 10
508.108412822697
 20
709.5410095024582
 30
0.0
 40
8.639263583973924
100
AcDbArc
 50
0.0
 51
90.0
  0
ARC
  5
1698
330
18
100
AcDbEntity
  8
ISO
100
AcDbCircle
 10
532.6755970418816
 20
635.2758210763016
 30
0.0
 40
12.0
100
AcDbArc
 50
355.0
 51
85.0
  0
ARC
  5
1699
330
18
100
AcDbEntity
  8
ISO
100
AcDbCircle
 10
535.6145143360349
 20
522.7583496775213
 30
0.0
 40
12.0
100
AcDbArc
 50
175.0
 51
264.9999999999999
  0
ARC
  5
169B
330
18
100
AcDbEntity
  8
ISO
100
AcDbCircle
 10
532.6755970418816
 20
635.2758210763016
 30
0.0
 40
12.0
100
AcDbArc
 50
85.0
 51
175.0
  0
ARC
  5
169E
330
18
100
AcDbEntity
  8
ISO
100
AcDbCircle
 10
556.5842697960833
 20
633.1840832503582
 30
0.0
 40
12.0
100
AcDbArc
 50
355.0
 51
85.0
  0
ARC
  5
169F
330
18
100
AcDbEntity
  8
ISO
100
AcDbCircle
 10
558.9392566297187
 20
522.4171469830913
 30
0.0
 40
12.0
100
AcDbArc
 50
175.0
 51
264.9999999999999
  0
ARC
  5
16A1
330
18
100
AcDbEntity
  8
ISO
100
AcDbCircle
 10
556.5842697960833
 20
633.1840832503582
 30
0.0
 40
12.0
100
AcDbArc
 50
85.0
 51
175.0
  0
ARC
  5
16A3
330
18
100
AcDbEntity
  8
ISO
100
AcDbCircle
 10
535.6145143360349
 20
522.7583496775213
 30
0.0
 40
12.0
100
AcDbArc
 50
265.0000000000001
 51
355.0
  0
ARC
  5
16A4
330
18
100
AcDbEntity
  8
ISO
100
AcDbCircle
 10
580.4929425502851
 20
631.0923454244142
 30
0.0
 40
12.0
100
AcDbArc
 50
355.0
 51
85.0
  0
ARC
  5
16A5
330
18
100
AcDbEntity
  8
ISO
100
AcDbCircle
 10
582.8479293839205
 20
520.3254091571476
 30
0.0
 40
12.0
100
AcDbArc
 50
175.0
 51
264.9999999999999
  0
ARC
  5
16A7
330
18
100
AcDbEntity
  8
ISO
100
AcDbCircle
 10
580.4929425502851
 20
631.0923454244142
 30
0.0
 40
12.0
100
AcDbArc
 50
85.0
 51
175.0
  0
ARC
  5
16A9
330
18
100
AcDbEntity
  8
ISO
100
AcDbCircle
 10
558.9392566297187
 20
522.4171469830913
 30
0.0
 40
12.0
100
AcDbArc
 50
265.0000000000001
 51
355.0
  0
ARC
  5
16AA
330
18
100
AcDbEntity
  8
ISO
100
AcDbCircle
 10
604.4016153044869
 20
629.0006075984705
 30
0.0
 40
12.0
100
AcDbArc
 50
355.0
 51
85.0
  0
ARC
  5
16AB
330
18
100
AcDbEntity
  8
ISO
100
AcDbCircle
 10
606.7566021381221
 20
518.2336713312039
 30
0.0
 40
12.0
100
AcDbArc
 50
175.0
 51
264.9999999999999
  0
ARC
  5
16AD
330
18
100
AcDbEntity
  8
ISO
100
AcDbCircle
 10
604.4016153044867
 20
629.0006075984705
 30
0.0
 40
12.0
100
AcDbArc
 50
85.0
 51
175.0
  0
ARC
  5
16AF
330
18
100
AcDbEntity
  8
ISO
100
AcDbCircle
 10
582.8479293839205
 20
520.3254091571476
 30
0.0
 40
12.0
100
AcDbArc
 50
265.0000000000001
 51
355.0
  0
ARC
  5
16B0
330
18
100
AcDbEntity
  8
ISO
  6
VERDECKT
 48
2.5
100
AcDbCircle
 10
628.3102880586884
 20
626.9088697725266
 30
0.0
 40
12.0
100
AcDbArc
 50
355.0
 51
85.0
  0
ARC
  5
16B1
330
18
100
AcDbEntity
  8
ISO
100
AcDbCircle
 10
630.6652748923238
 20
516.14193350526
 30
0.0
 40
12.0
100
AcDbArc
 50
175.0
 51
264.9999999999999
  0
ARC
  5
16B3
330
18
100
AcDbEntity
  8
ISO
100
AcDbCircle
 10
628.3102880586884
 20
626.9088697725266
 30
0.0
 40
12.0
100
AcDbArc
 50
85.0
 51
175.0
  0
ARC
  5
16B5
330
18
100
AcDbEntity
  8
ISO
100
AcDbCircle
 10
606.7566021381221
 20
518.2336713312039
 30
0.0
 40
12.0
100
AcDbArc
 50
265.0000000000001
 51
355.0
  0
ARC
  5
16B6
330
18
100
AcDbEntity
  8
ISO
  6
VERDECKT
 48
2.5
100
AcDbCircle
 10
652.2189608128901
 20
624.8171319465829
 30
0.0
 40
12.0
100
AcDbArc
 50
122.4681815219068
 51
175.0
  0
LWPOLYLINE
  5
16FF
330
18
100
AcDbEntity
  8
V35
100
AcDbPolyline
 90
        2
 70
     1
 43
2.9
 10
712.7477827926059
 20
359.9825262199144
 42
1.0
 10
715.8477827926057
 20
359.9825262199144
 42
1.0
  0
LINE
  5
178F
330
18
100
AcDbEntity
  8
TXT-D
  6
ByBlock
 62
     1
100
AcDbLine
 10
770.945087364108
 20
236.173693860321
 30
0.0
 11
714.2977827926057
 21
236.1736938603211
 31
0.0
  0
LINE
  5
1790
330
18
100
AcDbEntity
  8
TXT-D
  6
ByBlock
 62
     1
100
AcDbLine
 10
770.945087364108
 20
266.1090984552077
 30
0.0
 11
752.5512091291188
 21
266.1090984552077
 31
0.0
  0
LINE
  5
1794
330
18
100
AcDbEntity
  8
TXT-D
  6
ByBlock
 62
     1
100
AcDbLine
 10
752.551209129119
 20
431.9847171832232
 30
0.0
 11
752.5512091291188
 21
266.1090984552077
 31
0.0
  0
LINE
  5
1798
330
18
100
AcDbEntity
  8
ACHS
 62
     3
 48
4.0
100
AcDbLine
 10
92.11931322095541
 20
717.1323285003373
 30
0.0
 11
92.11931322095541
 21
130.19960197347
 31
0.0
  0
LINE
  5
18BF
330
18
100
AcDbEntity
  8
V5
100
AcDbLine
 10
282.6471369611776
 20
698.1586934985811
 30
0.0
 11
318.9138438907905
 21
701.3316192183394
 31
0.0
  0
LINE
  5
18C1
330
18
100
AcDbEntity
  8
V5
100
AcDbLine
 10
751.3742537055358
 20
698.0341556858478
 30
0.0
 11
685.2398766280501
 21
703.8201639494765
 31
0.0
  0
LINE
  5
22A3
330
18
100
AcDbEntity
  8
ISO
100
AcDbLine
 10
94.56251226903237
 20
535.9135181926027
 30
0.0
 11
106.4148677548151
 21
489.9592142391044
 31
0.0
  0
ARC
  5
22AE
330
18
100
AcDbEntity
  8
ISO
100
AcDbCircle
 10
118.3692039186762
 20
491.005085589417
 30
0.0
 40
12.0
100
AcDbArc
 50
185.0
 51
275.0
  0
ARC
  5
22AF
330
18
100
AcDbEntity
  8
ISO
100
AcDbCircle
 10
94.46053116447457
 20
488.913347763473
 30
0.0
 40
12.0
100
AcDbArc
 50
275.0
 51
4.999999999999994
  0
ARC
  5
22B0
330
18
100
AcDbEntity
  8
ISO
100
AcDbCircle
 10
92.01733211639748
 20
488.913347763473
 30
0.0
 40
12.0
100
AcDbArc
 50
270.4869297681643
 51
275.0
  0
ARC
  5
22B2
330
18
100
AcDbEntity
  8
ISOTRI46
100
AcDbCircle
 10
147.9615280489125
 20
485.6019851641612
 30
0.0
 40
3.0
100
AcDbArc
 50
184.999986724499
 51
274.9999629462675
  0
ARC
  5
22B7
330
18
100
AcDbEntity
  8
ISOTRI46
100
AcDbCircle
 10
159.9158566950287
 20
486.6478534007596
 30
0.0
 40
3.0
100
AcDbArc
 50
275.0000370537325
 51
5.000013275501045
  0
ARC
  5
22B8
330
18
100
AcDbEntity
  8
ISOTRI46
100
AcDbCircle
 10
147.9615241834202
 20
485.6019848259744
 30
0.0
 40
3.0
100
AcDbArc
 50
275.0000370537325
 51
5.000013275501045
  0
ARC
  5
22B9
330
18
100
AcDbEntity
  8
ISOTRI46
100
AcDbCircle
 10
159.9158605605211
 20
486.6478537389463
 30
0.0
 40
3.0
100
AcDbArc
 50
184.999986724499
 51
274.9999629462675
  0
ARC
  5
22BA
330
18
100
AcDbEntity
  8
ISOTRI46
100
AcDbCircle
 10
171.8701930721296
 20
487.6937223137314
 30
0.0
 40
3.0
100
AcDbArc
 50
184.999986724499
 51
274.9999629462675
  0
ARC
  5
22BB
330
18
100
AcDbEntity
  8
ISOTRI46
100
AcDbCircle
 10
171.8701892066373
 20
487.6937219755446
 30
0.0
 40
3.0
100
AcDbArc
 50
275.0000370537325
 51
5.000013275501045
  0
ARC
  5
22BC
330
18
100
AcDbEntity
  8
ISO
100
AcDbCircle
 10
96.65944498530928
 20
601.464206730104
 30
0.0
 40
12.0
100
AcDbArc
 50
4.999999999999994
 51
94.99999999999996
  0
ARC
  5
22BD
330
18
100
AcDbEntity
  8
ISO
100
AcDbCircle
 10
96.65944498530928
 20
601.464206730104
 30
0.0
 40
12.0
100
AcDbArc
 50
95.0
 51
112.231163284606
  0
ARC
  5
22BE
330
18
100
AcDbEntity
  8
ISOTRI46
100
AcDbCircle
 10
142.8339944485198
 20
613.0521973538708
 30
0.0
 40
3.0
100
AcDbArc
 50
94.99997271484057
 51
184.9999311689215
  0
ARC
  5
22C4
330
18
100
AcDbEntity
  8
ISOTRI46
100
AcDbCircle
 10
142.8339944485198
 20
613.0521973538708
 30
0.0
 40
3.0
100
AcDbArc
 50
5.000068831078494
 51
95.00002728515942
  0
ARC
  5
22C5
330
18
100
AcDbEntity
  8
ISOTRI46
100
AcDbCircle
 10
154.7883269601283
 20
614.0980659286559
 30
0.0
 40
3.0
100
AcDbArc
 50
94.99997271484057
 51
184.9999311689215
  0
ARC
  5
22C6
330
18
100
AcDbEntity
  8
ISOTRI46
100
AcDbCircle
 10
154.7883269601283
 20
614.0980659286559
 30
0.0
 40
3.0
100
AcDbArc
 50
5.000068831078494
 51
95.00002728515942
  0
ARC
  5
22C7
330
18
100
AcDbEntity
  8
ISOTRI46
100
AcDbCircle
 10
166.7426594717368
 20
615.143934503441
 30
0.0
 40
3.0
100
AcDbArc
 50
5.000068831078494
 51
95.00002728515942
  0
ARC
  5
22C8
330
18
100
AcDbEntity
  8
ISOTRI46
100
AcDbCircle
 10
166.7426594717368
 20
615.143934503441
 30
0.0
 40
3.0
100
AcDbArc
 50
94.99997271484057
 51
184.9999311689215
  0
ARC
  5
22C9
330
18
100
AcDbEntity
  8
ISOTRI46
100
AcDbCircle
 10
178.6969919833453
 20
616.1898030782261
 30
0.0
 40
3.0
100
AcDbArc
 50
94.99997271484057
 51
184.9999311689215
  0
ARC
  5
22CB
330
18
100
AcDbEntity
  8
ISOTRI46
100
AcDbCircle
 10
183.8245255837381
 20
488.7395908885165
 30
0.0
 40
3.0
100
AcDbArc
 50
184.999986724499
 51
274.9999629462675
  0
ARC
  5
22DF
330
18
100
AcDbEntity
  8
ISOTRI46
100
AcDbCircle
 10
255.5505206533893
 20
495.0148023372275
 30
0.0
 40
3.0
100
AcDbArc
 50
184.999986724499
 51
274.9999629462675
  0
ARC
  5
22E0
330
18
100
AcDbEntity
  8
ISOTRI46
100
AcDbCircle
 10
219.6875231185637
 20
491.8771966128721
 30
0.0
 40
3.0
100
AcDbArc
 50
184.999986724499
 51
274.9999629462675
  0
ARC
  5
22E1
330
18
100
AcDbEntity
  8
ISOTRI46
100
AcDbCircle
 10
183.8245217182458
 20
488.7395905503297
 30
0.0
 40
3.0
100
AcDbArc
 50
275.0000370537325
 51
5.000013275501045
  0
ARC
  5
22E2
330
18
100
AcDbEntity
  8
ISOTRI46
100
AcDbCircle
 10
195.7788542298546
 20
489.7854591251149
 30
0.0
 40
3.0
100
AcDbArc
 50
275.0000370537325
 51
5.000013275501045
  0
ARC
  5
22E3
330
18
100
AcDbEntity
  8
ISOTRI46
100
AcDbCircle
 10
195.7788580953467
 20
489.7854594633016
 30
0.0
 40
3.0
100
AcDbArc
 50
184.999986724499
 51
274.9999629462675
  0
ARC
  5
22E4
330
18
100
AcDbEntity
  8
ISOTRI46
100
AcDbCircle
 10
207.7331867414631
 20
490.8313276999
 30
0.0
 40
3.0
100
AcDbArc
 50
275.0000370537325
 51
5.000013275501045
  0
ARC
  5
22E5
330
18
100
AcDbEntity
  8
ISOTRI46
100
AcDbCircle
 10
207.7331906069552
 20
490.831328038087
 30
0.0
 40
3.0
100
AcDbArc
 50
184.999986724499
 51
274.9999629462675
  0
ARC
  5
22E6
330
18
100
AcDbEntity
  8
ISOTRI46
100
AcDbCircle
 10
219.6875192530715
 20
491.8771962746854
 30
0.0
 40
3.0
100
AcDbArc
 50
275.0000370537325
 51
5.000013275501045
  0
ARC
  5
22E7
330
18
100
AcDbEntity
  8
ISOTRI46
100
AcDbCircle
 10
231.6418517646801
 20
492.9230648494705
 30
0.0
 40
3.0
100
AcDbArc
 50
275.0000370537325
 51
5.000013275501045
  0
ARC
  5
22E8
330
18
100
AcDbEntity
  8
ISOTRI46
100
AcDbCircle
 10
231.6418556301722
 20
492.9230651876572
 30
0.0
 40
3.0
100
AcDbArc
 50
184.999986724499
 51
274.9999629462675
  0
ARC
  5
22E9
330
18
100
AcDbEntity
  8
ISOTRI46
100
AcDbCircle
 10
243.5961842762887
 20
493.9689334242556
 30
0.0
 40
3.0
100
AcDbArc
 50
275.0000370537325
 51
5.000013275501045
  0
ARC
  5
22EA
330
18
100
AcDbEntity
  8
ISOTRI46
100
AcDbCircle
 10
243.5961881417808
 20
493.9689337624423
 30
0.0
 40
3.0
100
AcDbArc
 50
184.999986724499
 51
274.9999629462675
  0
ARC
  5
22EB
330
18
100
AcDbEntity
  8
ISOTRI46
100
AcDbCircle
 10
291.4135181882149
 20
498.1524080615828
 30
0.0
 40
3.0
100
AcDbArc
 50
184.999986724499
 51
274.9999629462675
  0
ARC
  5
22EC
330
18
100
AcDbEntity
  8
ISOTRI46
100
AcDbCircle
 10
255.5505167878972
 20
495.0148019990407
 30
0.0
 40
3.0
100
AcDbArc
 50
275.0000370537325
 51
5.000013275501045
  0
ARC
  5
22ED
330
18
100
AcDbEntity
  8
ISOTRI46
100
AcDbCircle
 10
267.5048492995057
 20
496.0606705738258
 30
0.0
 40
3.0
100
AcDbArc
 50
275.0000370537325
 51
5.000013275501045
  0
ARC
  5
22EE
330
18
100
AcDbEntity
  8
ISOTRI46
100
AcDbCircle
 10
267.5048531649978
 20
496.0606709120126
 30
0.0
 40
3.0
100
AcDbArc
 50
184.999986724499
 51
274.9999629462675
  0
ARC
  5
22EF
330
18
100
AcDbEntity
  8
ISOTRI46
100
AcDbCircle
 10
279.4591818111143
 20
497.1065391486109
 30
0.0
 40
3.0
100
AcDbArc
 50
275.0000370537325
 51
5.000013275501045
  0
ARC
  5
22F0
330
18
100
AcDbEntity
  8
ISOTRI46
100
AcDbCircle
 10
279.4591856766063
 20
497.1065394867976
 30
0.0
 40
3.0
100
AcDbArc
 50
184.999986724499
 51
274.9999629462675
  0
ARC
  5
22F1
330
18
100
AcDbEntity
  8
ISOTRI46
100
AcDbCircle
 10
291.4135143227228
 20
498.152407723396
 30
0.0
 40
3.0
100
AcDbArc
 50
275.0000370537325
 51
5.000013275501045
  0
ARC
  5
22F2
330
18
100
AcDbEntity
  8
ISOTRI46
100
AcDbCircle
 10
250.4229870529965
 20
622.4650145269371
 30
0.0
 40
3.0
100
AcDbArc
 50
5.000068831078494
 51
95.00002728515942
  0
ARC
  5
22F3
330
18
100
AcDbEntity
  8
ISOTRI46
100
AcDbCircle
 10
214.5599895181709
 20
619.3274088025817
 30
0.0
 40
3.0
100
AcDbArc
 50
5.000068831078494
 51
95.00002728515942
  0
ARC
  5
22F4
330
18
100
AcDbEntity
  8
ISOTRI46
100
AcDbCircle
 10
178.6969919833453
 20
616.1898030782261
 30
0.0
 40
3.0
100
AcDbArc
 50
5.000068831078494
 51
95.00002728515942
  0
ARC
  5
22F5
330
18
100
AcDbEntity
  8
ISOTRI46
100
AcDbCircle
 10
190.6513244949539
 20
617.2356716530115
 30
0.0
 40
3.0
100
AcDbArc
 50
5.000068831078494
 51
95.00002728515942
  0
ARC
  5
22F6
330
18
100
AcDbEntity
  8
ISOTRI46
100
AcDbCircle
 10
190.6513244949539
 20
617.2356716530115
 30
0.0
 40
3.0
100
AcDbArc
 50
94.99997271484057
 51
184.9999311689215
  0
ARC
  5
22F7
330
18
100
AcDbEntity
  8
ISOTRI46
100
AcDbCircle
 10
202.6056570065624
 20
618.2815402277967
 30
0.0
 40
3.0
100
AcDbArc
 50
5.000068831078494
 51
95.00002728515942
  0
ARC
  5
22F8
330
18
100
AcDbEntity
  8
ISOTRI46
100
AcDbCircle
 10
202.6056570065624
 20
618.2815402277967
 30
0.0
 40
3.0
100
AcDbArc
 50
94.99997271484057
 51
184.9999311689215
  0
ARC
  5
22F9
330
18
100
AcDbEntity
  8
ISOTRI46
100
AcDbCircle
 10
214.5599895181709
 20
619.3274088025817
 30
0.0
 40
3.0
100
AcDbArc
 50
94.99997271484057
 51
184.9999311689215
  0
ARC
  5
22FA
330
18
100
AcDbEntity
  8
ISOTRI46
100
AcDbCircle
 10
226.5143220297795
 20
620.3732773773668
 30
0.0
 40
3.0
100
AcDbArc
 50
94.99997271484057
 51
184.9999311689215
  0
ARC
  5
22FB
330
18
100
AcDbEntity
  8
ISOTRI46
100
AcDbCircle
 10
226.5143220297795
 20
620.3732773773668
 30
0.0
 40
3.0
100
AcDbArc
 50
5.000068831078494
 51
95.00002728515942
  0
ARC
  5
22FC
330
18
100
AcDbEntity
  8
ISOTRI46
100
AcDbCircle
 10
238.468654541388
 20
621.4191459521519
 30
0.0
 40
3.0
100
AcDbArc
 50
5.000068831078494
 51
95.00002728515942
  0
ARC
  5
22FD
330
18
100
AcDbEntity
  8
ISOTRI46
100
AcDbCircle
 10
238.468654541388
 20
621.4191459521519
 30
0.0
 40
3.0
100
AcDbArc
 50
94.99997271484057
 51
184.9999311689215
  0
ARC
  5
22FE
330
18
100
AcDbEntity
  8
ISOTRI46
100
AcDbCircle
 10
250.4229870529965
 20
622.4650145269371
 30
0.0
 40
3.0
100
AcDbArc
 50
94.99997271484057
 51
184.9999311689215
  0
ARC
  5
22FF
330
18
100
AcDbEntity
  8
ISOTRI46
100
AcDbCircle
 10
286.2859845878221
 20
625.6026202512924
 30
0.0
 40
3.0
100
AcDbArc
 50
5.000068831078494
 51
95.00002728515942
  0
ARC
  5
2300
330
18
100
AcDbEntity
  8
ISOTRI46
100
AcDbCircle
 10
262.377319564605
 20
623.5108831017222
 30
0.0
 40
3.0
100
AcDbArc
 50
94.99997271484057
 51
184.9999311689215
  0
ARC
  5
2301
330
18
100
AcDbEntity
  8
ISOTRI46
100
AcDbCircle
 10
262.377319564605
 20
623.5108831017222
 30
0.0
 40
3.0
100
AcDbArc
 50
5.000068831078494
 51
95.00002728515942
  0
ARC
  5
2302
330
18
100
AcDbEntity
  8
ISOTRI46
100
AcDbCircle
 10
274.3316520762136
 20
624.5567516765073
 30
0.0
 40
3.0
100
AcDbArc
 50
5.000068831078494
 51
95.00002728515942
  0
ARC
  5
2303
330
18
100
AcDbEntity
  8
ISOTRI46
100
AcDbCircle
 10
274.3316520762136
 20
624.5567516765073
 30
0.0
 40
3.0
100
AcDbArc
 50
94.99997271484057
 51
184.9999311689215
  0
ARC
  5
2304
330
18
100
AcDbEntity
  8
ISOTRI46
100
AcDbCircle
 10
286.2859845878221
 20
625.6026202512924
 30
0.0
 40
3.0
100
AcDbArc
 50
94.99997271484057
 51
184.9999311689215
  0
ARC
  5
2306
330
18
100
AcDbEntity
  8
ISOTRI46
100
AcDbCircle
 10
298.2403170994306
 20
626.6484888260776
 30
0.0
 40
3.0
100
AcDbArc
 50
94.99997271484057
 51
184.9999311689215
  0
ARC
  5
2307
330
18
100
AcDbEntity
  8
ISOTRI46
100
AcDbCircle
 10
298.3214227343972
 20
625.721447176361
 30
0.0
 40
3.0
100
AcDbArc
 50
5.000068831078494
 51
95.00002728515942
  0
ARC
  5
2308
330
18
100
AcDbEntity
  8
ISOTRI46
100
AcDbCircle
 10
310.2757552460058
 20
626.7673157511461
 30
0.0
 40
3.0
100
AcDbArc
 50
5.000068831078494
 51
95.00002728515942
  0
ARC
  5
2309
330
18
100
AcDbEntity
  8
ISOTRI46
100
AcDbCircle
 10
310.2757552460058
 20
626.7673157511461
 30
0.0
 40
3.0
100
AcDbArc
 50
94.99997271484057
 51
184.9999311689215
  0
ARC
  5
230F
330
18
100
AcDbEntity
  8
ISOTRI46
100
AcDbCircle
 10
322.1489821226477
 20
628.7402259756478
 30
0.0
 40
3.0
100
AcDbArc
 50
5.000068831078494
 51
95.00002728515942
  0
ARC
  5
2310
330
18
100
AcDbEntity
  8
ISOTRI46
100
AcDbCircle
 10
322.1489821226477
 20
628.7402259756478
 30
0.0
 40
3.0
100
AcDbArc
 50
94.99997271484057
 51
184.9999311689215
  0
ARC
  5
2313
330
18
100
AcDbEntity
  8
ISOTRI46
100
AcDbCircle
 10
303.3678506998234
 20
499.1982766363679
 30
0.0
 40
3.0
100
AcDbArc
 50
184.999986724499
 51
274.9999629462675
  0
ARC
  5
2314
330
18
100
AcDbEntity
  8
ISOTRI46
100
AcDbCircle
 10
303.3678468343313
 20
499.1982762981812
 30
0.0
 40
3.0
100
AcDbArc
 50
275.0000370537325
 51
5.000013275501045
  0
ARC
  5
2315
330
18
100
AcDbEntity
  8
ISOTRI46
100
AcDbCircle
 10
315.3221793459398
 20
500.2441448729663
 30
0.0
 40
3.0
100
AcDbArc
 50
275.0000370537325
 51
5.000013275501045
  0
ARC
  5
2316
330
18
100
AcDbEntity
  8
ISOTRI46
100
AcDbCircle
 10
315.3221832114319
 20
500.244145211153
 30
0.0
 40
3.0
100
AcDbArc
 50
184.999986724499
 51
274.9999629462675
  0
ARC
  5
2317
330
18
100
AcDbEntity
  8
ISOTRI46
100
AcDbCircle
 10
339.230848234649
 20
502.3358823607233
 30
0.0
 40
3.0
100
AcDbArc
 50
184.999986724499
 51
241.9323159071737
  0
ARC
  5
2318
330
18
100
AcDbEntity
  8
ISOTRI46
100
AcDbCircle
 10
327.2765118575484
 20
501.2900134477514
 30
0.0
 40
3.0
100
AcDbArc
 50
275.0000370537325
 51
5.000013275501045
  0
ARC
  5
2319
330
18
100
AcDbEntity
  8
ISOTRI46
100
AcDbCircle
 10
327.2765157230405
 20
501.2900137859381
 30
0.0
 40
3.0
100
AcDbArc
 50
184.999986724499
 51
274.9999629462675
  0
ARC
  5
2328
330
18
100
AcDbEntity
  8
ISOTRI46
100
AcDbCircle
 10
782.9564260326174
 20
621.1398173750287
 30
0.0
 40
3.0
100
AcDbArc
 50
355.0000688310791
 51
85.00002728516006
  0
ARC
  5
232E
330
18
100
AcDbEntity
  8
ISOTRI46
100
AcDbCircle
 10
806.8650910558345
 20
619.0480802254586
 30
0.0
 40
3.0
100
AcDbArc
 50
84.9999727148412
 51
174.9999311689221
  0
ARC
  5
232F
330
18
100
AcDbEntity
  8
ISOTRI46
100
AcDbCircle
 10
806.8650910558345
 20
619.0480802254586
 30
0.0
 40
3.0
100
AcDbArc
 50
355.0000688310791
 51
85.00002728516006
  0
ARC
  5
2330
330
18
100
AcDbEntity
  8
ISOTRI46
100
AcDbCircle
 10
794.9107585442259
 20
620.0939488002436
 30
0.0
 40
3.0
100
AcDbArc
 50
355.0000688310791
 51
85.00002728516006
  0
ARC
  5
2331
330
18
100
AcDbEntity
  8
ISOTRI46
100
AcDbCircle
 10
794.9107585442259
 20
620.0939488002436
 30
0.0
 40
3.0
100
AcDbArc
 50
84.9999727148412
 51
174.9999311689221
  0
ARC
  5
233D
330
18
100
AcDbEntity
  8
ISOTRI46
100
AcDbCircle
 10
771.0020935210089
 20
622.1856859498135
 30
0.0
 40
3.0
100
AcDbArc
 50
84.9999727148412
 51
174.9999311689221
  0
ARC
  5
233E
330
18
100
AcDbEntity
  8
ISOTRI46
100
AcDbCircle
 10
771.0020935210089
 20
622.1856859498135
 30
0.0
 40
3.0
100
AcDbArc
 50
355.0000688310791
 51
85.00002728516006
  0
ARC
  5
233F
330
18
100
AcDbEntity
  8
ISOTRI46
100
AcDbCircle
 10
782.9564260326174
 20
621.1398173750287
 30
0.0
 40
3.0
100
AcDbArc
 50
84.9999727148412
 51
174.9999311689221
  0
ARC
  5
2340
330
18
100
AcDbEntity
  8
ISOTRI46
100
AcDbCircle
 10
759.0477610094003
 20
623.2315545245985
 30
0.0
 40
3.0
100
AcDbArc
 50
84.9999727148412
 51
174.9999311689221
  0
ARC
  5
2341
330
18
100
AcDbEntity
  8
ISOTRI46
100
AcDbCircle
 10
759.0477610094003
 20
623.2315545245985
 30
0.0
 40
3.0
100
AcDbArc
 50
355.0000688310791
 51
85.00002728516006
  0
ARC
  5
2342
330
18
100
AcDbEntity
  8
ISOTRI46
100
AcDbCircle
 10
711.2304309629661
 20
627.4150288237385
 30
0.0
 40
3.0
100
AcDbArc
 50
84.9999727148412
 51
174.9999311689221
  0
ARC
  5
2343
330
18
100
AcDbEntity
  8
ISOTRI46
100
AcDbCircle
 10
747.0934284977918
 20
624.2774230993835
 30
0.0
 40
3.0
100
AcDbArc
 50
355.0000688310791
 51
85.00002728516006
  0
ARC
  5
2344
330
18
100
AcDbEntity
  8
ISOTRI46
100
AcDbCircle
 10
735.1390959861832
 20
625.3232916741685
 30
0.0
 40
3.0
100
AcDbArc
 50
355.0000688310791
 51
85.00002728516006
  0
ARC
  5
2345
330
18
100
AcDbEntity
  8
ISOTRI46
100
AcDbCircle
 10
747.0934284977918
 20
624.2774230993835
 30
0.0
 40
3.0
100
AcDbArc
 50
84.9999727148412
 51
174.9999311689221
  0
ARC
  5
2346
330
18
100
AcDbEntity
  8
ISOTRI46
100
AcDbCircle
 10
735.1390959861832
 20
625.3232916741685
 30
0.0
 40
3.0
100
AcDbArc
 50
84.9999727148412
 51
174.9999311689221
  0
ARC
  5
2347
330
18
100
AcDbEntity
  8
ISOTRI46
100
AcDbCircle
 10
723.1847634745746
 20
626.3691602489536
 30
0.0
 40
3.0
100
AcDbArc
 50
84.9999727148412
 51
174.9999311689221
  0
ARC
  5
2348
330
18
100
AcDbEntity
  8
ISOTRI46
100
AcDbCircle
 10
723.1847634745746
 20
626.3691602489536
 30
0.0
 40
3.0
100
AcDbArc
 50
355.0000688310791
 51
85.00002728516006
  0
ARC
  5
2349
330
18
100
AcDbEntity
  8
ISOTRI46
100
AcDbCircle
 10
711.2304309629661
 20
627.4150288237385
 30
0.0
 40
3.0
100
AcDbArc
 50
355.0000688310791
 51
85.00002728516006
  0
ARC
  5
234A
330
18
100
AcDbEntity
  8
ISOTRI46
100
AcDbCircle
 10
854.6824211022686
 20
614.8646059263185
 30
0.0
 40
3.0
100
AcDbArc
 50
355.0000688310791
 51
85.00002728516006
  0
ARC
  5
234F
330
18
100
AcDbEntity
  8
ISOTRI46
100
AcDbCircle
 10
878.5910861254857
 20
612.7728687767485
 30
0.0
 40
3.0
100
AcDbArc
 50
84.9999727148412
 51
174.9999311689221
  0
ARC
  5
2350
330
18
100
AcDbEntity
  8
ISOTRI46
100
AcDbCircle
 10
890.5454186370942
 20
611.7270002019635
 30
0.0
 40
3.0
100
AcDbArc
 50
84.9999727148412
 51
174.9999311689221
  0
ARC
  5
2351
330
18
100
AcDbEntity
  8
ISOTRI46
100
AcDbCircle
 10
890.5454186370942
 20
611.7270002019635
 30
0.0
 40
3.0
100
AcDbArc
 50
355.0000688310791
 51
85.00002728516006
  0
ARC
  5
2352
330
18
100
AcDbEntity
  8
ISOTRI46
100
AcDbCircle
 10
878.5910861254857
 20
612.7728687767485
 30
0.0
 40
3.0
100
AcDbArc
 50
355.0000688310791
 51
85.00002728516006
  0
ARC
  5
2353
330
18
100
AcDbEntity
  8
ISOTRI46
100
AcDbCircle
 10
866.6367536138771
 20
613.8187373515335
 30
0.0
 40
3.0
100
AcDbArc
 50
355.0000688310791
 51
85.00002728516006
  0
ARC
  5
2354
330
18
100
AcDbEntity
  8
ISOTRI46
100
AcDbCircle
 10
866.6367536138771
 20
613.8187373515335
 30
0.0
 40
3.0
100
AcDbArc
 50
84.9999727148412
 51
174.9999311689221
  0
ARC
  5
2355
330
18
100
AcDbEntity
  8
ISOTRI46
100
AcDbCircle
 10
818.819423567443
 20
618.0022116506736
 30
0.0
 40
3.0
100
AcDbArc
 50
355.0000688310791
 51
85.00002728516006
  0
ARC
  5
2356
330
18
100
AcDbEntity
  8
ISOTRI46
100
AcDbCircle
 10
842.7280885906601
 20
615.9104745011036
 30
0.0
 40
3.0
100
AcDbArc
 50
84.9999727148412
 51
174.9999311689221
  0
ARC
  5
2357
330
18
100
AcDbEntity
  8
ISOTRI46
100
AcDbCircle
 10
854.6824211022686
 20
614.8646059263185
 30
0.0
 40
3.0
100
AcDbArc
 50
84.9999727148412
 51
174.9999311689221
  0
ARC
  5
2358
330
18
100
AcDbEntity
  8
ISOTRI46
100
AcDbCircle
 10
842.7280885906601
 20
615.9104745011036
 30
0.0
 40
3.0
100
AcDbArc
 50
355.0000688310791
 51
85.00002728516006
  0
ARC
  5
2359
330
18
100
AcDbEntity
  8
ISOTRI46
100
AcDbCircle
 10
830.7737560790515
 20
616.9563430758886
 30
0.0
 40
3.0
100
AcDbArc
 50
84.9999727148412
 51
174.9999311689221
  0
ARC
  5
235A
330
18
100
AcDbEntity
  8
ISOTRI46
100
AcDbCircle
 10
830.7737560790515
 20
616.9563430758886
 30
0.0
 40
3.0
100
AcDbArc
 50
355.0000688310791
 51
85.00002728516006
  0
ARC
  5
235B
330
18
100
AcDbEntity
  8
ISOTRI46
100
AcDbCircle
 10
818.819423567443
 20
618.0022116506736
 30
0.0
 40
3.0
100
AcDbArc
 50
84.9999727148412
 51
174.9999311689221
  0
LINE
  5
2362
330
18
100
AcDbEntity
  8
ISOTRI46
100
AcDbLine
 10
890.2098669798416
 20
573.4704874723044
 30
0.0
 11
882.5452445962303
 21
485.8634527466803
 31
0.0
  0
LINE
  5
2363
330
18
100
AcDbEntity
  8
ISOTRI46
100
AcDbLine
 10
896.1870313029043
 20
572.9475533540048
 30
0.0
 11
888.5224089192885
 21
485.3405186283811
 31
0.0
  0
ARC
  5
237A
330
18
100
AcDbEntity
  8
ISOTRI46
100
AcDbCircle
 10
873.5794961183149
 20
486.6478534007635
 30
0.0
 40
3.0
100
AcDbArc
 50
174.9999867244996
 51
264.9999629462682
  0
ARC
  5
237B
330
18
100
AcDbEntity
  8
ISOTRI46
100
AcDbCircle
 10
885.5338286299234
 20
485.6019848259785
 30
0.0
 40
3.0
100
AcDbArc
 50
174.9999867244996
 51
264.9999629462682
  0
ARC
  5
237D
330
18
100
AcDbEntity
  8
ISOTRI46
100
AcDbCircle
 10
873.5794922528226
 20
486.6478537389503
 30
0.0
 40
3.0
100
AcDbArc
 50
265.0000370537332
 51
355.0000132755017
  0
ARC
  5
237E
330
18
100
AcDbEntity
  8
ISOTRI46
100
AcDbCircle
 10
861.6251597412141
 20
487.6937223137352
 30
0.0
 40
3.0
100
AcDbArc
 50
265.0000370537332
 51
355.0000132755017
  0
ARC
  5
237F
330
18
100
AcDbEntity
  8
ISOTRI46
100
AcDbCircle
 10
861.6251636067064
 20
487.6937219755485
 30
0.0
 40
3.0
100
AcDbArc
 50
174.9999867244996
 51
264.9999629462682
  0
ARC
  5
2381
330
18
100
AcDbEntity
  8
ISOTRI46
100
AcDbCircle
 10
837.7164985834891
 20
489.7854591251184
 30
0.0
 40
3.0
100
AcDbArc
 50
174.9999867244996
 51
264.9999629462682
  0
ARC
  5
2382
330
18
100
AcDbEntity
  8
ISOTRI46
100
AcDbCircle
 10
849.6708310950978
 20
488.7395905503334
 30
0.0
 40
3.0
100
AcDbArc
 50
174.9999867244996
 51
264.9999629462682
  0
ARC
  5
2383
330
18
100
AcDbEntity
  8
ISOTRI46
100
AcDbCircle
 10
849.6708272296055
 20
488.7395908885202
 30
0.0
 40
3.0
100
AcDbArc
 50
265.0000370537332
 51
355.0000132755017
  0
ARC
  5
2384
330
18
100
AcDbEntity
  8
ISOTRI46
100
AcDbCircle
 10
837.716494717997
 20
489.7854594633051
 30
0.0
 40
3.0
100
AcDbArc
 50
265.0000370537332
 51
355.0000132755017
  0
ARC
  5
2385
330
18
100
AcDbEntity
  8
ISOTRI46
100
AcDbCircle
 10
825.7621622063885
 20
490.8313280380903
 30
0.0
 40
3.0
100
AcDbArc
 50
265.0000370537332
 51
355.0000132755017
  0
ARC
  5
2386
330
18
100
AcDbEntity
  8
ISOTRI46
100
AcDbCircle
 10
825.7621660718806
 20
490.8313276999034
 30
0.0
 40
3.0
100
AcDbArc
 50
174.9999867244996
 51
264.9999629462682
  0
ARC
  5
2387
330
18
100
AcDbEntity
  8
ISOTRI46
100
AcDbCircle
 10
777.9448321599543
 20
495.0148023372303
 30
0.0
 40
3.0
100
AcDbArc
 50
265.0000370537332
 51
355.0000132755017
  0
ARC
  5
2388
330
18
100
AcDbEntity
  8
ISOTRI46
100
AcDbCircle
 10
801.8535010486635
 20
492.9230648494736
 30
0.0
 40
3.0
100
AcDbArc
 50
174.9999867244996
 51
264.9999629462682
  0
ARC
  5
2389
330
18
100
AcDbEntity
  8
ISOTRI46
100
AcDbCircle
 10
813.807833560272
 20
491.8771962746887
 30
0.0
 40
3.0
100
AcDbArc
 50
174.9999867244996
 51
264.9999629462682
  0
ARC
  5
238A
330
18
100
AcDbEntity
  8
ISOTRI46
100
AcDbCircle
 10
813.8078296947799
 20
491.8771966128754
 30
0.0
 40
3.0
100
AcDbArc
 50
265.0000370537332
 51
355.0000132755017
  0
ARC
  5
238B
330
18
100
AcDbEntity
  8
ISOTRI46
100
AcDbCircle
 10
801.8534971831714
 20
492.9230651876604
 30
0.0
 40
3.0
100
AcDbArc
 50
265.0000370537332
 51
355.0000132755017
  0
ARC
  5
238C
330
18
100
AcDbEntity
  8
ISOTRI46
100
AcDbCircle
 10
789.8991646715629
 20
493.9689337624454
 30
0.0
 40
3.0
100
AcDbArc
 50
265.0000370537332
 51
355.0000132755017
  0
ARC
  5
238D
330
18
100
AcDbEntity
  8
ISOTRI46
100
AcDbCircle
 10
789.8991685370549
 20
493.9689334242586
 30
0.0
 40
3.0
100
AcDbArc
 50
174.9999867244996
 51
264.9999629462682
  0
ARC
  5
238E
330
18
100
AcDbEntity
  8
ISOTRI46
100
AcDbCircle
 10
777.9448360254463
 20
495.0148019990435
 30
0.0
 40
3.0
100
AcDbArc
 50
174.9999867244996
 51
264.9999629462682
  0
ARC
  5
238F
330
18
100
AcDbEntity
  8
ISOTRI46
100
AcDbCircle
 10
742.0818346251287
 20
498.1524080615853
 30
0.0
 40
3.0
100
AcDbArc
 50
265.0000370537332
 51
355.0000132755017
  0
ARC
  5
2390
330
18
100
AcDbEntity
  8
ISOTRI46
100
AcDbCircle
 10
765.9905035138379
 20
496.0606705738285
 30
0.0
 40
3.0
100
AcDbArc
 50
174.9999867244996
 51
264.9999629462682
  0
ARC
  5
2391
330
18
100
AcDbEntity
  8
ISOTRI46
100
AcDbCircle
 10
765.9904996483458
 20
496.0606709120153
 30
0.0
 40
3.0
100
AcDbArc
 50
265.0000370537332
 51
355.0000132755017
  0
ARC
  5
2392
330
18
100
AcDbEntity
  8
ISOTRI46
100
AcDbCircle
 10
754.0361710022294
 20
497.1065391486136
 30
0.0
 40
3.0
100
AcDbArc
 50
174.9999867244996
 51
264.9999629462682
  0
ARC
  5
2393
330
18
100
AcDbEntity
  8
ISOTRI46
100
AcDbCircle
 10
754.0361671367373
 20
497.1065394868003
 30
0.0
 40
3.0
100
AcDbArc
 50
265.0000370537332
 51
355.0000132755017
  0
ARC
  5
2394
330
18
100
AcDbEntity
  8
ISOTRI46
100
AcDbCircle
 10
742.0818384906208
 20
498.1524077233985
 30
0.0
 40
3.0
100
AcDbArc
 50
174.9999867244996
 51
264.9999629462682
  0
ARC
  5
2395
330
18
100
AcDbEntity
  8
ISOTRI46
100
AcDbCircle
 10
706.2188370903031
 20
501.2900137859402
 30
0.0
 40
3.0
100
AcDbArc
 50
265.0000370537332
 51
355.0000132755017
  0
ARC
  5
2396
330
18
100
AcDbEntity
  8
ISOTRI46
100
AcDbCircle
 10
730.1275059790123
 20
499.1982762981836
 30
0.0
 40
3.0
100
AcDbArc
 50
174.9999867244996
 51
264.9999629462682
  0
ARC
  5
2397
330
18
100
AcDbEntity
  8
ISOTRI46
100
AcDbCircle
 10
730.1275021135202
 20
499.1982766363703
 30
0.0
 40
3.0
100
AcDbArc
 50
265.0000370537332
 51
355.0000132755017
  0
ARC
  5
2398
330
18
100
AcDbEntity
  8
ISOTRI46
100
AcDbCircle
 10
718.1731734674038
 20
500.2441448729686
 30
0.0
 40
3.0
100
AcDbArc
 50
174.9999867244996
 51
264.9999629462682
  0
ARC
  5
2399
330
18
100
AcDbEntity
  8
ISOTRI46
100
AcDbCircle
 10
718.1731696019117
 20
500.2441452111553
 30
0.0
 40
3.0
100
AcDbArc
 50
265.0000370537332
 51
355.0000132755017
  0
ARC
  5
239A
330
18
100
AcDbEntity
  8
ISOTRI46
100
AcDbCircle
 10
706.2188409557952
 20
501.2900134477535
 30
0.0
 40
3.0
100
AcDbArc
 50
174.9999867244996
 51
264.9999629462682
  0
ARC
  5
239B
330
18
100
AcDbEntity
  8
ISOTRI46
100
AcDbCircle
 10
694.2645045786946
 20
502.3358823607252
 30
0.0
 40
3.0
100
AcDbArc
 50
298.067684092827
 51
355.0000132755017
  0
LWPOLYLINE
  5
23A4
330
18
100
AcDbEntity
  8
V5
  6
Continuous
 62
     7
100
AcDbPolyline
 90
        4
 70
     1
 43
0.8
 10
281.7332072983258
 20
695.243276431077
 10
286.9148571406085
 20
636.0167477191923
 10
310.3995034597998
 20
638.0713880390376
 10
305.2178536175174
 20
697.2979167509221
  0
INSERT
  5
23A5
330
18
100
AcDbEntity
  8
V25
100
AcDbBlockReference
  2
*X1
 10
-76.69736593537914
 20
198.1294306486354
 30
0.0
 50
4.999999999999459
  0
LINE
  5
23A6
330
18
100
AcDbEntity
  8
V35
100
AcDbLine
 10
289.8062043751888
 20
708.6412508578555
 30
0.0
 11
291.5513605229962
 21
688.6940248119308
 31
0.0
  0
LWPOLYLINE
  5
23A7
330
18
100
AcDbEntity
  8
V5
  6
Continuous
100
AcDbPolyline
 90
        6
 70
     0
 43
1.5
 10
255.6822587416995
 20
633.9943477755931
 10
250.2350248199709
 20
696.2565164063273
 10
249.7120903634849
 20
702.2336845948777
 10
270.1340816743656
 20
704.0203773212048
 10
277.4666326786461
 20
700.5409166852566
 10
304.861986876169
 20
702.9376996108172
  0
LINE
  5
23A8
330
18
100
AcDbEntity
  8
V35
100
AcDbLine
 10
259.7959006960288
 20
713.585048503412
 30
0.0
 11
261.0251661607003
 21
699.5344799482369
 31
0.0
  0
LWPOLYLINE
  5
23A9
330
18
100
AcDbEntity
  8
V5
  6
Continuous
 62
     7
100
AcDbPolyline
 90
        2
 70
     0
 43
1.5
 10
277.4666786717384
 20
700.5409207091308
 10
283.0774790084005
 20
636.3911189837251
  0
LINE
  5
23AA
330
18
100
AcDbEntity
  8
V35
100
AcDbLine
 10
438.167140330474
 20
721.7605212313301
 30
0.0
 11
439.7683102159887
 21
703.4590656942945
 31
0.0
  0
LINE
  5
23AB
330
18
100
AcDbEntity
  8
V35
100
AcDbLine
 10
595.3250761724088
 20
721.7246730387497
 30
0.0
 11
593.6487782552041
 21
702.5645001700886
 31
0.0
  0
LWPOLYLINE
  5
23AC
330
18
100
AcDbEntity
  8
V5
  6
Continuous
100
AcDbPolyline
 90
        6
 70
     0
 43
1.5
 10
777.8062770380229
 20
633.916428724776
 10
783.2535109597515
 20
696.1785973555101
 10
783.7764454162375
 20
702.1557655440605
 10
763.354454105357
 20
703.9424582703875
 10
756.0219031010765
 20
700.4629976344395
 10
728.6265489035531
 20
702.85978056
  0
LINE
  5
23AD
330
18
100
AcDbEntity
  8
V35
  6
STRICHPUNKT
100
AcDbLine
 10
773.6646180245506
 20
713.1868930012172
 30
0.0
 11
772.4633696190221
 21
699.4565608974196
 31
0.0
  0
LINE
  5
23AE
330
18
100
AcDbEntity
  8
V35
100
AcDbLine
 10
743.6823314045341
 20
708.5633318070383
 30
0.0
 11
741.9371752567256
 21
688.6161057611126
 31
0.0
  0
LWPOLYLINE
  5
23AF
330
18
100
AcDbEntity
  8
V5
  6
Continuous
 62
     7
100
AcDbPolyline
 90
        4
 70
     1
 43
0.8
 10
751.7553284813966
 20
695.1653573802596
 10
746.5736786391139
 20
635.9388286683751
 10
723.0890323199223
 20
637.9934689882203
 10
728.270682162205
 20
697.2199977001048
  0
INSERT
  5
23B0
330
18
100
AcDbEntity
  8
V25
100
AcDbBlockReference
  2
*X1
 10
-1110.185901715102
 20
198.0515115978181
 30
0.0
 43
-1.0
 50
4.999999999999459
210
0.0
220
0.0
230
-1.0
  0
LWPOLYLINE
  5
23B1
330
18
100
AcDbEntity
  8
V5
  6
Continuous
 62
     7
100
AcDbPolyline
 90
        2
 70
     0
 43
1.5
 10
756.021857107984
 20
700.4630016583136
 10
750.4110567713219
 20
636.3131999329079
  0
LINE
  5
23BA
330
18
100
AcDbEntity
  8
TXT-E
  6
VERDECKTX2
 48
5.0
100
AcDbLine
 10
260.0423589196059
 20
827.7220209577626
 30
0.0
 11
260.0423589196059
 21
714.0432847926899
 31
0.0
  0
LINE
  5
23CD
330
18
100
AcDbEntity
  8
TXT-D
  6
ByBlock
 62
     1
100
AcDbLine
 10
714.2977827926057
 20
236.1736938603211
 30
0.0
 11
714.2977827926058
 21
359.2075262199145
 31
0.0
  0
LINE
  5
23CF
330
18
100
AcDbEntity
  8
TXT-D
  6
ByBlock
 62
     1
100
AcDbLine
 10
462.4374152572436
 20
296.0445030500945
 30
0.0
 11
441.5295965948935
 21
296.0445030500943
 31
0.0
  0
LINE
  5
23D0
330
18
100
AcDbEntity
  8
TXT-D
  6
ByBlock
 62
     1
100
AcDbLine
 10
462.4374152572436
 20
296.0445030500945
 30
0.0
 11
462.4374152572436
 21
545.5071914291686
 31
0.0
  0
ARC
  5
23DE
330
18
100
AcDbEntity
  8
ISO
100
AcDbCircle
 10
120.5681177395107
 20
603.5559445560486
 30
0.0
 40
12.0
100
AcDbArc
 50
4.999999999999994
 51
94.99999999999996
  0
ARC
  5
23DF
330
18
100
AcDbEntity
  8
ISO
100
AcDbCircle
 10
120.5681177395107
 20
603.5559445560486
 30
0.0
 40
12.0
100
AcDbArc
 50
95.0
 51
185.0
  0
ARC
  5
23E2
330
18
100
AcDbEntity
  8
ISO
100
AcDbCircle
 10
142.2778766728776
 20
493.0968234153612
 30
0.0
 40
12.0
100
AcDbArc
 50
185.0
 51
275.0
  0
ARC
  5
23E3
330
18
100
AcDbEntity
  8
ISO
100
AcDbCircle
 10
118.3692039186762
 20
491.0050855894175
 30
0.0
 40
12.0
100
AcDbArc
 50
275.0
 51
4.999999999999994
  0
ARC
  5
23F6
330
18
100
AcDbEntity
  8
ISO
  6
VERDECKT
 48
2.5
100
AcDbCircle
 10
381.1203189876522
 20
626.6010546459471
 30
0.0
 40
12.0
100
AcDbArc
 50
95.0
 51
185.0
  0
ARC
  5
23F9
330
18
100
AcDbEntity
  8
ISO
100
AcDbCircle
 10
402.8300779210191
 20
516.1419335052602
 30
0.0
 40
12.0
100
AcDbArc
 50
275.0
 51
4.999999999999994
  0
ARC
  5
23FD
330
18
100
AcDbEntity
  8
ISO
  6
VERDECKT
 48
2.5
100
AcDbCircle
 10
357.2116462334501
 20
624.5093168200074
 30
0.0
 40
12.0
100
AcDbArc
 50
95.0
 51
185.0
  0
ARC
  5
23FE
330
18
100
AcDbEntity
  8
ISO
  6
VERDECKT
 48
2.5
100
AcDbCircle
 10
357.2116462334501
 20
624.5093168200074
 30
0.0
 40
12.0
100
AcDbArc
 50
4.999999999999994
 51
94.99999999999996
  0
ARC
  5
2405
330
18
100
AcDbEntity
  8
ISO
  6
VERDECKT
 48
2.5
100
AcDbCircle
 10
333.3029734792486
 20
622.4175789940655
 30
0.0
 40
12.0
100
AcDbArc
 50
4.999999999999994
 51
94.99999999999996
  0
ARC
  5
240D
330
18
100
AcDbEntity
  8
ISO
  6
VERDECKT
 48
2.5
100
AcDbCircle
 10
652.2189608128889
 20
624.8171319465829
 30
0.0
 40
12.0
100
AcDbArc
 50
85.00000000000005
 51
122.6814868035692
  0
ARC
  5
2412
330
18
100
AcDbEntity
  8
ISO
  6
VERDECKT
 48
2.5
100
AcDbCircle
 10
676.1276335670909
 20
622.7253941206432
 30
0.0
 40
12.0
100
AcDbArc
 50
85.00000000000005
 51
175.0
  0
ARC
  5
2413
330
18
100
AcDbEntity
  8
ISO
  6
VERDECKT
 48
2.5
100
AcDbCircle
 10
700.0363063212923
 20
620.6336562947012
 30
0.0
 40
12.0
100
AcDbArc
 50
85.00000000000005
 51
175.0
  0
ARC
  5
2414
330
18
100
AcDbEntity
  8
ISO
  6
VERDECKT
 48
2.5
100
AcDbCircle
 10
676.1276335670909
 20
622.7253941206432
 30
0.0
 40
12.0
100
AcDbArc
 50
355.0
 51
85.0
  0
ARC
  5
2415
330
18
100
AcDbEntity
  8
ISO
  6
VERDECKT
 48
2.5
100
AcDbCircle
 10
652.2189608128889
 20
624.8171319465829
 30
0.0
 40
12.0
100
AcDbArc
 50
355.0
 51
85.0
  0
LWPOLYLINE
  5
2429
330
18
100
AcDbEntity
  8
V35
100
AcDbPolyline
 90
        2
 70
     1
 43
2.9
 10
751.001209129119
 20
431.9847171832233
 42
1.0
 10
754.1012091291189
 20
431.9847171832233
 42
1.0
  0
LWPOLYLINE
  5
242A
330
18
100
AcDbEntity
  8
V35
100
AcDbPolyline
 90
        2
 70
     1
 43
2.9
 10
460.8874152572436
 20
545.5071914291686
 42
1.0
 10
463.9874152572435
 20
545.5071914291686
 42
1.0
  0
LWPOLYLINE
  5
242B
330
18
100
AcDbEntity
  8
V35
100
AcDbPolyline
 90
        2
 70
     1
 43
2.9
 10
175.4884699294423
 20
518.5717868342816
 42
1.0
 10
178.5884699294422
 20
518.5717868342816
 42
1.0
  0
LWPOLYLINE
  5
242C
330
18
100
AcDbEntity
  8
V35
100
AcDbPolyline
 90
        2
 70
     1
 43
2.9
 10
137.2350435929293
 20
478.0671133833829
 42
1.0
 10
140.3350435929292
 20
478.0671133833829
 42
1.0
  0
LWPOLYLINE
  5
242D
330
18
100
AcDbEntity
  8
V35
100
AcDbPolyline
 90
        2
 70
     1
 43
2.9
 10
257.7208730288375
 20
714.0821429216018
 42
1.0
 10
260.8208730288374
 20
714.0821429216018
 42
1.0
  0
LWPOLYLINE
  5
2432
330
18
100
AcDbEntity
  8
V35
100
AcDbPolyline
 90
        2
 70
     1
 43
2.9
 10
568.9562438966127
 20
675.8043557361421
 42
1.0
 10
572.0562438966125
 20
675.8043557361421
 42
1.0
  0
LWPOLYLINE
  5
2433
330
18
100
AcDbEntity
  8
V35
100
AcDbPolyline
 90
        2
 70
     1
 43
2.9
 10
603.8993586543291
 20
713.8115414758407
 42
1.0
 10
606.999358654329
 20
713.8115414758407
 42
1.0
  0
LWPOLYLINE
  5
2434
330
18
100
AcDbEntity
  8
V35
100
AcDbPolyline
 90
        2
 70
     1
 43
2.9
 10
627.5611010823306
 20
721.1711710888971
 42
1.0
 10
630.6611010823305
 20
721.1711710888971
 42
1.0
  0
LWPOLYLINE
  5
2435
330
18
100
AcDbEntity
  8
V35
100
AcDbPolyline
 90
        2
 70
     1
 43
2.9
 10
647.0308651486405
 20
628.5617390119315
 42
1.0
 10
650.1308651486404
 20
628.5617390119315
 42
1.0
  0
LWPOLYLINE
  5
2436
330
18
100
AcDbEntity
  8
V35
100
AcDbPolyline
 90
        2
 70
     1
 43
2.9
 10
731.4939549064072
 20
680.423446257335
 42
1.0
 10
734.5939549064071
 20
680.423446257335
 42
1.0
  0
LWPOLYLINE
  5
2437
330
18
100
AcDbEntity
  8
V35
100
AcDbPolyline
 90
        2
 70
     1
 43
2.9
 10
764.5816810338183
 20
703.9967651186497
 42
1.0
 10
767.6816810338181
 20
703.9967651186497
 42
1.0
  0
LWPOLYLINE
  5
2438
330
18
100
AcDbEntity
  8
V35
100
AcDbPolyline
 90
        2
 70
     1
 43
2.9
 10
787.9214478811263
 20
683.1967778880779
 42
1.0
 10
791.0214478811263
 20
683.1967778880779
 42
1.0
  0
LINE
  5
246D
330
18
100
AcDbEntity
  8
V5
100
AcDbLine
 10
585.901831002166
 20
649.9618469955374
 30
0.0
 11
556.0791873408843
 21
679.8739448066397
 31
0.0
  0
LINE
  5
246E
330
18
100
AcDbEntity
  8
V5
100
AcDbLine
 10
577.096760585121
 20
684.4409684582319
 30
0.0
 11
559.0614875640645
 21
681.2608632201765
 31
0.0
  0
ARC
  5
246F
330
18
100
AcDbEntity
  8
V5
100
AcDbCircle
 10
558.7292980397915
 20
685.5494565556636
 30
0.0
 40
4.301439605204218
100
AcDbArc
 50
199.8118989237243
 51
274.4292212818436
  0
LINE
  5
2474
330
18
100
AcDbEntity
  8
V5
100
AcDbLine
 10
450.4549116173842
 20
685.8810130264284
 30
0.0
 11
474.3990311565147
 21
681.6590187223714
 31
0.0
  0
ARC
  5
2475
330
18
100
AcDbEntity
  8
V5
100
AcDbCircle
 10
473.373898486406
 20
683.945706258059
 30
0.0
 40
5.436441765014149
100
AcDbArc
 50
317.4885756023422
 51
7.212473535850183
  0
ARC
  5
2476
330
18
100
AcDbEntity
  8
V5
100
AcDbCircle
 10
474.7312206807877
 20
685.9476120578584
 30
0.0
 40
4.301439605204218
100
AcDbArc
 50
265.5707787181564
 51
340.1881010762757
  0
LINE
  5
2477
330
18
100
AcDbEntity
  8
V5
100
AcDbLine
 10
447.5586877184132
 20
650.3600024977323
 30
0.0
 11
477.3813313796948
 21
680.2721003088346
 31
0.0
  0
LINE
  5
2478
330
18
100
AcDbEntity
  8
V5
100
AcDbLine
 10
445.6668332242545
 20
658.7264710845683
 30
0.0
 11
450.4549116173842
 21
685.8810130264284
 31
0.0
  0
LINE
  5
247A
330
18
100
AcDbEntity
  8
V7
100
AcDbLine
 10
92.11931322095541
 20
616.2444661408061
 30
0.0
 11
439.9062036088885
 21
646.991477253044
 31
0.0
  0
ARC
  5
247B
330
18
100
AcDbEntity
  8
V7
100
AcDbCircle
 10
438.7731789531689
 20
659.9420083282368
 30
0.0
 40
13.00000000000008
100
AcDbArc
 50
275.0
 51
349.9999999999994
  0
LINE
  5
247C
330
18
100
AcDbEntity
  8
V7
100
AcDbLine
 10
451.5756797423277
 20
657.6845820185666
 30
0.0
 11
456.3637581354572
 21
684.839123960427
 31
0.0
  0
LINE
  5
27D6
330
18
100
AcDbEntity
  8
TXT-E
  6
VERDECKTX2
 48
5.0
100
AcDbLine
 10
551.6745465679205
 20
867.5166229653465
 30
0.0
 11
606.1117496453651
 21
867.5166229653463
 31
0.0
  0
LINE
  5
27D7
330
18
100
AcDbEntity
  8
TXT-E
  6
VERDECKTX2
 48
5.0
100
AcDbLine
 10
551.6745465679206
 20
903.8970864271512
 30
0.0
 11
629.7734920733664
 21
903.897086427151
 31
0.0
  0
LINE
  5
27DB
330
18
100
AcDbEntity
  8
TXT-E
  6
VERDECKTX2
 48
5.0
100
AcDbLine
 10
570.5062438966128
 20
830.9170285098128
 30
0.0
 11
538.0266961953111
 21
830.9170285098128
 31
0.0
  0
ARC
  5
27EF
330
18
100
AcDbEntity
  8
V25
  6
Continuous
100
AcDbCircle
 10
516.747680041836
 20
-496.7005579025241
 30
0.0
 40
1000.0
100
AcDbArc
 50
85.00000000000003
 51
95.0
  0
ARC
  5
27F0
330
18
100
AcDbEntity
  8
V25
  6
Continuous
100
AcDbCircle
 10
516.7476764066702
 20
-492.6852785523506
 30
0.0
 40
1000.0
100
AcDbArc
 50
85.0
 51
95.0
  0
LINE
  5
3E71
330
18
100
AcDbEntity
  8
0
 62
     3
100
AcDbLine
 10
614.6080185821779
 20
503.8358854060523
 30
0.0
 11
626.9708779473176
 21
645.1440145612775
 31
0.0
  0
LINE
  5
3E72
330
18
100
AcDbEntity
  8
KLIPP
  6
VERDECKT
 62
     6
 48
2.5
100
AcDbLine
 10
627.3327570233363
 20
649.2803113274475
 30
0.0
 11
707.0283328706759
 21
642.3078519076351
 31
0.0
  0
LINE
  5
3E73
330
18
100
AcDbEntity
  8
KLIPP
  6
VERDECKT
 62
     6
 48
2.5
100
AcDbLine
 10
626.9708779473176
 20
645.1440145612776
 30
0.0
 11
632.1263228744578
 21
704.0710197224931
 31
0.0
  0
LINE
  5
3E74
330
18
100
AcDbEntity
  8
KLIPP
  6
VERDECKT
 62
     6
 48
2.5
100
AcDbLine
 10
631.1676097042331
 20
693.1128780434838
 30
0.0
 11
710.8631855515727
 21
686.140418623671
 31
0.0
  0
LINE
  5
3E75
330
18
100
AcDbEntity
  8
KLIPP
  6
VERDECKT
 62
     6
 48
2.5
100
AcDbLine
 10
632.1263228744578
 20
704.0710197224931
 30
0.0
 11
711.8218987217974
 21
697.0985603026803
 31
0.0
  0
CIRCLE
  5
3E76
330
18
100
AcDbEntity
  8
V25
100
AcDbCircle
 10
669.8515254802759
 20
666.5424661996885
 30
0.0
 40
4.999999999999993
  0
LWPOLYLINE
  5
3E77
330
18
100
AcDbEntity
  8
V25
100
AcDbPolyline
 90
        2
 70
     0
 43
0.0
 10
660.1262434602335
 20
667.5927760089464
 10
679.5768075003183
 20
665.4921563904308
  0
CIRCLE
  5
3E78
330
18
100
AcDbEntity
  8
V5
100
AcDbCircle
 10
669.8515254802759
 20
666.5424661996884
 30
0.0
 40
8.0
  0
LWPOLYLINE
  5
3E79
330
18
100
AcDbEntity
  8
V5
100
AcDbPolyline
 90
        6
 70
     1
 43
0.0
 10
664.5704710791965
 20
664.2092714486717
 10
669.2316042060938
 20
660.8023415540777
 10
674.5126586071728
 20
663.1355363050952
 10
675.1325798813554
 20
668.8756609507058
 10
670.4714467544586
 20
672.2825908452997
 10
665.1903923533791
 20
669.9493960942825
  0
LINE
  5
3E7A
330
18
100
AcDbEntity
  8
V25
100
AcDbLine
 10
670.9018352895336
 20
676.2677482197311
 30
0.0
 11
668.8012156710183
 21
656.8171841796463
 31
0.0
  0
LINE
  5
3E7B
330
18
100
AcDbEntity
  8
KLIPP
  6
VERDECKT
 62
     6
 48
2.5
100
AcDbLine
 10
706.6664537946572
 20
638.1715551414648
 30
0.0
 11
711.8218987217974
 21
697.0985603026803
 31
0.0
  0
LINE
  5
3E7C
330
18
100
AcDbEntity
  8
0
 62
     3
100
AcDbLine
 10
694.3035944295175
 20
496.8634259862394
 30
0.0
 11
706.6664537946572
 21
638.1715551414647
 31
0.0
  0
LINE
  5
3E7D
330
18
100
AcDbEntity
  8
0
 62
     6
100
AcDbLine
 10
646.4487673932462
 20
512.092199059884
 30
0.0
 11
657.8529135881617
 21
642.4421865361002
 31
0.0
  0
LINE
  5
3E7E
330
18
100
AcDbEntity
  8
0
 62
     6
100
AcDbLine
 10
643.460183298971
 20
512.353666288127
 30
0.0
 11
654.8643294938861
 21
642.7036537643431
 31
0.0
  0
LINE
  5
3E7F
330
18
100
AcDbEntity
  8
0
 62
     6
100
AcDbLine
 10
667.3688560531727
 20
510.2619284621831
 30
0.0
 11
678.7730022480882
 21
640.6119159383993
 31
0.0
  0
LINE
  5
3E80
330
18
100
AcDbEntity
  8
0
 62
     6
100
AcDbLine
 10
664.3802719588975
 20
510.5233956904261
 30
0.0
 11
675.784418153813
 21
640.8733831666422
 31
0.0
  0
LINE
  5
3E81
330
18
100
AcDbEntity
  8
0
 62
     6
100
AcDbLine
 10
617.1355351218599
 20
532.7255316507129
 30
0.0
 11
645.0289866684288
 21
530.2851708537783
 31
0.0
  0
LINE
  5
3E82
330
18
100
AcDbEntity
  8
0
 62
     3
100
AcDbLine
 10
615.5667317524021
 20
514.7940270850614
 30
0.0
 11
695.2623075997417
 21
507.8215676652487
 31
0.0
  0
LINE
  5
3E83
330
18
100
AcDbEntity
  8
0
 62
     3
100
AcDbLine
 10
614.6080185821779
 20
503.8358854060523
 30
0.0
 11
694.3035944295175
 21
496.8634259862394
 31
0.0
  0
LINE
  5
3E84
330
18
100
AcDbEntity
  8
0
 62
     4
100
AcDbLine
 10
626.6981097776797
 20
521.5523106809797
 30
0.0
 11
622.6664722853429
 21
475.4704832777941
 31
0.0
  0
LINE
  5
3E85
330
18
100
AcDbEntity
  8
0
 62
     4
100
AcDbLine
 10
685.4735969650928
 20
516.4101218588678
 30
0.0
 11
681.4419594727556
 21
470.3282944556823
 31
0.0
  0
LINE
  5
3E86
330
18
100
AcDbEntity
  8
0
 62
     6
100
AcDbLine
 10
668.937659422631
 20
528.1934330278345
 30
0.0
 11
696.8311109691999
 21
525.7530722309001
 31
0.0
  0
LINE
  5
3E87
330
18
100
AcDbEntity
  8
0
 62
     6
100
AcDbLine
 10
648.017570762704
 20
530.0237036255354
 30
0.0
 11
665.9490753283558
 21
528.4549002560776
 31
0.0
  0
LINE
  5
3E88
330
18
100
AcDbEntity
  8
KLIPP
  6
VERDECKT
 62
     6
 48
2.5
100
AcDbLine
 10
657.8529135881617
 20
642.4421865361002
 30
0.0
 11
658.2147926641805
 21
646.5784833022701
 31
0.0
  0
LINE
  5
3E89
330
18
100
AcDbEntity
  8
KLIPP
  6
VERDECKT
 62
     6
 48
2.5
100
AcDbLine
 10
654.8643294938861
 20
642.7036537643431
 30
0.0
 11
655.2262085699053
 21
646.839950530513
 31
0.0
  0
LINE
  5
3E8A
330
18
100
AcDbEntity
  8
KLIPP
  6
VERDECKT
 62
     6
 48
2.5
100
AcDbLine
 10
675.784418153813
 20
640.8733831666422
 30
0.0
 11
676.1462972298318
 21
645.0096799328122
 31
0.0
  0
LINE
  5
3E8B
330
18
100
AcDbEntity
  8
KLIPP
  6
VERDECKT
 62
     6
 48
2.5
100
AcDbLine
 10
678.7730022480882
 20
640.6119159383993
 30
0.0
 11
679.134881324107
 21
644.7482127045693
 31
0.0
  0
LINE
  5
3E8D
330
18
100
AcDbEntity
  8
V25
100
AcDbLine
 10
695.6336966516178
 20
499.2046340635256
 30
0.0
 11
888.2609416304681
 21
482.3519338416474
 31
0.0
  0
LINE
  5
3E8F
330
18
100
AcDbEntity
  8
V25
100
AcDbLine
 10
899.954408892683
 20
616.0088762494243
 30
0.0
 11
707.3271639138347
 21
632.8615764713021
 31
0.0
  0
LINE
  5
3E90
330
18
100
AcDbEntity
  8
V25
100
AcDbLine
 10
707.3271639138344
 20
632.8615764713023
 30
0.0
 11
695.6336966516178
 21
499.2046340635256
 31
0.0
  0
LINE
  5
3E92
330
18
100
AcDbEntity
  8
V25
100
AcDbLine
 10
337.8616561617258
 20
499.2046340635237
 30
0.0
 11
145.2344111828805
 21
482.3519338416437
 31
0.0
  0
LINE
  5
3E93
330
18
100
AcDbEntity
  8
V25
100
AcDbLine
 10
145.2344111828805
 20
482.3519338416437
 30
0.0
 11
133.4624662050199
 21
616.9058806437715
 31
0.0
  0
LINE
  5
3E94
330
18
100
AcDbEntity
  8
V25
100
AcDbLine
 10
133.4624662050199
 20
616.9058806437715
 30
0.0
 11
326.0897111838692
 21
633.7585808656513
 31
0.0
  0
LINE
  5
3E95
330
18
100
AcDbEntity
  8
V25
100
AcDbLine
 10
326.0897111838692
 20
633.7585808656513
 30
0.0
 11
337.8616561617258
 21
499.2046340635237
 31
0.0
  0
LINE
  5
3E96
330
18
100
AcDbEntity
  8
V5
100
AcDbLine
 10
386.8528426680168
 20
648.106079675465
 30
0.0
 11
398.3456512942335
 21
523.542557199207
 31
0.0
  0
LWPOLYLINE
  5
3E97
330
18
100
AcDbEntity
  8
V5
100
AcDbPolyline
 90
        2
 70
     0
 43
15.0
 10
338.916492719537
 20
505.7928683426418
 10
402.1748560483628
 20
511.3272580071181
  0
LINE
  5
3E98
330
18
100
AcDbEntity
  8
V5
100
AcDbLine
 10
341.0023600686818
 20
513.5040068708865
 30
0.0
 11
398.7816525580033
 21
518.5590399502505
 31
0.0
  0
LINE
  5
3E99
330
18
100
AcDbEntity
  8
V5
100
AcDbLine
 10
340.566581354944
 20
518.4849803613449
 30
0.0
 11
398.345873844265
 21
523.5400134407089
 31
0.0
  0
LWPOLYLINE
  5
3E9A
330
18
100
AcDbEntity
  8
V5
100
AcDbPolyline
 90
        2
 70
     0
 43
2.75
 10
399.7592194255148
 20
523.1617552379409
 10
400.1514202678795
 20
518.6788790965281
  0
LINE
  5
3E9B
330
18
100
AcDbEntity
  8
V5
100
AcDbLine
 10
398.7816525580033
 20
518.5590399502505
 30
0.0
 11
398.345873844265
 21
523.5400134407089
 31
0.0
  0
LINE
  5
3E9C
330
18
100
AcDbEntity
  8
V25
 62
     4
100
AcDbLine
 10
354.3576734815151
 20
477.1320900779139
 30
0.0
 11
350.1500087967188
 21
526.2760835550023
 31
0.0
  0
LINE
  5
3E9D
330
18
100
AcDbEntity
  8
V25
 62
     4
100
AcDbLine
 10
392.0254024750743
 20
480.6074838895977
 30
0.0
 11
387.8363637326629
 21
529.5339331326183
 31
0.0
  0
LINE
  5
3E9E
330
18
100
AcDbEntity
  8
V5
100
AcDbLine
 10
329.0884677190689
 20
642.889435574416
 30
0.0
 11
340.566581354944
 21
518.4849803613449
 31
0.0
  0
LINE
  5
3E9F
330
18
100
AcDbEntity
  8
KLIPP
  6
VERDECKT
 62
     6
 48
3.0
100
AcDbLine
 10
323.9480839927023
 20
698.4724283300814
 30
0.0
 11
328.4677351157455
 21
646.8125796034628
 31
0.0
  0
LINE
  5
3EA0
330
18
100
AcDbEntity
  8
KLIPP
  6
VERDECKT
 62
     6
 48
3.0
100
AcDbLine
 10
324.9067971629265
 20
687.5142866510722
 30
0.0
 11
382.686089652248
 21
692.5693197304362
 31
0.0
  0
CIRCLE
  5
3EA1
330
18
100
AcDbEntity
  8
V35
100
AcDbCircle
 10
353.3170868224752
 20
695.520874030259
 30
0.0
 40
2.18828027091803
  0
LINE
  5
3EA2
330
18
100
AcDbEntity
  8
KLIPP
  6
VERDECKT
 62
     6
 48
3.0
100
AcDbLine
 10
323.9480839927023
 20
698.4724283300814
 30
0.0
 11
381.7273764820238
 21
703.5274614094454
 31
0.0
  0
LINE
  5
3EA3
330
18
100
AcDbEntity
  8
KLIPP
  6
VERDECKT
 62
     6
 48
2.5
100
AcDbLine
 10
381.7273764820238
 20
703.5274614094454
 30
0.0
 11
386.3414740992888
 21
650.7880843140558
 31
0.0
  0
LINE
  5
3EA8
330
18
100
AcDbEntity
  8
ISO
100
AcDbLine
 10
139.8454100401385
 20
612.7907337159006
 30
0.0
 11
150.950108217113
 21
485.8634527466761
 31
0.0
  0
LINE
  5
3EA9
330
18
100
AcDbEntity
  8
ISO
100
AcDbLine
 10
145.8225782286846
 20
613.3136681723861
 30
0.0
 11
156.9272764056591
 21
486.3863872031616
 31
0.0
  0
LINE
  5
3EAA
330
18
100
AcDbEntity
  8
ISO
100
AcDbLine
 10
151.799742551747
 20
613.8366022906858
 30
0.0
 11
162.9044407287215
 21
486.9093213214613
 31
0.0
  0
LINE
  5
3EAB
330
18
100
AcDbEntity
  8
ISO
100
AcDbLine
 10
157.7769107402931
 20
614.3595367471714
 30
0.0
 11
168.8816089172676
 21
487.4322557779469
 31
0.0
  0
LINE
  5
3EAC
330
18
100
AcDbEntity
  8
ISO
100
AcDbLine
 10
163.7540750633555
 20
614.8824708654708
 30
0.0
 11
174.85877324033
 21
487.9551898962463
 31
0.0
  0
LINE
  5
3EAD
330
18
100
AcDbEntity
  8
ISO
100
AcDbLine
 10
169.7312432519017
 20
615.4054053219564
 30
0.0
 11
180.8359414288762
 21
488.4781243527319
 31
0.0
  0
LINE
  5
3EAE
330
18
100
AcDbEntity
  8
ISO
100
AcDbLine
 10
175.7088894103864
 20
615.9228892830808
 30
0.0
 11
186.8135875873609
 21
488.9956083138563
 31
0.0
  0
LINE
  5
3EAF
330
18
100
AcDbEntity
  8
ISO
100
AcDbLine
 10
181.6870212691541
 20
616.4349234322659
 30
0.0
 11
192.7917194461286
 21
489.5076424630413
 31
0.0
  0
LINE
  5
3EB0
330
18
100
AcDbEntity
  8
ISO
100
AcDbLine
 10
187.6637037571057
 20
616.9633077042158
 30
0.0
 11
198.7684019340802
 21
490.0360267349912
 31
0.0
  0
LINE
  5
3EB1
330
18
100
AcDbEntity
  8
ISO
100
AcDbLine
 10
193.6403901102295
 20
617.4916923178764
 30
0.0
 11
204.745088287204
 21
490.5644113486519
 31
0.0
  0
LINE
  5
3EB2
330
18
100
AcDbEntity
  8
ISO
100
AcDbLine
 10
199.6170725981811
 20
618.0200765898264
 30
0.0
 11
210.7217707751556
 21
491.0927956206019
 31
0.0
  0
LINE
  5
3EB3
330
18
100
AcDbEntity
  8
ISO
100
AcDbLine
 10
205.5942407867273
 20
618.543011046312
 30
0.0
 11
216.6989389637017
 21
491.6157300770874
 31
0.0
  0
LINE
  5
3EB4
330
18
100
AcDbEntity
  8
ISO
100
AcDbLine
 10
211.5714051097897
 20
619.0659451646117
 30
0.0
 11
222.6761032867642
 21
492.1386641953871
 31
0.0
  0
LINE
  5
3EB5
330
18
100
AcDbEntity
  8
ISO
100
AcDbLine
 10
217.5485732983359
 20
619.5888796210971
 30
0.0
 11
228.6532714753103
 21
492.6615986518726
 31
0.0
  0
LINE
  5
3EB6
330
18
100
AcDbEntity
  8
ISO
100
AcDbLine
 10
223.5257376213982
 20
620.1118137393968
 30
0.0
 11
234.6304357983727
 21
493.1845327701722
 31
0.0
  0
LINE
  5
3EB7
330
18
100
AcDbEntity
  8
ISO
100
AcDbLine
 10
229.5029058099444
 20
620.6347481958822
 30
0.0
 11
240.6076039869188
 21
493.7074672266577
 31
0.0
  0
LINE
  5
3EB8
330
18
100
AcDbEntity
  8
ISO
100
AcDbLine
 10
235.4800701330067
 20
621.1576823141817
 30
0.0
 11
246.5847683099812
 21
494.2304013449573
 31
0.0
  0
LINE
  5
3EB9
330
18
100
AcDbEntity
  8
ISO
100
AcDbLine
 10
241.4572383215529
 20
621.6806167706672
 30
0.0
 11
252.5619364985274
 21
494.7533358014427
 31
0.0
  0
LINE
  5
3EBA
330
18
100
AcDbEntity
  8
ISO
100
AcDbLine
 10
247.4348844800377
 20
622.1981007317919
 30
0.0
 11
258.5395826570121
 21
495.2708197625674
 31
0.0
  0
LINE
  5
3EBB
330
18
100
AcDbEntity
  8
ISO
100
AcDbLine
 10
253.4115708331614
 20
622.7264853454526
 30
0.0
 11
264.5162690101359
 21
495.799204376228
 31
0.0
  0
LINE
  5
3EBC
330
18
100
AcDbEntity
  8
ISO
100
AcDbLine
 10
259.3887351562238
 20
623.249419463752
 30
0.0
 11
270.4934333331983
 21
496.3221384945275
 31
0.0
  0
LINE
  5
3EBD
330
18
100
AcDbEntity
  8
ISO
100
AcDbLine
 10
265.3663851798807
 20
623.7669037665872
 30
0.0
 11
276.4710833568551
 21
496.8396227973626
 31
0.0
  0
LINE
  5
3EBE
330
18
100
AcDbEntity
  8
ISO
100
AcDbLine
 10
271.3430676678322
 20
624.2952880385371
 30
0.0
 11
282.4477658448067
 21
497.3680070693126
 31
0.0
  0
LINE
  5
3EBF
330
18
100
AcDbEntity
  8
ISO
100
AcDbLine
 10
277.3202358563784
 20
624.8182224950228
 30
0.0
 11
288.4249340333529
 21
497.8909415257983
 31
0.0
  0
LINE
  5
3EC0
330
18
100
AcDbEntity
  8
ISO
100
AcDbLine
 10
283.2974001794408
 20
625.3411566133222
 30
0.0
 11
294.4020983564153
 21
498.4138756440977
 31
0.0
  0
LINE
  5
3EC1
330
18
100
AcDbEntity
  8
ISO
100
AcDbLine
 10
289.2745683679869
 20
625.8640910698078
 30
0.0
 11
300.3792665449614
 21
498.9368101005833
 31
0.0
  0
LINE
  5
3EC2
330
18
100
AcDbEntity
  8
ISO
100
AcDbLine
 10
295.3341654651906
 20
625.4546081125083
 30
0.0
 11
306.4388636421651
 21
498.5273271432838
 31
0.0
  0
LINE
  5
3EC3
330
18
100
AcDbEntity
  8
ISO
100
AcDbLine
 10
301.3100065145621
 20
625.9829179948765
 30
0.0
 11
312.4147046915366
 21
499.055637025652
 31
0.0
  0
LINE
  5
3EC4
330
18
100
AcDbEntity
  8
ISO
100
AcDbLine
 10
307.2871708376245
 20
626.5058521131759
 30
0.0
 11
318.391869014599
 21
499.5785711439514
 31
0.0
  0
LINE
  5
3EC5
330
18
100
AcDbEntity
  8
ISO
100
AcDbLine
 10
313.2643390261707
 20
627.0287865696616
 30
0.0
 11
324.3690372031451
 21
500.1015056004371
 31
0.0
  0
LINE
  5
3EC6
330
18
100
AcDbEntity
  8
ISO
100
AcDbLine
 10
319.1603977142664
 20
628.4787623376776
 30
0.0
 11
330.2650958912409
 21
501.551481368453
 31
0.0
  0
LINE
  5
3EC7
330
18
100
AcDbEntity
  8
ISO
100
AcDbLine
 10
325.1375659028125
 20
629.0016967941632
 30
0.0
 11
336.242264079787
 21
502.0744158249386
 31
0.0
  0
LINE
  5
3EC8
330
18
100
AcDbEntity
  8
_INSULATION
  6
VERDECKTX2
 48
5.0
100
AcDbLine
 10
130.3235405090164
 20
492.0509520650487
 30
0.0
 11
108.6137813624102
 21
602.5100756430759
 31
0.0
  0
LINE
  5
3EC9
330
18
100
AcDbEntity
  8
_INSULATION
  6
VERDECKTX2
 48
5.0
100
AcDbLine
 10
108.6137813624102
 20
602.5100756430759
 30
0.0
 11
106.4148677548149
 21
489.9592142391043
 31
0.0
  0
LINE
  5
3ECC
330
18
100
AcDbEntity
  8
_INSULATION
  6
VERDECKTX2
 48
5.0
100
AcDbLine
 10
130.3235405090162
 20
492.0509520650487
 30
0.0
 11
132.5224541166115
 21
604.6018134690204
 31
0.0
  0
LINE
  5
3ECF
330
18
100
AcDbEntity
  8
_INSULATION
  6
VERDECKTX2
 48
5.0
100
AcDbLine
 10
393.0746553647531
 20
627.6469235589192
 30
0.0
 11
414.7844142981198
 21
517.187802418232
 31
0.0
  0
LINE
  5
3ED0
330
18
100
AcDbEntity
  8
_INSULATION
  6
VERDECKTX2
 48
5.0
100
AcDbLine
 10
414.7844142981198
 20
517.187802418232
 30
0.0
 11
416.9833281189548
 21
629.7386613848628
 31
0.0
  0
LINE
  5
3ED1
330
18
100
AcDbEntity
  8
_INSULATION
  6
VERDECKTX2
 48
5.0
100
AcDbLine
 10
416.9833281189548
 20
629.7386613848628
 30
0.0
 11
438.6930870523217
 21
519.2795402441758
 31
0.0
  0
LINE
  5
3ED2
330
18
100
AcDbEntity
  8
_INSULATION
  6
VERDECKTX2
 48
5.0
100
AcDbLine
 10
438.6930870523217
 20
519.2795402441758
 30
0.0
 11
440.8920008731564
 21
631.8303992108068
 31
0.0
  0
LINE
  5
3ED3
330
18
100
AcDbEntity
  8
_INSULATION
  6
VERDECKTX2
 48
5.0
100
AcDbLine
 10
440.8920008731564
 20
631.8303992108068
 30
0.0
 11
462.6017598065234
 21
521.3712780701196
 31
0.0
  0
LINE
  5
3ED4
330
18
100
AcDbEntity
  8
_INSULATION
  6
VERDECKTX2
 48
5.0
100
AcDbLine
 10
462.6017598065234
 20
521.3712780701196
 30
0.0
 11
464.8006736273582
 21
633.9221370367503
 31
0.0
  0
LINE
  5
3ED5
330
18
100
AcDbEntity
  8
_INSULATION
  6
VERDECKTX2
 48
5.0
100
AcDbLine
 10
464.8006736273582
 20
633.9221370367503
 30
0.0
 11
486.5104325607249
 21
523.4630158960633
 31
0.0
  0
LINE
  5
3ED6
330
18
100
AcDbEntity
  8
_INSULATION
  6
VERDECKTX2
 48
5.0
100
AcDbLine
 10
486.5104325607249
 20
523.4630158960633
 30
0.0
 11
488.7093463815595
 21
636.0138748626941
 31
0.0
  0
LINE
  5
3ED7
330
18
100
AcDbEntity
  8
_INSULATION
  6
VERDECKTX2
 48
5.0
100
AcDbLine
 10
488.7093463815595
 20
636.0138748626941
 30
0.0
 11
510.4191053149265
 21
525.5547537220071
 31
0.0
  0
LINE
  5
3ED8
330
18
100
AcDbEntity
  8
_INSULATION
  6
VERDECKTX2
 48
5.0
100
AcDbLine
 10
510.4191053149265
 20
525.5547537220071
 30
0.0
 11
512.6180191357616
 21
638.1056126886379
 31
0.0
  0
LINE
  5
3EDE
330
18
100
AcDbEntity
  8
_INSULATION
  6
VERDECKTX2
 48
5.0
100
AcDbLine
 10
523.0762474984161
 20
525.5547537220071
 30
0.0
 11
520.7212606647808
 21
636.3216899892734
 31
0.0
  0
LINE
  5
3EDF
330
18
100
AcDbEntity
  8
_INSULATION
  6
VERDECKTX2
 48
5.0
100
AcDbLine
 10
523.0762474984163
 20
525.5547537220072
 30
0.0
 11
544.6299334189827
 21
634.2299521633299
 31
0.0
  0
LINE
  5
3EE0
330
18
100
AcDbEntity
  8
_INSULATION
  6
VERDECKTX2
 48
5.0
100
AcDbLine
 10
544.6299334189827
 20
634.2299521633299
 30
0.0
 11
546.9849202526179
 21
523.4630158960632
 31
0.0
  0
LINE
  5
3EE1
330
18
100
AcDbEntity
  8
_INSULATION
  6
VERDECKTX2
 48
5.0
100
AcDbLine
 10
546.9849202526179
 20
523.4630158960632
 30
0.0
 11
568.5386061731841
 21
632.1382143373861
 31
0.0
  0
LINE
  5
3EE2
330
18
100
AcDbEntity
  8
_INSULATION
  6
VERDECKTX2
 48
5.0
100
AcDbLine
 10
568.5386061731841
 20
632.1382143373861
 30
0.0
 11
570.8935930068196
 21
521.3712780701195
 31
0.0
  0
LINE
  5
3EE3
330
18
100
AcDbEntity
  8
_INSULATION
  6
VERDECKTX2
 48
5.0
100
AcDbLine
 10
570.8935930068196
 20
521.3712780701195
 30
0.0
 11
592.4472789273858
 21
630.0464765114424
 31
0.0
  0
LINE
  5
3EE4
330
18
100
AcDbEntity
  8
_INSULATION
  6
VERDECKTX2
 48
5.0
100
AcDbLine
 10
592.4472789273858
 20
630.0464765114424
 30
0.0
 11
594.8022657610212
 21
519.2795402441758
 31
0.0
  0
LINE
  5
3EE5
330
18
100
AcDbEntity
  8
_INSULATION
  6
VERDECKTX2
 48
5.0
100
AcDbLine
 10
594.8022657610212
 20
519.2795402441758
 30
0.0
 11
616.355951681588
 21
627.9547386854988
 31
0.0
  0
LINE
  5
3EE6
330
18
100
AcDbEntity
  8
_INSULATION
  6
VERDECKTX2
 48
5.0
100
AcDbLine
 10
616.355951681588
 20
627.9547386854988
 30
0.0
 11
618.7109385152231
 21
517.1878024182322
 31
0.0
  0
LINE
  5
3EE7
330
18
100
AcDbEntity
  8
ISO
  6
VERDECKT
 48
2.5
100
AcDbLine
 10
618.7109385152231
 20
517.1878024182322
 30
0.0
 11
640.2646244357892
 21
625.8630008595546
 31
0.0
  0
LINE
  5
3EE8
330
18
100
AcDbEntity
  8
ISO
  6
VERDECKT
 48
2.5
100
AcDbLine
 10
640.2646244357892
 20
625.8630008595546
 30
0.0
 11
643.460183298971
 21
512.353666288127
 31
0.0
  0
LINE
  5
3EE9
330
18
100
AcDbEntity
  8
ISO
  6
VERDECKT
 48
2.5
100
AcDbLine
 10
643.460183298971
 20
512.353666288127
 30
0.0
 11
664.1732971899899
 21
623.7712630336111
 31
0.0
  0
LINE
  5
3EEA
330
18
100
AcDbEntity
  8
ISO
  6
VERDECKT
 48
2.5
100
AcDbLine
 10
664.1732971899899
 20
623.7712630336111
 30
0.0
 11
664.3802719588976
 21
510.5233956904262
 31
0.0
  0
LINE
  5
3EEB
330
18
100
AcDbEntity
  8
ISO
  6
VERDECKT
 48
2.5
100
AcDbLine
 10
664.3802719588976
 20
510.5233956904262
 30
0.0
 11
688.0819699441919
 21
621.6795252076714
 31
0.0
  0
LINE
  5
3EEC
330
18
100
AcDbEntity
  8
ISO
  6
VERDECKT
 48
2.5
100
AcDbLine
 10
688.0819699441919
 20
621.6795252076714
 30
0.0
 11
689.4400408584266
 21
523.68699616683
 31
0.0
  0
ARC
  5
3EEF
330
18
100
AcDbEntity
  8
_INSULATION
  6
VERDECKTX2
 48
5.0
100
AcDbCircle
 10
517.2103120122921
 20
638.7264284118671
 30
0.0
 40
9.435245375484068
100
AcDbArc
 50
40.20176743542414
 51
139.798232564577
  0
ARC
  5
3EF0
330
18
100
AcDbEntity
  8
_INSULATION
  6
VERDECKTX2
 48
5.0
100
AcDbCircle
 10
517.8413492844518
 20
519.7938629995601
 30
0.0
 40
8.452635415822856
100
AcDbArc
 50
206.5227172109469
 51
330.8146951534208
  0
LINE
  5
3EF1
330
18
100
AcDbEntity
  8
ISO
  6
VERDECKT
 48
2.5
100
AcDbLine
 10
391.8726574633192
 20
527.8704718187176
 30
0.0
 11
392.4284732817396
 21
574.0080982795515
 31
0.0
  0
LINE
  5
3EF2
330
18
100
AcDbEntity
  8
ISO
  6
VERDECKT
 48
2.5
100
AcDbLine
 10
387.6760568081587
 20
527.4994603443233
 30
0.0
 11
369.1659826105512
 21
625.5551857329753
 31
0.0
  0
LINE
  5
3EF3
330
18
100
AcDbEntity
  8
ISO
  6
VERDECKT
 48
2.5
100
AcDbLine
 10
369.1659826105512
 20
625.5551857329753
 30
0.0
 11
367.9639847091169
 21
525.7787339927737
 31
0.0
  0
LINE
  5
3EF4
330
18
100
AcDbEntity
  8
ISO
  6
VERDECKT
 48
2.5
100
AcDbLine
 10
367.9639847091169
 20
525.7787339927737
 30
0.0
 11
345.2573098563491
 21
623.4634479070356
 31
0.0
  0
LINE
  5
3EF5
330
18
100
AcDbEntity
  8
ISO
  6
VERDECKT
 48
2.5
100
AcDbLine
 10
345.2573098563491
 20
623.4634479070356
 30
0.0
 11
340.566581354944
 21
518.4849803613449
 31
0.0
  0
LINE
  5
3EF6
330
18
100
AcDbEntity
  8
_INSULATION
  6
VERDECKTX2
 48
5.0
100
AcDbLine
 10
392.5916529917229
 20
587.55345675207
 30
0.0
 11
393.074655364753
 21
627.6469235589193
 31
0.0
  0
ARC
  5
3EF7
330
18
100
AcDbEntity
  8
ISO
  6
VERDECKT
 48
2.5
100
AcDbCircle
 10
381.1203189876522
 20
626.6010546459471
 30
0.0
 40
12.0
100
AcDbArc
 50
79.06138008905135
 51
94.99999999999996
  0
LINE
  5
3EF8
330
18
100
AcDbEntity
  8
_INSULATION
  6
VERDECKTX2
 48
5.0
100
AcDbLine
 10
496.1101790803273
 20
709.5410095024583
 30
0.0
 11
490.8298856547493
 21
657.7054279986144
 31
0.0
  0
LINE
  5
3EF9
330
18
100
AcDbEntity
  8
_INSULATION
  6
VERDECKTX2
 48
5.0
100
AcDbLine
 10
490.8298856547493
 20
657.7054279986144
 30
0.0
 11
478.8316519123795
 21
709.5410095024583
 31
0.0
  0
LINE
  5
3EFA
330
18
100
AcDbEntity
  8
_INSULATION
  6
VERDECKTX2
 48
5.0
100
AcDbLine
 10
551.3047307425662
 20
709.5410095024583
 30
0.0
 11
553.5589169511889
 21
696.0158917911216
 31
0.0
  0
LINE
  5
3EFB
330
18
100
AcDbEntity
  8
_INSULATION
  6
VERDECKTX2
 48
5.0
100
AcDbLine
 10
551.3047307425663
 20
709.5410095024584
 30
0.0
 11
543.1086022587652
 21
652.6930177806832
 31
0.0
  0
LINE
  5
3EFD
330
18
100
AcDbEntity
  8
_INSULATION
  6
VERDECKTX2
 48
5.0
100
AcDbLine
 10
714.2190153713474
 20
627.1535651857683
 30
0.0
 11
703.2302569221023
 21
501.5514813684549
 31
0.0
  0
LINE
  5
3EFE
330
18
100
AcDbEntity
  8
_INSULATION
  6
VERDECKTX2
 48
5.0
100
AcDbLine
 10
720.1961796944097
 20
626.6306310674689
 30
0.0
 11
709.2074212451647
 21
501.0285472501554
 31
0.0
  0
LINE
  5
3EFF
330
18
100
AcDbEntity
  8
_INSULATION
  6
VERDECKTX2
 48
5.0
100
AcDbLine
 10
726.1733478829559
 20
626.1076966109833
 30
0.0
 11
715.1845894337109
 21
500.5056127936699
 31
0.0
  0
LINE
  5
3F00
330
18
100
AcDbEntity
  8
_INSULATION
  6
VERDECKTX2
 48
5.0
100
AcDbLine
 10
732.1505122060183
 20
625.5847624926839
 30
0.0
 11
721.1617537567733
 21
499.9826786753705
 31
0.0
  0
LINE
  5
3F01
330
18
100
AcDbEntity
  8
_INSULATION
  6
VERDECKTX2
 48
5.0
100
AcDbLine
 10
738.1276803945645
 20
625.0618280361983
 30
0.0
 11
727.1389219453196
 21
499.4597442188848
 31
0.0
  0
LINE
  5
3F02
330
18
100
AcDbEntity
  8
_INSULATION
  6
VERDECKTX2
 48
5.0
100
AcDbLine
 10
744.1048447176268
 20
624.5388939178988
 30
0.0
 11
733.1160862683819
 21
498.9368101005855
 31
0.0
  0
LINE
  5
3F03
330
18
100
AcDbEntity
  8
_INSULATION
  6
VERDECKTX2
 48
5.0
100
AcDbLine
 10
750.0820129061731
 20
624.0159594614133
 30
0.0
 11
739.0932544569281
 21
498.4138756440999
 31
0.0
  0
LINE
  5
3F04
330
18
100
AcDbEntity
  8
_INSULATION
  6
VERDECKTX2
 48
5.0
100
AcDbLine
 10
756.0591772292354
 20
623.4930253431139
 30
0.0
 11
745.0704187799904
 21
497.8909415258004
 31
0.0
  0
LINE
  5
3F05
330
18
100
AcDbEntity
  8
_INSULATION
  6
VERDECKTX2
 48
5.0
100
AcDbLine
 10
762.0363454177816
 20
622.9700908866283
 30
0.0
 11
751.0475869685365
 21
497.3680070693148
 31
0.0
  0
LINE
  5
3F06
330
18
100
AcDbEntity
  8
_INSULATION
  6
VERDECKTX2
 48
5.0
100
AcDbLine
 10
768.0135097408439
 20
622.4471567683289
 30
0.0
 11
757.0247512915989
 21
496.8450729510155
 31
0.0
  0
LINE
  5
3F07
330
18
100
AcDbEntity
  8
_INSULATION
  6
VERDECKTX2
 48
5.0
100
AcDbLine
 10
773.9906779293901
 20
621.9242223118433
 30
0.0
 11
763.0019194801451
 21
496.3221384945298
 31
0.0
  0
LINE
  5
3F08
330
18
100
AcDbEntity
  8
_INSULATION
  6
VERDECKTX2
 48
5.0
100
AcDbLine
 10
779.9678422524525
 20
621.401288193544
 30
0.0
 11
768.9790838032076
 21
495.7992043762305
 31
0.0
  0
LINE
  5
3F09
330
18
100
AcDbEntity
  8
_INSULATION
  6
VERDECKTX2
 48
5.0
100
AcDbLine
 10
785.9450104409987
 20
620.8783537370584
 30
0.0
 11
774.9562519917536
 21
495.276269919745
 31
0.0
  0
LINE
  5
3F0A
330
18
100
AcDbEntity
  8
_INSULATION
  6
VERDECKTX2
 48
5.0
100
AcDbLine
 10
791.922174764061
 20
620.355419618759
 30
0.0
 11
780.9334163148159
 21
494.7533358014456
 31
0.0
  0
LINE
  5
3F0B
330
18
100
AcDbEntity
  8
_INSULATION
  6
VERDECKTX2
 48
5.0
100
AcDbLine
 10
797.8993429526071
 20
619.8324851622734
 30
0.0
 11
786.9105845033621
 21
494.2304013449599
 31
0.0
  0
LINE
  5
3F0C
330
18
100
AcDbEntity
  8
_INSULATION
  6
VERDECKTX2
 48
5.0
100
AcDbLine
 10
803.8765072756694
 20
619.3095510439739
 30
0.0
 11
792.8877488264244
 21
493.7074672266605
 31
0.0
  0
LINE
  5
3F0D
330
18
100
AcDbEntity
  8
_INSULATION
  6
VERDECKTX2
 48
5.0
100
AcDbLine
 10
809.8536754642157
 20
618.7866165874884
 30
0.0
 11
798.8649170149707
 21
493.184532770175
 31
0.0
  0
LINE
  5
3F0E
330
18
100
AcDbEntity
  8
_INSULATION
  6
VERDECKTX2
 48
5.0
100
AcDbLine
 10
821.8080079758243
 20
617.7407480127034
 30
0.0
 11
810.8192495265793
 21
492.1386641953899
 31
0.0
  0
LINE
  5
3F0F
330
18
100
AcDbEntity
  8
_INSULATION
  6
VERDECKTX2
 48
5.0
100
AcDbLine
 10
815.8308397872779
 20
618.263682469189
 30
0.0
 11
804.842081338033
 21
492.6615986518755
 31
0.0
  0
LINE
  5
3F10
330
18
100
AcDbEntity
  8
_INSULATION
  6
VERDECKTX2
 48
5.0
100
AcDbLine
 10
827.7851722988865
 20
617.2178138944039
 30
0.0
 11
816.7964138496415
 21
491.6157300770906
 31
0.0
  0
LINE
  5
3F11
330
18
100
AcDbEntity
  8
_INSULATION
  6
VERDECKTX2
 48
5.0
100
AcDbLine
 10
833.7623404874328
 20
616.6948794379184
 30
0.0
 11
822.7735820381877
 21
491.092795620605
 31
0.0
  0
LINE
  5
3F12
330
18
100
AcDbEntity
  8
_INSULATION
  6
VERDECKTX2
 48
5.0
100
AcDbLine
 10
839.739504810495
 20
616.171945319619
 30
0.0
 11
828.7507463612501
 21
490.5698615023055
 31
0.0
  0
LINE
  5
3F13
330
18
100
AcDbEntity
  8
_INSULATION
  6
VERDECKTX2
 48
5.0
100
AcDbLine
 10
845.7166729990413
 20
615.6490108631333
 30
0.0
 11
834.7279145497962
 21
490.04692704582
 31
0.0
  0
LINE
  5
3F14
330
18
100
AcDbEntity
  8
_INSULATION
  6
VERDECKTX2
 48
5.0
100
AcDbLine
 10
851.6938373221037
 20
615.1260767448339
 30
0.0
 11
840.7050788728588
 21
489.5239929275204
 31
0.0
  0
LINE
  5
3F15
330
18
100
AcDbEntity
  8
_INSULATION
  6
VERDECKTX2
 48
5.0
100
AcDbLine
 10
857.6710055106499
 20
614.6031422883482
 30
0.0
 11
846.6822470614047
 21
489.0010584710348
 31
0.0
  0
LINE
  5
3F16
330
18
100
AcDbEntity
  8
_INSULATION
  6
VERDECKTX2
 48
5.0
100
AcDbLine
 10
863.6481698337119
 20
614.0802081700488
 30
0.0
 11
852.6594113844669
 21
488.4781243527354
 31
0.0
  0
LINE
  5
3F17
330
18
100
AcDbEntity
  8
_INSULATION
  6
VERDECKTX2
 48
5.0
100
AcDbLine
 10
869.6253380222584
 20
613.5572737135633
 30
0.0
 11
858.6365795730133
 21
487.9551898962498
 31
0.0
  0
LINE
  5
3F18
330
18
100
AcDbEntity
  8
_INSULATION
  6
VERDECKTX2
 48
5.0
100
AcDbLine
 10
875.6025023453206
 20
613.0343395952638
 30
0.0
 11
864.6137438960757
 21
487.4322557779504
 31
0.0
  0
LINE
  5
3F19
330
18
100
AcDbEntity
  8
_INSULATION
  6
VERDECKTX2
 48
5.0
100
AcDbLine
 10
881.5796705338668
 20
612.5114051387782
 30
0.0
 11
870.5909120846218
 21
486.9093213214648
 31
0.0
  0
LINE
  5
3F1A
330
18
100
AcDbEntity
  8
_INSULATION
  6
VERDECKTX2
 48
5.0
100
AcDbLine
 10
887.5568348569291
 20
611.9884710204789
 30
0.0
 11
876.5680764076842
 21
486.3863872031654
 31
0.0
  0
LINE
  5
3F1B
330
18
100
AcDbEntity
  8
_INSULATION
  6
VERDECKTX2
 48
5.0
100
AcDbLine
 10
893.5340030454753
 20
611.4655365639933
 30
0.0
 11
882.5452445962303
 21
485.8634527466798
 31
0.0
  0
LINE
  5
3F1C
330
18
100
AcDbEntity
  8
_INSULATION
  6
VERDECKTX2
 48
5.0
100
AcDbLine
 10
899.954408892683
 20
616.0088762494243
 30
0.0
 11
888.2609416304681
 21
482.3519338416474
 31
0.0
  0
LINE
  5
3F1D
330
18
100
AcDbEntity
  8
ISO
100
AcDbLine
 10
941.3760395923858
 20
545.3863619500231
 30
0.0
 11
927.0804850585264
 21
489.9592142391044
 31
0.0
  0
LINE
  5
3F1E
330
18
100
AcDbEntity
  8
_INSULATION
  6
VERDECKTX2
 48
5.0
100
AcDbLine
 10
903.1718123043251
 20
492.0509520650487
 30
0.0
 11
924.8815714509312
 21
602.5100756430759
 31
0.0
  0
LINE
  5
3F1F
330
18
100
AcDbEntity
  8
_INSULATION
  6
VERDECKTX2
 48
5.0
100
AcDbLine
 10
924.8815714509312
 20
602.5100756430759
 30
0.0
 11
927.0804850585264
 21
489.9592142391043
 31
0.0
  0
LINE
  5
3F20
330
18
100
AcDbEntity
  8
_INSULATION
  6
VERDECKTX2
 48
5.0
100
AcDbLine
 10
903.1718123043251
 20
492.0509520650487
 30
0.0
 11
900.9728986967299
 21
604.6018134690204
 31
0.0
  0
LINE
  5
3F21
330
18
100
AcDbEntity
  8
V25
100
AcDbLine
 10
888.2609416304608
 20
482.3519338416437
 30
0.0
 11
900.0328866083215
 21
616.9058806437715
 31
0.0
  0
ARC
  5
3F22
330
18
100
AcDbEntity
  8
ISO
100
AcDbCircle
 10
939.034821648867
 20
488.913347763473
 30
0.0
 40
12.0
100
AcDbArc
 50
175.0
 51
281.2506527242616
  0
ARC
  5
3F23
330
18
100
AcDbEntity
  8
ISO
100
AcDbCircle
 10
915.1261488946651
 20
491.005085589417
 30
0.0
 40
12.0
100
AcDbArc
 50
265.0000000000001
 51
355.0
  0
ARC
  5
3F24
330
18
100
AcDbEntity
  8
ISO
100
AcDbCircle
 10
891.2174761404637
 20
493.0968234153612
 30
0.0
 40
12.0
100
AcDbArc
 50
265.0000000000001
 51
355.0
  0
ARC
  5
3F25
330
18
100
AcDbEntity
  8
ISO
100
AcDbCircle
 10
915.1261488946653
 20
491.0050855894175
 30
0.0
 40
12.0
100
AcDbArc
 50
175.0
 51
264.9999999999999
  0
ARC
  5
3F28
330
18
100
AcDbEntity
  8
ISO
100
AcDbCircle
 10
912.9272350738308
 20
603.5559445560486
 30
0.0
 40
12.0
100
AcDbArc
 50
355.0
 51
85.0
  0
ARC
  5
3F29
330
18
100
AcDbEntity
  8
ISO
100
AcDbCircle
 10
936.8359078280322
 20
601.464206730104
 30
0.0
 40
12.0
100
AcDbArc
 50
85.00000000000005
 51
175.0
  0
ARC
  5
3F2A
330
18
100
AcDbEntity
  8
ISO
100
AcDbCircle
 10
912.9272350738308
 20
603.5559445560486
 30
0.0
 40
12.0
100
AcDbArc
 50
85.00000000000005
 51
175.0
  0
ARC
  5
3F2B
330
18
100
AcDbEntity
  8
ISOTRI46
100
AcDbCircle
 10
890.6613583648217
 20
613.0521973538708
 30
0.0
 40
3.0
100
AcDbArc
 50
355.0000688310785
 51
85.00002728515944
  0
ARC
  5
3F2C
330
18
100
AcDbEntity
  8
ISOTRI46
100
AcDbCircle
 10
890.6613583648217
 20
613.0521973538708
 30
0.0
 40
3.0
100
AcDbArc
 50
84.99997271484058
 51
174.9999311689215
  0
ARC
  5
3F2D
330
18
100
AcDbEntity
  8
ISO
100
AcDbCircle
 10
936.8359078280322
 20
601.464206730104
 30
0.0
 40
12.0
100
AcDbArc
 50
67.76883671539394
 51
85.0
  0
LINE
  5
3F2E
330
18
100
AcDbEntity
  8
ACHS
 62
     3
 48
4.0
100
AcDbLine
 10
941.376039592386
 20
717.1323285003373
 30
0.0
 11
941.376039592386
 21
130.19960197347
 31
0.0
  0
LINE
  5
3F33
330
18
100
AcDbEntity
  8
TXT-E
  6
VERDECKTX2
 48
5.0
100
AcDbLine
 10
681.6753253817733
 20
904.9071083463909
 30
0.0
 11
648.5808651486404
 21
904.907108346391
 31
0.0
  0
LINE
  5
3F35
330
18
100
AcDbEntity
  8
TXT-E
  6
VERDECKTX2
 48
5.0
100
AcDbLine
 10
367.7212479607424
 20
902.8439884400404
 30
0.0
 11
367.7212479607424
 21
674.7999755845188
 31
0.0
  0
LINE
  5
3F38
330
18
100
AcDbEntity
  8
TXT-E
  6
VERDECKTX2
 48
5.0
100
AcDbLine
 10
343.0493502789959
 20
902.8439884400404
 30
0.0
 11
367.7212479607424
 21
902.8439884400404
 31
0.0
  0
LWPOLYLINE
  5
3F39
330
18
100
AcDbEntity
  8
V35
100
AcDbPolyline
 90
        2
 70
     1
 43
2.9
 10
366.4084088637224
 20
675.4298039969945
 42
1.0
 10
369.5084088637222
 20
675.4298039969945
 42
1.0
  0
LINE
  5
48E4
330
18
100
AcDbEntity
  8
V5
100
AcDbLine
 10
341.0023600686823
 20
513.5040068708863
 30
0.0
 11
340.5665813549441
 21
518.4849803613448
 31
0.0
  0
LWPOLYLINE
  5
48E5
330
18
100
AcDbEntity
  8
V5
100
AcDbPolyline
 90
        2
 70
     0
 43
2.75
 10
339.240391516442
 20
517.8670438660208
 10
339.6325923588062
 20
513.3841677246079
  0
LINE
  5
4957
330
18
100
AcDbEntity
  8
TXT-E
  6
VERDECKTX2
 48
5.0
100
AcDbLine
 10
235.3704612378594
 20
827.7220209577626
 30
0.0
 11
260.0423589196059
 21
827.7220209577626
 31
0.0
  0
TEXT
  5
49F8
330
18
100
AcDbEntity
  8
TXT-D
100
AcDbText
 10
815.3403479138226
 20
797.6157471445323
 30
0.0
 40
14.0
  1
uzávěra v hřebeni
  7
ROMANS
100
AcDbText
  0
TEXT
  5
49F9
330
18
100
AcDbEntity
  8
TXT-D
100
AcDbText
 10
814.633838136322
 20
836.3452962431098
 30
0.0
 40
14.0
  1
ucpávka v hřebeni
  7
ROMANS
100
AcDbText
  0
TEXT
  5
49FA
330
18
100
AcDbEntity
  8
TXT-D
100
AcDbText
 10
207.5658224487204
 20
260.5464706613592
 30
0.0
 40
14.0
  1
tepelná izolace - tvrdá
  7
ROMANS
100
AcDbText
  0
TEXT
  5
49FB
330
18
100
AcDbEntity
  8
TXT-D
100
AcDbText
 10
701.8523322979706
 20
900.2098113818323
 30
0.0
 40
14.0
  1
pevný bod na klipse
  7
ROMANS
100
AcDbText
  0
TEXT
  5
49FC
330
18
100
AcDbEntity
  8
TXT-D
100
AcDbText
 10
208.0730043811241
 20
232.0688416251286
 30
0.0
 40
14.0
  1
parotěsná vrstva
  7
ROMANS
100
AcDbText
  0
TEXT
  5
49FD
330
18
100
AcDbEntity
  8
TXT-D
100
AcDbText
 10
702.6708724708982
 20
876.4559898224028
 30
0.0
 40
14.0
  1
poplastovaná klipsa*
  7
ROMANS
100
AcDbText
  0
TEXT
  5
49FE
330
18
100
AcDbEntity
  8
TXT-D
100
AcDbText
 10
815.5047371838096
 20
754.0460530285496
 30
0.0
 40
14.0
  1
Kalzip
  7
ROMANS
100
AcDbText
  0
TEXT
  5
49FF
330
18
100
AcDbEntity
  8
TXT-D
100
AcDbText
 10
796.1964495796921
 20
229.9162045685252
 30
0.0
 40
14.0
  1
vazník
  7
ROMANS
100
AcDbText
  0
TEXT
  5
4A01
330
18
100
AcDbEntity
  8
TXT-D
100
AcDbText
 10
789.5371258736782
 20
262.8119892053803
 30
0.0
 40
14.0
  1
trapézový plech
  7
ROMANS
100
AcDbText
  0
MTEXT
  5
4A03
102
{ACAD_XDICTIONARY
360
4B0A
102
}
330
18
100
AcDbEntity
  8
TXT-D
100
AcDbMText
 10
39.34383949062931
 20
723.5772328473981
 30
0.0
 40
14.0
 41
186.3403948323489
 71
     7
 72
     5
  1
kotven\U+00ED h\U+0159ebenov\U+00E9ho oplechov\U+00E1n\U+00ED:\Pmax. vzd\U+00E1lenost 400mm, jen do h\U+0159ebenov\U+00E9 uz\U+00E1v\U+011Bry
  7
ROMANS
 73
     1
 44
1.0
  0
TEXT
  5
4A05
330
18
100
AcDbEntity
  8
TXT-D
100
AcDbText
 10
309.155551517548
 20
291.9742669160111
 30
0.0
 40
14.0
  1
minerální vlna
  7
ROMANS
100
AcDbText
  0
TEXT
  5
4A07
330
18
100
AcDbEntity
  8
TXT-D
100
AcDbText
 10
483.7503243341404
 20
862.5798932238792
 30
0.0
 40
14.0
  1
Z profil
  7
ROMANS
100
AcDbText
  0
TEXT
  5
4A08
330
18
100
AcDbEntity
  8
TXT-D
100
AcDbText
 10
379.6347650431526
 20
824.9369986866449
 30
0.0
 40
14.0
  1
zahnutí v hřebeni
  7
ROMANS
100
AcDbText
  0
TEXT
  5
4A09
330
18
100
AcDbEntity
  8
TXT-D
100
AcDbText
 10
442.1776053332577
 20
898.251368126216
 30
0.0
 40
14.0
  1
oplechování
  7
ROMANS
100
AcDbText
  0
TEXT
  5
4A0A
330
18
100
AcDbEntity
  8
TXT-D
100
AcDbText
 10
34.98416187842849
 20
904.7162921854123
 30
0.0
 40
14.0
  1
alternativa: pevný bod na klipse
  7
ROMANS
100
AcDbText
  0
TEXT
  5
4A0B
330
18
100
AcDbEntity
  8
TXT-D
100
AcDbText
 10
35.80270205135617
 20
880.9624706259828
 30
0.0
 40
14.0
  1
hliníková klipsa s termopodložkou
  7
ROMANS
100
AcDbText
  0
MTEXT
  5
4A0C
102
{ACAD_XDICTIONARY
360
4B0C
102
}
330
18
100
AcDbEntity
  8
TXT-D
100
AcDbMText
 10
123.657659168286
 20
956.8184395993435
 30
0.0
 40
14.0
 41
231.5306
 71
     7
 72
     5
  1
typ pevn\U+00E9ho bodu stanoven\U+00FD v\U+00FDpo\U+010Dtem
  7
ROMANS
 73
     1
 44
1.0
  0
TEXT
  5
4A0D
330
18
100
AcDbEntity
  8
TXT-D
100
AcDbText
 10
442.1776053332577
 20
916.3522677011512
 30
0.0
 40
14.0
  1
hřebenové 
  7
ROMANS
100
AcDbText
  0
TEXT
  5
4A18
330
18
100
AcDbEntity
  8
TXT-D
100
AcDbText
 10
305.7175034920986
 20
311.4473383147112
 30
0.0
 40
14.0
  1
tepelná izolace
  7
ROMANS
100
AcDbText
  0
VIEWPORT
  5
27F
330
15
100
AcDbEntity
 67
     1
  8
0
100
AcDbViewport
 10
143.8301929692166
 20
144.5150642593461
 30
0.0
 40
1020.881146115705
 41
396.5275803059455
 68
     1
 69
     1
 12
143.8301929692166
 22
144.5150642593461
 13
0.0
 23
0.0
 14
10.0
 24
10.0
 15
10.0
 25
10.0
 16
0.0
 26
0.0
 36
1.0
 17
0.0
 27
0.0
 37
0.0
 42
50.0
 43
0.0
 44
0.0
 45
396.5275803059455
 50
0.0
 51
0.0
 72
   100
 90
    32800
  1

281
     0
 71
     1
 74
     0
110
0.0
120
0.0
130
0.0
111
1.0
121
0.0
131
0.0
112
0.0
122
1.0
132
0.0
 79
     0
146
0.0
170
     0
  0
VIEWPORT
  5
8F2
330
15
100
AcDbEntity
 67
     1
  8
Mansfen
100
AcDbViewport
 10
99.77973488492615
 20
145.0128446603988
 30
0.0
 40
188.6531088825485
 41
250.0286715940809
 68
     2
 69
     2
 12
508.8920670320231
 22
480.2989566433474
 13
0.0
 23
0.0
 14
10.0
 24
10.0
 15
10.0
 25
10.0
 16
0.0
 26
0.0
 36
1.0
 17
0.0
 27
0.0
 37
0.0
 42
50.0
 43
0.0
 44
0.0
 45
1250.143368810705
 50
0.0
 51
0.0
 72
 20000
 90
    32768
  1

281
     0
 71
     1
 74
     0
110
0.0
120
0.0
130
0.0
111
1.0
121
0.0
131
0.0
112
0.0
122
1.0
132
0.0
 79
     0
146
0.0
170
     0
  0
LINE
  5
1BAA
330
15
100
AcDbEntity
 67
     1
  8
V5
 62
     1
100
AcDbLine
 10
5.453180443651859
 20
270.0271804574393
 30
0.0
 11
194.1062893262004
 21
270.0271804574393
 31
0.0
  0
LINE
  5
1BAB
330
15
100
AcDbEntity
 67
     1
  8
V5
 62
     1
100
AcDbLine
 10
5.453180443651859
 20
19.99850886335838
 30
0.0
 11
194.1062893262003
 21
19.99850886335837
 31
0.0
  0
TEXT
  5
1BAC
330
15
100
AcDbEntity
 67
     1
  8
0
 62
     7
100
AcDbText
 10
5.453180443651859
 20
277.6035770440834
 30
0.0
 40
2.585627078393893
  1
Detail - vazníková střecha
  7
Stil1
100
AcDbText
  0
TEXT
  5
1BAD
330
15
100
AcDbEntity
 67
     1
  8
0
 62
     7
100
AcDbText
 10
5.453180443651859
 20
272.9884855103425
 30
0.0
 40
2.585627078393893
  1
Hřeben sedlové střechy
  7
Stil1
100
AcDbText
  0
LWPOLYLINE
  5
1BAE
102
{ACAD_REACTORS
330
1BBF
102
}
330
15
100
AcDbEntity
 67
     1
  8
0
 62
     1
100
AcDbPolyline
 90
       18
 70
     1
 43
0.0
 10
165.8498959788269
 20
8.917853844638706
 42
0.1602289575782981
 10
165.7262217371927
 20
9.450110525620907
 42
0.2678367822512051
 10
164.9256181235215
 20
9.85713097264325
 42
0.1250890829061368
 10
163.6028429777198
 20
9.501915665052923
 10
163.2192239366695
 20
10.20043258293721
 42
-0.2393084470231862
 10
165.8701899564775
 20
10.56590796047911
 42
-0.2771818233458632
 10
166.8617604177993
 20
9.033760421230649
 10
166.8617604177993
 20
6.934366845724508
 42
0.2106080285028759
 10
167.3107655027106
 20
5.949499462998659
 42
-0.655875337136226
 10
167.2043267500468
 20
5.659448002578912
 42
-0.2140955845208337
 10
166.1250239352655
 20
6.010156954368135
 42
0.3793030021024653
 10
165.8442731755183
 20
5.976492012592405
 42
-0.1547524270167758
 10
164.8904163048545
 20
5.67113216212591
 10
164.1671572280468
 20
5.67113216212591
 42
-0.3920539506815679
 10
163.0046659896501
 20
6.822742097537437
 42
-0.1827818212654531
 10
163.2964975356227
 20
8.014410129511762
 42
-0.1876748474912757
 10
164.929307613984
 20
8.835468622836064
 42
-0.0541248642832585
 10
165.7484595332385
 20
8.837891485723947
 42
0.4569276421989473
  0
LWPOLYLINE
  5
1BAF
102
{ACAD_REACTORS
330
1BBF
102
}
330
15
100
AcDbEntity
 67
     1
  8
0
 62
     1
100
AcDbPolyline
 90
       13
 70
     0
 43
0.0
 10
158.7837266630313
 20
8.952557578173756
 10
158.7837266630313
 20
12.37978702962438
 10
157.7551701315146
 20
12.37978702962438
 10
157.7551701315146
 20
5.66822216945258
 10
158.7837266630313
 20
5.66822216945258
 10
158.7837266630313
 20
7.567895694120487
 10
159.5877665299939
 20
8.639148155331465
 10
161.5349153309876
 20
5.668222169452583
 10
162.6723986552303
 20
5.668222169452576
 10
160.2202422294624
 20
9.48181924360885
 10
162.3953426072909
 20
12.37978702962438
 10
161.2459188759685
 20
12.37978702962437
 10
158.7724494307169
 20
8.936860321673631
  0
LWPOLYLINE
  5
1BB0
102
{ACAD_REACTORS
330
1BC2
102
}
330
15
100
AcDbEntity
 67
     1
  8
0
 62
     1
100
AcDbPolyline
 90
        7
 70
     1
 43
0.0
 10
181.6869480048031
 20
8.89394276078967
 42
0.1898212309735227
 10
181.1131091226112
 20
9.774510514918993
 42
0.2989352106795207
 10
179.4016440589315
 20
9.610119354937921
 10
179.4016440589315
 20
6.698227240113505
 42
0.2741033349168594
 10
180.9500583050527
 20
6.627278327533648
 42
0.0600684322456349
 10
181.3404876697107
 20
6.927109517197427
 42
0.1241286129052769
 10
181.6874562148466
 20
7.526971038624331
 42
0.0659282931228788
  0
LWPOLYLINE
  5
1BB1
102
{ACAD_REACTORS
330
1BC2
102
}
330
15
100
AcDbEntity
 67
     1
  8
0
 62
     1
100
AcDbPolyline
 90
       13
 70
     0
 43
0.0
 10
172.2855424628208
 20
6.63138228042998
 10
174.874752520894
 20
6.63138228042998
 10
174.874752520894
 20
5.668158283109946
 10
170.7189352314943
 20
5.668128097010669
 42
-0.5071802274160878
 10
170.5661790182978
 20
5.981084503609942
 10
173.2500516878635
 20
9.655419261682293
 42
0.5083225216873333
 10
173.1919581639749
 20
9.776116453705878
 10
170.6400726112162
 20
9.776116453705878
 10
170.6400726112162
 20
10.73572289424106
 10
174.8284716787123
 20
10.73572289424106
 10
174.8284716787123
 20
10.2617004846288
 10
172.2490716371305
 20
6.696384506080789
 42
0.5855768765223777
 10
172.2929511753513
 20
6.63138228042998
  0
LWPOLYLINE
  5
1BB2
102
{ACAD_REACTORS
330
1BBF
102
}
330
15
100
AcDbEntity
 67
     1
  8
0
 62
     1
100
AcDbPolyline
 90
        8
 70
     1
 43
0.0
 10
164.4766681301063
 20
6.288666855703002
 42
-0.2451258193606399
 10
163.942689722269
 20
6.690315133432115
 42
-0.1420187448230164
 10
163.9566280544174
 20
7.511433484338331
 42
-0.2899718709829171
 10
164.9530977829533
 20
8.142382375918362
 10
165.7196447101111
 20
8.142382375918362
 42
-0.3900918559591556
 10
165.9311589862134
 20
7.943560460372509
 10
165.9311589862136
 20
7.133864457644413
 42
-0.2034436104283782
 10
165.7066816381811
 20
6.635897929135783
 42
-0.2311376311759479
  0
LWPOLYLINE
  5
1BB3
102
{ACAD_REACTORS
330
1BBF
102
}
330
15
100
AcDbEntity
 67
     1
  8
0
 62
     1
100
AcDbPolyline
 90
        7
 70
     1
 43
0.0
 10
169.2169324266435
 20
12.59857632592781
 10
168.2797490882861
 20
12.5985763259278
 10
168.2797490882861
 20
6.69517379424373
 42
0.3265321329225733
 10
169.4235564636938
 20
5.668118687926797
 10
170.0986111106128
 20
5.668123591238309
 10
170.0986111106128
 20
6.405728677885793
 42
-0.4142135623730951
 10
169.2169324266435
 20
7.287407361855159
  0
LWPOLYLINE
  5
1BB4
102
{ACAD_REACTORS
330
1BC2
102
}
330
15
100
AcDbEntity
 67
     1
  8
0
 62
     1
100
AcDbPolyline
 90
        6
 70
     1
 43
0.0
 10
175.3173760288469
 20
9.798931229279393
 10
175.3173760288469
 20
10.72751458203593
 10
177.0413308259685
 20
10.72751458203593
 10
177.0413308259685
 20
5.668174020218621
 10
175.9650911584156
 20
5.668166202868761
 10
175.9650911584156
 20
9.7989312292794
  0
LWPOLYLINE
  5
1BB5
330
15
100
AcDbEntity
 67
     1
  8
0
 62
     1
100
AcDbPolyline
 90
        2
 70
     1
 43
0.5199938194713205
 10
176.2432204783507
 20
12.06044064929423
 42
1.0
 10
176.763214297822
 20
12.06044064929423
 42
1.0
  0
CIRCLE
  5
1BB6
102
{ACAD_REACTORS
330
1BC2
102
}
330
15
100
AcDbEntity
 67
     1
  8
0
 62
     1
100
AcDbCircle
 10
186.4734528725304
 20
14.442844476494
 30
0.0
 40
0.8319801013239141
  0
HATCH
  5
1BB7
330
15
100
AcDbEntity
 67
     1
  8
0
 62
     1
100
AcDbHatch
 10
0.0
 20
0.0
 30
0.0
210
0.0
220
0.0
230
1.0
  2
SOLID
 70
     1
 71
     1
 91
        2
 92
        7
 72
     1
 73
     1
 93
       16
 10
186.7090804150569
 20
14.16827572767683
 42
0.0
 10
186.7090804150569
 20
14.00425821665569
 42
0.0
 10
186.8499949526781
 20
14.00425821665569
 42
0.0
 10
186.8499949526781
 20
14.25266811139158
 42
0.0878146924641104
 10
186.7959337651774
 20
14.38493100969846
 42
0.1080222927165595
 10
186.8499949526781
 20
14.5054247174303
 42
0.0
 10
186.8499949526781
 20
14.7377553218246
 42
0.192215680109946
 10
186.7976614175699
 20
14.8296820060459
 42
0.171699417140815
 10
186.500879117452
 20
14.91143929789424
 42
0.0
 10
186.233755098193
 20
14.91143929789424
 42
0.3983152836414639
 10
186.163902902597
 20
14.84417075154184
 42
0.0
 10
186.1639029025969
 20
14.00425821665569
 42
0.0
 10
186.3232980782431
 20
14.0042582166557
 42
0.0
 10
186.3232980782431
 20
14.16478293400865
 42
-0.5014973867698699
 10
186.4845128984723
 20
14.30203522226124
 42
0.0
 10
186.5314657394437
 20
14.30203522226124
 42
-0.3760883100637777
 97
        1
330
1BB9
 92
       22
 72
     1
 73
     1
 93
        2
 10
186.5663201783875
 20
14.48009399072388
 42
0.008892798644809
 10
186.5716631175697
 20
14.48009399072388
 42
0.0
 97
        1
330
1BBA
 75
     0
 76
     1
 47
0.025620434889365
 98
        2
 10
186.6497407584791
 20
14.40379613716692
 10
186.6497407584791
 20
14.40379613716692
450
        0
451
        0
460
0.0
461
0.0
452
        0
462
0.0
453
        0
470

  0
CIRCLE
  5
1BB8
102
{ACAD_REACTORS
330
1BC2
102
}
330
15
100
AcDbEntity
 67
     1
  8
0
 62
     1
100
AcDbCircle
 10
186.4734528725304
 20
14.442844476494
 30
0.0
 40
0.6930222425806165
  0
LWPOLYLINE
  5
1BB9
102
{ACAD_REACTORS
330
1BC2
330
1BB7
102
}
330
15
100
AcDbEntity
 67
     1
  8
0
 62
     1
100
AcDbPolyline
 90
       17
 70
     0
 43
0.0
 10
186.163902902597
 20
14.8441707515407
 10
186.1639029025969
 20
14.00425821665569
 10
186.3232980782431
 20
14.00425821665569
 10
186.3232980782431
 20
14.18172616787138
 42
-0.3320036502381971
 10
186.425724722326
 20
14.30203522226124
 10
186.5564032042726
 20
14.30203522226124
 42
-0.3344300509710546
 10
186.7090804150569
 20
14.16827572767686
 10
186.7090804150569
 20
14.00425821665569
 10
186.8499949526781
 20
14.00425821665569
 10
186.8499949526781
 20
14.25266811139155
 42
0.0878146924641325
 10
186.7959337651774
 20
14.38493100969846
 42
0.1080222927165679
 10
186.8499949526781
 20
14.5054247174303
 10
186.8499949526781
 20
14.73775532182454
 42
0.2411188226969047
 10
186.7754019808808
 20
14.84426739764873
 42
0.1568897140508559
 10
186.500879117452
 20
14.91143929789424
 10
186.233755098193
 20
14.91143929789424
 42
0.4252932903388871
 10
186.1639029025969
 20
14.83766634294691
  0
LWPOLYLINE
  5
1BBA
102
{ACAD_REACTORS
330
1BC2
330
1BB7
102
}
330
15
100
AcDbEntity
 67
     1
  8
0
 62
     1
100
AcDbPolyline
 90
       10
 70
     1
 43
0.0
 10
186.6497105347768
 20
14.69001661303455
 42
0.2024912017590097
 10
186.5675998964908
 20
14.74945128229471
 10
186.415971325688
 20
14.74945128229471
 42
0.3605152320615398
 10
186.3477816211322
 20
14.68494305644092
 10
186.3477816211322
 20
14.55609211348789
 42
0.3656960469701174
 10
186.4207866914504
 20
14.48009399072388
 10
186.5716631175697
 20
14.48009399072388
 42
0.143350963341212
 10
186.6522297663675
 20
14.50524119761328
 42
0.2365834905846161
 10
186.6678824021144
 20
14.53701182250101
 10
186.6678824021144
 20
14.63572375930751
 42
0.133951748517549
  0
TEXT
  5
1BBB
330
15
100
AcDbEntity
 67
     1
  8
0
 62
     7
100
AcDbText
 10
107.9187200464039
 20
277.6035770440834
 30
0.0
 40
2.872918975993215
  1
01.02.04
  7
Stil1
100
AcDbText
  0
TEXT
  5
1BBC
330
15
100
AcDbEntity
 67
     1
  8
0
 62
     7
100
AcDbText
 10
107.9187200464039
 20
272.9884855103425
 30
0.0
 40
2.872918975993215
  1
M 1:5
  7
Stil1
100
AcDbText
  0
TEXT
  5
1BBD
330
15
100
AcDbEntity
 67
     1
  8
0
 62
     7
100
AcDbText
 10
177.6701169450189
 20
277.6035770440834
 30
0.0
 40
2.872918975993215
  1
střecha
  7
Stil1
100
AcDbText
  0
TEXT
  5
1BBE
330
15
100
AcDbEntity
 67
     1
  8
0
 62
     7
100
AcDbText
 10
183.6552590816588
 20
272.9884855103425
 30
0.0
 40
2.872918975993215
  1
122
  7
Stil1
100
AcDbText
  0
HATCH
  5
1BBF
330
15
100
AcDbEntity
 67
     1
  8
0
 62
     1
100
AcDbHatch
 10
0.0
 20
0.0
 30
0.0
210
0.0
220
0.0
230
1.0
  2
SOLID
 70
     1
 71
     1
 91
        5
 92
        7
 72
     1
 73
     1
 93
       12
 10
155.0956542175495
 20
14.85776474347534
 42
0.2659775848638745
 10
154.6143570356456
 20
14.01700168089232
 42
0.0
 10
154.6143570356456
 20
3.578473512193426
 42
0.4142135623730935
 10
155.5893570356456
 20
2.603473512193431
 42
0.0
 10
169.9543570356456
 20
2.603473512193431
 42
0.0
 10
169.9543570356456
 20
3.05847351219343
 42
0.0
 10
155.5893570356456
 20
3.05847351219343
 42
-0.4142135623730977
 10
155.0693570356456
 20
3.578473512193435
 42
0.0
 10
155.0693570356456
 20
14.0170016808923
 42
-0.2659775848638737
 10
155.3260488659944
 20
14.46540864760324
 42
-0.2516648824931143
 10
169.8551364677297
 20
15.01589626892922
 42
0.0
 10
170.0551815070002
 20
15.42456114662644
 42
0.2516648824931142
 97
        1
330
1BC0
 92
       23
 72
     0
 73
     1
 93
       12
 10
158.7837266630313
 20
12.37978702962438
 10
157.7551701315147
 20
12.37978702962438
 10
157.7551701315146
 20
5.66822216945258
 10
158.7837266630313
 20
5.66822216945258
 10
158.7837266630313
 20
7.567895694120474
 10
159.5877665299939
 20
8.639148155331465
 10
161.5349153309876
 20
5.668222169452582
 10
162.6723986552304
 20
5.668222169452576
 10
160.2202422294624
 20
9.481819243608835
 10
162.3953426072909
 20
12.37978702962438
 10
161.2459188759685
 20
12.37978702962437
 10
158.7837266630313
 20
8.952557578173685
 97
        1
330
1BAF
 92
       23
 72
     1
 73
     1
 93
       18
 10
163.2192239366695
 20
10.20043258293721
 42
0.0
 10
163.6028429777198
 20
9.501915665052917
 42
-0.1250890829061343
 10
164.9256181235215
 20
9.85713097264325
 42
-0.267836782250909
 10
165.7262217371922
 20
9.450110525621798
 42
-0.1602289575786653
 10
165.8498959788269
 20
8.917853844638502
 42
-0.4569276421982639
 10
165.7484595332385
 20
8.837891485723947
 42
0.0541248642832679
 10
164.9293076139838
 20
8.835468622836048
 42
0.1876748474912564
 10
163.2964975356228
 20
8.014410129511796
 42
0.1827818212654466
 10
163.00466598965
 20
6.822742097537527
 42
0.3920539506815952
 10
164.1671572280468
 20
5.67113216212591
 42
0.0
 10
164.8904163048546
 20
5.67113216212591
 42
0.1547524270167747
 10
165.8442731755183
 20
5.976492012592472
 42
-0.4453775332542486
 10
166.1611885475274
 20
5.978523398204532
 42
0.2086188919813899
 10
167.2231896451175
 20
5.661617203242018
 42
0.6162695522437575
 10
167.3107655027108
 20
5.949499462998412
 42
-0.2171983840448881
 10
166.8617604177993
 20
6.968190759826372
 42
0.0
 10
166.8617604177993
 20
9.033760421230921
 42
0.2771818233458192
 10
165.8701899564776
 20
10.56590796047911
 42
0.2393084470231889
 97
        1
330
1BAE
 92
       22
 72
     1
 73
     1
 93
        8
 10
164.9530977829533
 20
8.142382375918362
 42
0.0
 10
165.7150985214588
 20
8.142382375918362
 42
-0.4387538430829209
 10
165.9311589862134
 20
7.912529078954456
 42
0.0
 10
165.9311589862136
 20
7.164757957449478
 42
-0.231573802586463
 10
165.6732909620212
 20
6.606949321004672
 42
-0.2231591289142601
 10
164.4766681301067
 20
6.288666855702925
 42
-0.2451258193607781
 10
163.942689722269
 20
6.690315133432026
 42
-0.1420187448229963
 10
163.9566280544173
 20
7.511433484338132
 42
-0.2899718709829691
 97
        1
330
1BB2
 92
        7
 72
     1
 73
     1
 93
        7
 10
169.2169324266435
 20
12.59857632592781
 42
0.0
 10
168.2797490882861
 20
12.59857632592781
 42
0.0
 10
168.2797490882861
 20
6.69517379424376
 42
0.3265321329225785
 10
169.4235564636938
 20
5.668118687926797
 42
0.0
 10
170.0986111106128
 20
5.668123591238309
 42
0.0
 10
170.0986111106128
 20
6.405728677885793
 42
-0.4142135623730958
 10
169.2169324266435
 20
7.28740736185516
 42
0.0
 97
        1
330
1BB3
 75
     0
 76
     1
 47
0.2105755737740495
 98
        5
 10
167.360820673025
 20
16.26613863111102
 10
158.3203766039954
 20
11.17442128983684
 10
164.8952450741048
 20
10.29842689257316
 10
164.8952450741048
 20
10.29842689257316
 10
168.8675614027772
 20
8.300064699598983
450
        0
451
        0
460
0.0
461
0.0
452
        0
462
0.0
453
        0
470

  0
LWPOLYLINE
  5
1BC0
102
{ACAD_REACTORS
330
1BBF
102
}
330
15
100
AcDbEntity
 67
     1
  8
0
 62
     1
100
AcDbPolyline
 90
       12
 70
     1
 43
0.0
 10
155.5893570356456
 20
2.603473512193431
 42
-0.4142135623730951
 10
154.6143570356456
 20
3.578473512193431
 10
154.6143570356456
 20
14.01700168089232
 42
-0.2659775848638765
 10
155.0956542175496
 20
14.85776474347534
 42
-0.2516648824931137
 10
170.0551815070002
 20
15.42456114662643
 10
169.8551364677297
 20
15.01589626892923
 42
0.2516648824931138
 10
155.3260488659944
 20
14.46540864760326
 42
0.2659775848638775
 10
155.0693570356456
 20
14.01700168089232
 10
155.0693570356456
 20
3.578473512193431
 42
0.4142135623730951
 10
155.5893570356456
 20
3.05847351219343
 10
169.9543570356456
 20
3.05847351219343
 10
169.9543570356456
 20
2.603473512193431
  0
LWPOLYLINE
  5
1BC1
102
{ACAD_REACTORS
330
1BC2
102
}
330
15
100
AcDbEntity
 67
     1
  8
0
 62
     1
100
AcDbPolyline
 90
       12
 70
     1
 43
0.0
 10
179.4016440589315
 20
10.60156899016004
 10
179.4016440589315
 20
10.73907600014035
 10
178.2669242214942
 20
10.73907600014035
 10
178.2669242214942
 20
3.760570909692841
 10
179.4239407027172
 20
3.760570909692841
 10
179.4239407027172
 20
5.69563773713979
 42
-0.4980732597277929
 10
179.5386789812498
 20
5.765166169064407
 42
0.1631603344019285
 10
181.261188609654
 20
5.666766196858898
 42
0.2143211476370474
 10
182.6064920528327
 20
7.078975891778011
 42
0.1454787830754339
 10
182.6418923980994
 20
9.413668282202046
 42
0.209028960994081
 10
181.4927163001679
 20
10.67672623448465
 42
0.2333951007146881
 10
179.5288543492958
 20
10.60156899016004
  0
HATCH
  5
1BC2
330
15
100
AcDbEntity
 67
     1
  8
0
 62
     1
100
AcDbHatch
 10
0.0
 20
0.0
 30
0.0
210
0.0
220
0.0
230
1.0
  2
SOLID
 70
     1
 71
     1
 91
        9
 92
       23
 72
     1
 73
     1
 93
       12
 10
170.6400726112162
 20
10.73572289424106
 42
0.0
 10
170.6400726112162
 20
9.776116453705878
 42
0.0
 10
173.162007163781
 20
9.776116453705878
 42
-0.7299518516203806
 10
173.2365127094216
 20
9.636883829788612
 42
0.0
 10
170.5661790182978
 20
5.981084503609872
 42
0.5071802274159938
 10
170.7189352314943
 20
5.668128097010669
 42
0.0
 10
174.874752520894
 20
5.668158283109946
 42
0.0
 10
174.8747525208939
 20
6.631382280429979
 42
0.0
 10
172.2929511753513
 20
6.63138228042998
 42
-0.6989832493954995
 10
172.2575003816781
 20
6.708034943054541
 42
0.0
 10
174.8284716787123
 20
10.26170048462876
 42
0.0
 10
174.8284716787123
 20
10.73572289424106
 42
0.0
 97
        1
330
1BB1
 92
       23
 72
     0
 73
     1
 93
        6
 10
177.0413308259685
 20
10.72751458203593
 10
175.3173760288469
 20
10.72751458203593
 10
175.3173760288469
 20
9.798931229279391
 10
175.9650911584156
 20
9.7989312292794
 10
175.9650911584156
 20
5.66816620286876
 10
177.0413308259685
 20
5.668174020218621
 97
        1
330
1BB4
 92
       23
 72
     1
 73
     1
 93
       12
 10
178.2669242214941
 20
3.760570909692842
 42
0.0
 10
179.4239407027173
 20
3.760570909692841
 42
0.0
 10
179.4239407027172
 20
5.678558072634334
 42
-0.564020014537643
 10
179.538849271124
 20
5.765098054277299
 42
0.1631429899312781
 10
181.261188609654
 20
5.666766196858899
 42
0.2143211476370291
 10
182.6064920528326
 20
7.078975891777857
 42
0.1454787830754401
 10
182.6418923980994
 20
9.413668282201987
 42
0.2090289609908675
 10
181.492716300192
 20
10.67672623447392
 42
0.2333951007178159
 10
179.5288543492958
 20
10.60156899016004
 42
0.0
 10
179.4016440589315
 20
10.60156899016004
 42
0.0
 10
179.4016440589315
 20
10.73907600014035
 42
0.0
 10
178.2669242214942
 20
10.73907600014035
 42
0.0
 97
        1
330
1BC1
 92
       22
 72
     1
 73
     1
 93
        7
 10
179.4016440589315
 20
9.610119354937918
 42
-0.2989352106795097
 10
181.1131091226112
 20
9.774510514919025
 42
-0.1898212309735409
 10
181.6869480048031
 20
8.893942760789627
 42
-0.0659282931228754
 10
181.6874562148466
 20
7.52697103862436
 42
-0.1241286129053254
 10
181.3404876697105
 20
6.927109517197251
 42
-0.0600684322456203
 10
180.9500583050526
 20
6.627278327533593
 42
-0.2741033349168366
 10
179.4016440589315
 20
6.698227240113507
 42
0.0
 97
        1
330
1BB0
 92
        7
 72
     1
 73
     1
 93
       14
 10
184.8431563601323
 20
13.26347351219343
 42
0.0
 10
182.1743570356435
 20
13.26347351219341
 42
-0.0829624126767202
 10
170.6807864117761
 20
15.11643002118888
 42
0.0
 10
170.535333986566
 20
14.68530522255108
 42
0.0829624126767251
 10
182.1769524627467
 20
12.8084809147172
 42
0.0
 10
184.8393570356456
 20
12.8084809147172
 42
-0.4142135623730971
 10
185.3593570356457
 20
12.2884809147172
 42
0.0
 10
185.3593570356457
 20
3.578473512193435
 42
-0.4142135623730977
 10
184.8393570356456
 20
3.05847351219343
 42
0.0
 10
170.6043570356456
 20
3.05847351219343
 42
0.0
 10
170.6043570356456
 20
2.603473512193431
 42
0.0
 10
184.8393570356456
 20
2.603473512193431
 42
0.4142135623730997
 10
185.8143570356457
 20
3.578473512193446
 42
0.0
 10
185.8143570356456
 20
12.28848091471721
 42
0.4130726898721487
 97
        1
330
1BC3
 92
        7
 72
     1
 73
     1
 93
        2
 10
187.3054329738543
 20
14.442844476494
 42
1.0
 10
185.6414727712064
 20
14.442844476494
 42
1.0
 97
        1
330
1BB6
 92
       22
 72
     1
 73
     1
 93
        2
 10
185.7804306299497
 20
14.442844476494
 42
-1.0
 10
187.166475115111
 20
14.442844476494
 42
-1.0
 97
        1
330
1BB8
 92
        6
 72
     1
 73
     1
 93
       16
 10
186.1639029025969
 20
14.00425821665556
 42
0.0
 10
186.163902902597
 20
14.8376663429459
 42
-0.4302925980981736
 10
186.2349471897113
 20
14.91143929789424
 42
0.0
 10
186.500879117452
 20
14.91143929789424
 42
-0.1568897140508004
 10
186.7754019808807
 20
14.84426739764878
 42
-0.3153417755023655
 10
186.8499949526781
 20
14.6985793434472
 42
0.0
 10
186.8499949526781
 20
14.50542471743021
 42
-0.1080222927165122
 10
186.7959337651774
 20
14.38493100969845
 42
-0.0878146924641181
 10
186.8499949526781
 20
14.25266811139157
 42
0.0
 10
186.8499949526781
 20
14.00425821665569
 42
0.0
 10
186.7090804150569
 20
14.0042582166557
 42
0.0
 10
186.7090804150569
 20
14.16827572767683
 42
0.3344300509710908
 10
186.5564032042726
 20
14.30203522226124
 42
0.0
 10
186.425724722326
 20
14.30203522226124
 42
0.3320036502385211
 10
186.3232980782431
 20
14.18172616787119
 42
0.0
 10
186.3232980782431
 20
14.00425821665569
 42
0.0
 97
        1
330
1BB9
 92
        6
 72
     1
 73
     1
 93
       10
 10
186.3477816211322
 20
14.56656175549751
 42
0.0
 10
186.3477816211322
 20
14.66717042516073
 42
-0.4700313181867731
 10
186.4256202354801
 20
14.74945128229471
 42
0.0
 10
186.5089693874161
 20
14.74945128229471
 42
-0.3239396334643629
 10
186.6497105347767
 20
14.69001661303476
 42
-0.1629090778550143
 10
186.6678824021144
 20
14.62340379001977
 42
0.0
 10
186.6678824021144
 20
14.53701182250309
 42
-0.2807969914256643
 10
186.6467057208669
 20
14.50173519930174
 42
-0.1413133624006426
 10
186.5663201783875
 20
14.48009399072388
 42
0.0
 10
186.4377943801605
 20
14.48009399072388
 42
-0.4644547038390189
 97
        1
330
1BBA
 75
     0
 76
     1
 47
0.2105755736759934
 98
        9
 10
173.7200852031147
 20
10.24088257205529
 10
176.5691948425471
 20
9.666011254007724
 10
178.843003498582
 20
9.802885400925962
 10
178.843003498582
 20
9.802885400925962
 10
185.5000578013566
 20
12.75936645731275
 10
186.1301493398642
 20
13.744860106105
 10
186.1301493398642
 20
13.744860106105
 10
186.1301493398642
 20
13.744860106105
 10
186.1301493398642
 20
13.744860106105
450
        0
451
        0
460
0.0
461
0.0
452
        0
462
0.0
453
        0
470

  0
LWPOLYLINE
  5
1BC3
102
{ACAD_REACTORS
330
1BC2
102
}
330
15
100
AcDbEntity
 67
     1
  8
0
 62
     1
100
AcDbPolyline
 90
       15
 70
     0
 43
0.0
 10
184.8393570356456
 20
13.2634809147172
 42
-0.4142135623730951
 10
185.8143570356456
 20
12.2884809147172
 10
185.8143570356457
 20
3.578473512193431
 42
-0.4142135623730951
 10
184.8393570356456
 20
2.603473512193431
 10
170.6043570356456
 20
2.603473512193431
 10
170.6043570356456
 20
3.05847351219343
 10
184.8393570356456
 20
3.05847351219343
 42
0.4142135623730951
 10
185.3593570356457
 20
3.578473512193431
 10
185.3593570356457
 20
12.2884809147172
 42
0.4142135623730951
 10
184.8393570356456
 20
12.8084809147172
 10
182.1769524627482
 20
12.8084809147172
 42
-0.0829624126767354
 10
170.535333986566
 20
14.68530522255107
 10
170.6807864117761
 20
15.11643002118888
 42
0.0829624126767356
 10
182.1743570356457
 20
13.26347351219341
 10
184.8431563601323
 20
13.26347351219343
  0
MTEXT
  5
4A28
102
{ACAD_XDICTIONARY
360
4B0E
102
}
330
15
100
AcDbEntity
 67
     1
  8
TXT-D
100
AcDbMText
 10
7.471703991441027
 20
17.65554984115925
 30
0.0
 40
2.8
 41
106.1716
 71
     1
 72
     5
  1
{\C7;* Poplastovan\U+00E9 klipsy nejsou vyr\U+00E1b\U+011Bny ve v\U+0161ech rozm\U+011Brech}
  7
ROMANS
 73
     1
 44
1.0
  0
ENDSEC
  0
SECTION
  2
OBJECTS
  0
DICTIONARY
  5
C
330
0
100
AcDbDictionary
281
     1
  3
ACAD_CIP_PREVIOUS_PRODUCT_INFO
350
49AC
  3
ACAD_COLOR
350
498C
  3
ACAD_DETAILVIEWSTYLE
350
49A6
  3
ACAD_GROUP
350
D
  3
ACAD_IMAGE_DICT
350
6C4
  3
ACAD_IMAGE_VARS
350
6C5
  3
ACAD_LAYOUT
350
5E9
  3
ACAD_MATERIAL
350
495A
  3
ACAD_MLEADERSTYLE
350
49A1
  3
ACAD_MLINESTYLE
350
1B
  3
ACAD_PLOTSETTINGS
350
5EA
  3
ACAD_PLOTSTYLENAME
350
5E7
  3
ACAD_SCALELIST
350
498F
  3
ACAD_SECTIONVIEWSTYLE
350
49A3
  3
ACAD_TABLESTYLE
350
498D
  3
ACAD_VISUALSTYLE
350
4973
  3
ACDB_RECOMPOSE_DATA
350
4ACA
  3
AcDbVariableDictionary
350
7F0
  3
AcDsDecomposeData
350
4AD0
  0
DICTIONARY
  5
49D4
330
2
100
AcDbDictionary
280
     1
281
     1
  3
ACAD_LAYERSTATES
360
49D5
  0
DICTIONARY
  5
49AD
330
E
100
AcDbDictionary
280
     1
281
     1
  3
ADSK_XREC_LAYER_RECONCILED
360
49AE
  0
DICTIONARY
  5
49AF
330
B7
100
AcDbDictionary
280
     1
281
     1
  3
ADSK_XREC_LAYER_RECONCILED
360
49B0
  0
DICTIONARY
  5
49B1
330
8F4
100
AcDbDictionary
280
     1
281
     1
  3
ADSK_XREC_LAYER_RECONCILED
360
49B2
  0
DICTIONARY
  5
49B3
330
9AF
100
AcDbDictionary
280
     1
281
     1
  3
ADSK_XREC_LAYER_RECONCILED
360
49B4
  0
DICTIONARY
  5
49B5
330
1205
100
AcDbDictionary
280
     1
281
     1
  3
ADSK_XREC_LAYER_RECONCILED
360
49B6
  0
DICTIONARY
  5
49B7
330
1206
100
AcDbDictionary
280
     1
281
     1
  3
ADSK_XREC_LAYER_RECONCILED
360
49B8
  0
DICTIONARY
  5
49B9
330
1207
100
AcDbDictionary
280
     1
281
     1
  3
ADSK_XREC_LAYER_RECONCILED
360
49BA
  0
DICTIONARY
  5
49BB
330
1209
100
AcDbDictionary
280
     1
281
     1
  3
ADSK_XREC_LAYER_RECONCILED
360
49BC
  0
DICTIONARY
  5
49BD
330
120A
100
AcDbDictionary
280
     1
281
     1
  3
ADSK_XREC_LAYER_RECONCILED
360
49BE
  0
DICTIONARY
  5
49BF
330
120B
100
AcDbDictionary
280
     1
281
     1
  3
ADSK_XREC_LAYER_RECONCILED
360
49C0
  0
DICTIONARY
  5
49C1
330
120D
100
AcDbDictionary
280
     1
281
     1
  3
ADSK_XREC_LAYER_RECONCILED
360
49C2
  0
DICTIONARY
  5
49C3
330
120E
100
AcDbDictionary
280
     1
281
     1
  3
ADSK_XREC_LAYER_RECONCILED
360
49C4
  0
DICTIONARY
  5
49C5
330
25B2
100
AcDbDictionary
280
     1
281
     1
  3
ADSK_XREC_LAYER_RECONCILED
360
49C6
  0
DICTIONARY
  5
49DA
330
49D9
100
AcDbDictionary
280
     1
281
     1
  0
DICTIONARY
  5
81C
330
18
100
AcDbDictionary
280
     1
281
     1
  3
ACAD_LAYOUTSELFREF
360
18FF
  0
DICTIONARY
  5
81A
330
15
100
AcDbDictionary
280
     1
281
     1
  3
ACAD_LAYOUTSELFREF
360
18FE
  0
DICTIONARY
  5
4A2B
330
4A29
100
AcDbDictionary
280
     1
281
     1
  0
DICTIONARY
  5
4B10
330
4A2A
100
AcDbDictionary
280
     1
281
     1
  3
ACAD_MTEXT_2008_RT
360
4B11
  0
DICTIONARY
  5
4B0A
330
4A03
100
AcDbDictionary
280
     1
281
     1
  3
ACAD_MTEXT_2008_RT
360
4B0B
  0
DICTIONARY
  5
4B0C
330
4A0C
100
AcDbDictionary
280
     1
281
     1
  3
ACAD_MTEXT_2008_RT
360
4B0D
  0
DICTIONARY
  5
4B0E
330
4A28
100
AcDbDictionary
280
     1
281
     1
  3
ACAD_MTEXT_2008_RT
360
4B0F
  0
XRECORD
  5
49AC
102
{ACAD_REACTORS
330
C
102
}
330
C
100
AcDbXrecord
280
     1
300
ACD
300
2013
300
ACD_F_S
  0
DICTIONARY
  5
498C
102
{ACAD_REACTORS
330
C
102
}
330
C
100
AcDbDictionary
281
     1
  0
DICTIONARY
  5
49A6
102
{ACAD_REACTORS
330
C
102
}
330
C
100
AcDbDictionary
281
     1
  3
Imperial24
350
49A7
  0
DICTIONARY
  5
D
102
{ACAD_REACTORS
330
C
102
}
330
C
100
AcDbDictionary
281
     1
  0
DICTIONARY
  5
6C4
102
{ACAD_REACTORS
330
C
102
}
330
C
100
AcDbDictionary
281
     1
  3
Kalzip
350
6C6
  0
RASTERVARIABLES
  5
6C5
102
{ACAD_REACTORS
330
C
102
}
330
C
100
AcDbRasterVariables
 90
        0
 70
     1
 71
     1
 72
     0
  0
DICTIONARY
  5
5E9
102
{ACAD_REACTORS
330
C
102
}
330
C
100
AcDbDictionary
281
     1
  3
A4
350
5EC
  3
Model
350
5EB
  0
DICTIONARY
  5
495A
102
{ACAD_REACTORS
330
C
102
}
330
C
100
AcDbDictionary
281
     1
  3
ByBlock
350
4963
  3
ByLayer
350
495B
  3
Global
350
496B
  0
DICTIONARY
  5
49A1
102
{ACAD_REACTORS
330
C
102
}
330
C
100
AcDbDictionary
281
     1
  3
Standard
350
49A2
  0
DICTIONARY
  5
1B
102
{ACAD_REACTORS
330
C
102
}
330
C
100
AcDbDictionary
281
     1
  3
STANDARD
350
1C
  0
DICTIONARY
  5
5EA
102
{ACAD_REACTORS
330
C
102
}
330
C
100
AcDbDictionary
281
     1
  0
ACDBDICTIONARYWDFLT
  5
5E7
102
{ACAD_REACTORS
330
C
102
}
330
C
100
AcDbDictionary
281
     1
  3
Normal
350
5E8
100
AcDbDictionaryWithDefault
340
5E8
  0
DICTIONARY
  5
498F
102
{ACAD_REACTORS
330
C
102
}
330
C
100
AcDbDictionary
281
     1
  3
A0
350
4990
  3
A1
350
4991
  3
A2
350
4992
  3
A3
350
4993
  3
A4
350
4994
  3
A5
350
4995
  3
A6
350
4996
  3
A7
350
4997
  3
A8
350
4998
  3
A9
350
4999
  3
B0
350
499A
  3
B1
350
499B
  3
B2
350
499C
  3
B3
350
499D
  3
B4
350
499E
  3
B5
350
499F
  3
B6
350
49A0
  0
DICTIONARY
  5
49A3
102
{ACAD_REACTORS
330
C
102
}
330
C
100
AcDbDictionary
281
     1
  3
Imperial24
350
49A5
  0
DICTIONARY
  5
498D
102
{ACAD_REACTORS
330
C
102
}
330
C
100
AcDbDictionary
281
     1
  3
Standard
350
498E
  0
DICTIONARY
  5
4973
102
{ACAD_REACTORS
330
C
102
}
330
C
100
AcDbDictionary
281
     1
  3
2dWireframe
350
4979
  3
Basic
350
4978
  3
Brighten
350
497F
  3
ColorChange
350
4983
  3
Conceptual
350
497C
  3
Dim
350
497E
  3
EdgeColorOff
350
498B
  3
Facepattern
350
4982
  3
Flat
350
4974
  3
FlatWithEdges
350
4975
  3
Gouraud
350
4976
  3
GouraudWithEdges
350
4977
  3
Hidden
350
497B
  3
JitterOff
350
4989
  3
Linepattern
350
4981
  3
OverhangOff
350
498A
  3
Realistic
350
497D
  3
Shaded
350
4988
  3
Shaded with edges
350
4987
  3
Shades of Gray
350
4984
  3
Sketchy
350
4985
  3
Thicken
350
4980
  3
Wireframe
350
497A
  3
X-Ray
350
4986
  0
XRECORD
  5
4ACA
102
{ACAD_REACTORS
330
C
102
}
330
C
100
AcDbXrecord
280
     1
 90
        1
330
498E
  0
DICTIONARY
  5
7F0
102
{ACAD_REACTORS
330
C
102
}
330
C
100
AcDbDictionary
281
     1
  3
CANNOSCALE
350
4A65
  3
CMLEADERSTYLE
350
4A61
  3
CTABLESTYLE
350
4A60
  3
CVIEWDETAILSTYLE
350
4A62
  3
CVIEWSECTIONSTYLE
350
4A63
  3
DIMASSOC
350
2258
  3
LAYEREVAL
350
4A67
  3
LAYERNOTIFY
350
4A68
  3
LIGHTINGUNITS
350
4A66
  3
MSLTSCALE
350
4A64
  3
SORTENTS
350
7F1
  3
XCLIPFRAME
350
4AC7
  0
DICTIONARY
  5
4AD0
102
{ACAD_REACTORS
330
C
102
}
330
C
100
AcDbDictionary
281
     1
  3
AcDsRecords
350
4AD2
  3
AcDsSchemas
350
4AD1
1001
ACAD
1070
     2
  0
DICTIONARY
  5
49D5
102
{ACAD_REACTORS
330
49D4
102
}
330
49D4
100
AcDbDictionary
281
     1
  0
XRECORD
  5
49AE
102
{ACAD_REACTORS
330
49AD
102
}
330
49AD
100
AcDbXrecord
280
     1
290
     1
  0
XRECORD
  5
49B0
102
{ACAD_REACTORS
330
49AF
102
}
330
49AF
100
AcDbXrecord
280
     1
290
     1
  0
XRECORD
  5
49B2
102
{ACAD_REACTORS
330
49B1
102
}
330
49B1
100
AcDbXrecord
280
     1
290
     1
  0
XRECORD
  5
49B4
102
{ACAD_REACTORS
330
49B3
102
}
330
49B3
100
AcDbXrecord
280
     1
290
     1
  0
XRECORD
  5
49B6
102
{ACAD_REACTORS
330
49B5
102
}
330
49B5
100
AcDbXrecord
280
     1
290
     1
  0
XRECORD
  5
49B8
102
{ACAD_REACTORS
330
49B7
102
}
330
49B7
100
AcDbXrecord
280
     1
290
     1
  0
XRECORD
  5
49BA
102
{ACAD_REACTORS
330
49B9
102
}
330
49B9
100
AcDbXrecord
280
     1
290
     1
  0
XRECORD
  5
49BC
102
{ACAD_REACTORS
330
49BB
102
}
330
49BB
100
AcDbXrecord
280
     1
290
     1
  0
XRECORD
  5
49BE
102
{ACAD_REACTORS
330
49BD
102
}
330
49BD
100
AcDbXrecord
280
     1
290
     1
  0
XRECORD
  5
49C0
102
{ACAD_REACTORS
330
49BF
102
}
330
49BF
100
AcDbXrecord
280
     1
290
     1
  0
XRECORD
  5
49C2
102
{ACAD_REACTORS
330
49C1
102
}
330
49C1
100
AcDbXrecord
280
     1
290
     1
  0
XRECORD
  5
49C4
102
{ACAD_REACTORS
330
49C3
102
}
330
49C3
100
AcDbXrecord
280
     1
290
     1
  0
XRECORD
  5
49C6
102
{ACAD_REACTORS
330
49C5
102
}
330
49C5
100
AcDbXrecord
280
     1
290
     1
  0
XRECORD
  5
18FF
102
{ACAD_REACTORS
330
81C
102
}
330
81C
100
AcDbXrecord
280
     1
340
18
  0
XRECORD
  5
18FE
102
{ACAD_REACTORS
330
81A
102
}
330
81A
100
AcDbXrecord
280
     1
340
15
  0
XRECORD
  5
4B11
102
{ACAD_REACTORS
330
4B10
102
}
330
4B10
100
AcDbXrecord
280
     1
 40
350889.0
  1
{\C7;* Poplastované klipsy nejsou vyráběny ve všech rozměrech}
  0
XRECORD
  5
4B0B
102
{ACAD_REACTORS
330
4B0A
102
}
330
4B0A
100
AcDbXrecord
280
     1
 40
773712.0
  1
kotvení hřebenového oplechování:\Pmax. vzdálenost 400mm, jen do hřebenové uzávěry
  0
XRECORD
  5
4B0D
102
{ACAD_REACTORS
330
4B0C
102
}
330
4B0C
100
AcDbXrecord
280
     1
 40
140772.0
  1
typ pevného bodu stanovený výpočtem
  0
XRECORD
  5
4B0F
102
{ACAD_REACTORS
330
4B0E
102
}
330
4B0E
100
AcDbXrecord
280
     1
 40
350889.0
  1
{\C7;* Poplastované klipsy nejsou vyráběny ve všech rozměrech}
  0
ACDBDETAILVIEWSTYLE
  5
49A7
102
{ACAD_REACTORS
330
49A6
102
}
330
49A6
100
AcDbModelDocViewStyle
 70
     0
  3
Imperial24
290
     0
100
AcDbDetailViewStyle
 70
     0
 71
     0
 90
        3
 71
     1
340
F
 62
   256
 40
0.24
340
0
 62
   256
 40
0.24
300

 40
0.36
280
     3
 71
     2
340
14
 90
       25
 62
   256
 71
     3
340
F
 62
   256
 40
0.24
 90
        1
 40
0.75
 90
        1
300
%<\AcVar ViewType \f "%tc1">% %<\AcVar ViewDetailId>%\PMĚŘÍTKO %<\AcVar ViewScale \f "%sn">%
 71
     4
340
14
 90
       25
 62
   256
340
14
 90
       25
 62
   256
280
     0
  0
IMAGEDEF
  5
6C6
102
{ACAD_REACTORS
330
6C4
102
}
330
6C4
100
AcDbRasterImageDef
 90
        0
  1
C:\Kalzip.pcx
 10
944.0
 20
1927.0
 11
0.0010593220338983
 21
0.0010593220338983
280
     1
281
     0
  0
LAYOUT
  5
5EC
102
{ACAD_REACTORS
330
5E9
102
}
330
5E9
100
AcDbPlotSettings
  1

  2
Brother HL-760
  4
A4
  6

 40
6.043083190917968
 41
6.762742042541503
 42
7.736419677734375
 43
5.027069091796875
 44
209.9733276367187
 45
296.9683227539062
 46
0.0
 47
0.0
 48
0.473259
 49
58.191861
140
193.769503
141
275.404803
142
1.0
143
1.0
 70
   688
 72
     1
 73
     0
 74
     5
  7
CORUS_Mono.ctb
 75
    16
147
1.0
 76
     0
 77
     2
 78
   300
148
0.0
149
0.0
100
AcDbLayout
  1
A4
 70
     0
 71
     1
 10
-6.043083190917968
 20
-6.762742042541503
 11
203.9302444458008
 21
290.2055807113647
 12
0.0
 22
0.0
 32
0.0
 14
5.453180443651859
 24
2.60347351219342
 34
0.0
 15
194.1062893262004
 25
281.2368592961239
 35
0.0
146
0.0
 13
0.0
 23
0.0
 33
0.0
 16
1.0
 26
0.0
 36
0.0
 17
0.0
 27
1.0
 37
0.0
 76
     0
330
15
331
27F
  0
LAYOUT
  5
5EB
102
{ACAD_REACTORS
330
5E9
102
}
330
5E9
100
AcDbPlotSettings
  1

  2
\\BSSRV01\Océ 5120 A0
  4
A4
  6

 40
3.174999952316284
 41
3.174999952316284
 42
3.175003051757812
 43
3.17498779296875
 44
209.9733276367187
 45
296.9683227539062
 46
0.0
 47
0.0
 48
0.0
 49
0.0
140
0.0
141
0.0
142
1.0
143
1.0
 70
 11952
 72
     1
 73
     1
 74
     0
  7

 75
     0
147
1.0
 76
     0
 77
     2
 78
   300
148
973.0712272420497
149
544.3184272033454
100
AcDbLayout
  1
Model
 70
     1
 71
     0
 10
0.0
 20
0.0
 11
12.0
 21
9.0
 12
0.0
 22
0.0
 32
0.0
 14
0.0
 24
0.0
 34
0.0
 15
0.0
 25
0.0
 35
0.0
146
0.0
 13
0.0
 23
0.0
 33
0.0
 16
1.0
 26
0.0
 36
0.0
 17
0.0
 27
1.0
 37
0.0
 76
     0
330
18
331
4958
  0
MATERIAL
  5
4963
102
{ACAD_XDICTIONARY
360
4964
102
}
102
{ACAD_REACTORS
330
495A
102
}
330
495A
100
AcDbMaterial
  1
ByBlock
 72
     0
 43
0.0208333333333333
 43
0.0
 43
0.0
 43
0.0
 43
0.0
 43
0.0208333333333333
 43
0.0
 43
0.0
 43
0.0
 43
0.0
 43
1.0
 43
0.0
 43
0.0
 43
0.0
 43
0.0
 43
1.0
 77
     0
 47
0.0208333333333333
 47
0.0
 47
0.0
 47
0.0
 47
0.0
 47
0.0208333333333333
 47
0.0
 47
0.0
 47
0.0
 47
0.0
 47
1.0
 47
0.0
 47
0.0
 47
0.0
 47
0.0
 47
1.0
171
     0
 49
0.0208333333333333
 49
0.0
 49
0.0
 49
0.0
 49
0.0
 49
0.0208333333333333
 49
0.0
 49
0.0
 49
0.0
 49
0.0
 49
1.0
 49
0.0
 49
0.0
 49
0.0
 49
0.0
 49
1.0
175
     0
142
0.0208333333333333
142
0.0
142
0.0
142
0.0
142
0.0
142
0.0208333333333333
142
0.0
142
0.0
142
0.0
142
0.0
142
1.0
142
0.0
142
0.0
142
0.0
142
0.0
142
1.0
179
     0
144
0.0208333333333333
144
0.0
144
0.0
144
0.0
144
0.0
144
0.0208333333333333
144
0.0
144
0.0
144
0.0
144
0.0
144
1.0
144
0.0
144
0.0
144
0.0
144
0.0
144
1.0
147
0.0208333333333333
147
0.0
147
0.0
147
0.0
147
0.0
147
0.0208333333333333
147
0.0
147
0.0
147
0.0
147
0.0
147
1.0
147
0.0
147
0.0
147
0.0
147
0.0
147
1.0
  0
MATERIAL
  5
495B
102
{ACAD_XDICTIONARY
360
495C
102
}
102
{ACAD_REACTORS
330
495A
102
}
330
495A
100
AcDbMaterial
  1
ByLayer
 72
     0
 43
0.0208333333333333
 43
0.0
 43
0.0
 43
0.0
 43
0.0
 43
0.0208333333333333
 43
0.0
 43
0.0
 43
0.0
 43
0.0
 43
1.0
 43
0.0
 43
0.0
 43
0.0
 43
0.0
 43
1.0
 77
     0
 47
0.0208333333333333
 47
0.0
 47
0.0
 47
0.0
 47
0.0
 47
0.0208333333333333
 47
0.0
 47
0.0
 47
0.0
 47
0.0
 47
1.0
 47
0.0
 47
0.0
 47
0.0
 47
0.0
 47
1.0
171
     0
 49
0.0208333333333333
 49
0.0
 49
0.0
 49
0.0
 49
0.0
 49
0.0208333333333333
 49
0.0
 49
0.0
 49
0.0
 49
0.0
 49
1.0
 49
0.0
 49
0.0
 49
0.0
 49
0.0
 49
1.0
175
     0
142
0.0208333333333333
142
0.0
142
0.0
142
0.0
142
0.0
142
0.0208333333333333
142
0.0
142
0.0
142
0.0
142
0.0
142
1.0
142
0.0
142
0.0
142
0.0
142
0.0
142
1.0
179
     0
144
0.0208333333333333
144
0.0
144
0.0
144
0.0
144
0.0
144
0.0208333333333333
144
0.0
144
0.0
144
0.0
144
0.0
144
1.0
144
0.0
144
0.0
144
0.0
144
0.0
144
1.0
147
0.0208333333333333
147
0.0
147
0.0
147
0.0
147
0.0
147
0.0208333333333333
147
0.0
147
0.0
147
0.0
147
0.0
147
1.0
147
0.0
147
0.0
147
0.0
147
0.0
147
1.0
  0
MATERIAL
  5
496B
102
{ACAD_XDICTIONARY
360
496C
102
}
102
{ACAD_REACTORS
330
495A
102
}
330
495A
100
AcDbMaterial
  1
Global
 72
     0
 43
0.0208333333333333
 43
0.0
 43
0.0
 43
0.0
 43
0.0
 43
0.0208333333333333
 43
0.0
 43
0.0
 43
0.0
 43
0.0
 43
1.0
 43
0.0
 43
0.0
 43
0.0
 43
0.0
 43
1.0
 77
     0
 47
0.0208333333333333
 47
0.0
 47
0.0
 47
0.0
 47
0.0
 47
0.0208333333333333
 47
0.0
 47
0.0
 47
0.0
 47
0.0
 47
1.0
 47
0.0
 47
0.0
 47
0.0
 47
0.0
 47
1.0
171
     0
 49
0.0208333333333333
 49
0.0
 49
0.0
 49
0.0
 49
0.0
 49
0.0208333333333333
 49
0.0
 49
0.0
 49
0.0
 49
0.0
 49
1.0
 49
0.0
 49
0.0
 49
0.0
 49
0.0
 49
1.0
175
     0
142
0.0208333333333333
142
0.0
142
0.0
142
0.0
142
0.0
142
0.0208333333333333
142
0.0
142
0.0
142
0.0
142
0.0
142
1.0
142
0.0
142
0.0
142
0.0
142
0.0
142
1.0
179
     0
144
0.0208333333333333
144
0.0
144
0.0
144
0.0
144
0.0
144
0.0208333333333333
144
0.0
144
0.0
144
0.0
144
0.0
144
1.0
144
0.0
144
0.0
144
0.0
144
0.0
144
1.0
147
0.0208333333333333
147
0.0
147
0.0
147
0.0
147
0.0
147
0.0208333333333333
147
0.0
147
0.0
147
0.0
147
0.0
147
1.0
147
0.0
147
0.0
147
0.0
147
0.0
147
1.0
  0
MLEADERSTYLE
  5
49A2
102
{ACAD_XDICTIONARY
360
4B08
102
}
102
{ACAD_REACTORS
330
49A1
102
}
330
49A1
100
AcDbMLeaderStyle
170
     2
171
     1
172
     0
 90
        2
 40
0.0
 41
0.0
173
     1
 91
-1056964608
340
12
 92
       -2
290
     1
 42
0.09
291
     1
 43
0.36
  3
Standard
 44
0.18
300

342
F
174
     1
178
     6
175
     1
176
     0
 93
-1056964608
 45
0.18
292
     0
297
     0
 46
0.18
 94
-1056964608
 47
1.0
 49
1.0
140
1.0
293
     1
141
0.0
294
     1
177
     0
142
1.0
295
     0
296
     0
143
0.125
1001
ACAD_MLEADERVER
1070
     2
  0
MLINESTYLE
  5
1C
102
{ACAD_REACTORS
330
1B
102
}
330
1B
100
AcDbMlineStyle
  2
STANDARD
 70
     0
  3

 62
   256
 51
90.0
 52
90.0
 71
     2
 49
0.5
 62
   256
  6
BYLAYER
 49
-0.5
 62
   256
  6
BYLAYER
  0
ACDBPLACEHOLDER
  5
5E8
102
{ACAD_REACTORS
330
5E7
102
}
330
5E7
  0
SCALE
  5
4990
102
{ACAD_REACTORS
330
498F
102
}
330
498F
100
AcDbScale
 70
     0
300
1:1
140
1.0
141
1.0
290
     1
  0
SCALE
  5
4991
102
{ACAD_REACTORS
330
498F
102
}
330
498F
100
AcDbScale
 70
     0
300
1/128" = 1'-0"
140
0.0078125
141
12.0
290
     0
  0
SCALE
  5
4992
102
{ACAD_REACTORS
330
498F
102
}
330
498F
100
AcDbScale
 70
     0
300
1/64" = 1'-0"
140
0.015625
141
12.0
290
     0
  0
SCALE
  5
4993
102
{ACAD_REACTORS
330
498F
102
}
330
498F
100
AcDbScale
 70
     0
300
1/32" = 1'-0"
140
0.03125
141
12.0
290
     0
  0
SCALE
  5
4994
102
{ACAD_REACTORS
330
498F
102
}
330
498F
100
AcDbScale
 70
     0
300
1/16" = 1'-0"
140
0.0625
141
12.0
290
     0
  0
SCALE
  5
4995
102
{ACAD_REACTORS
330
498F
102
}
330
498F
100
AcDbScale
 70
     0
300
3/32" = 1'-0"
140
0.09375
141
12.0
290
     0
  0
SCALE
  5
4996
102
{ACAD_REACTORS
330
498F
102
}
330
498F
100
AcDbScale
 70
     0
300
1/8" = 1'-0"
140
0.125
141
12.0
290
     0
  0
SCALE
  5
4997
102
{ACAD_REACTORS
330
498F
102
}
330
498F
100
AcDbScale
 70
     0
300
3/16" = 1'-0"
140
0.1875
141
12.0
290
     0
  0
SCALE
  5
4998
102
{ACAD_REACTORS
330
498F
102
}
330
498F
100
AcDbScale
 70
     0
300
1/4" = 1'-0"
140
0.25
141
12.0
290
     0
  0
SCALE
  5
4999
102
{ACAD_REACTORS
330
498F
102
}
330
498F
100
AcDbScale
 70
     0
300
3/8" = 1'-0"
140
0.375
141
12.0
290
     0
  0
SCALE
  5
499A
102
{ACAD_REACTORS
330
498F
102
}
330
498F
100
AcDbScale
 70
     0
300
1/2" = 1'-0"
140
0.5
141
12.0
290
     0
  0
SCALE
  5
499B
102
{ACAD_REACTORS
330
498F
102
}
330
498F
100
AcDbScale
 70
     0
300
3/4" = 1'-0"
140
0.75
141
12.0
290
     0
  0
SCALE
  5
499C
102
{ACAD_REACTORS
330
498F
102
}
330
498F
100
AcDbScale
 70
     0
300
1" = 1'-0"
140
1.0
141
12.0
290
     0
  0
SCALE
  5
499D
102
{ACAD_REACTORS
330
498F
102
}
330
498F
100
AcDbScale
 70
     0
300
1-1/2" = 1'-0"
140
1.5
141
12.0
290
     0
  0
SCALE
  5
499E
102
{ACAD_REACTORS
330
498F
102
}
330
498F
100
AcDbScale
 70
     0
300
3" = 1'-0"
140
3.0
141
12.0
290
     0
  0
SCALE
  5
499F
102
{ACAD_REACTORS
330
498F
102
}
330
498F
100
AcDbScale
 70
     0
300
6" = 1'-0"
140
6.0
141
12.0
290
     0
  0
SCALE
  5
49A0
102
{ACAD_REACTORS
330
498F
102
}
330
498F
100
AcDbScale
 70
     0
300
1'-0" = 1'-0"
140
12.0
141
12.0
290
     0
  0
ACDBSECTIONVIEWSTYLE
  5
49A5
102
{ACAD_REACTORS
330
49A3
102
}
330
49A3
100
AcDbModelDocViewStyle
 70
     0
  3
Imperial24
290
     0
100
AcDbSectionViewStyle
 70
     0
 71
     0
 90
       78
 71
     1
340
F
 62
   256
 40
0.24
340
0
340
0
 62
   256
 40
0.24
300
I, O, Q, S, X, Z
 40
0.48
 90
        3
 40
0.18
 90
        1
 71
     2
340
49A4
 90
       25
 62
   256
340
14
 90
       50
 62
   256
 40
0.24
 40
0.0
 40
0.24
 71
     3
340
F
 62
   256
 40
0.24
 90
        1
 40
0.75
 90
        1
300
%<\AcVar ViewType \f "%tc1">% %<\AcVar ViewSectionStartId>%-%<\AcVar ViewSectionEndId>%\PMĚŘÍTKO %<\AcVar ViewScale \f "%sn">%
 71
     4
 62
   256
 62
   257
300
ANSI31
 40
1.0
 90
        0
290
     0
290
     0
 90
        6
 40
0.0
 40
1.570796326794896
 40
0.2617993877991494
 40
1.308996938995747
 40
-0.2617993877991494
 40
1.832595714594046
  0
TABLESTYLE
  5
498E
102
{ACAD_XDICTIONARY
360
4AC8
102
}
102
{ACAD_REACTORS
330
498D
102
}
330
498D
100
AcDbTableStyle
  3
Standard
 70
     0
 71
     0
 40
0.06
 41
0.06
280
     0
281
     0
  7
STANDARD
140
0.18
170
     2
 62
     0
 63
     7
283
     0
274
    -2
284
     1
 64
     0
275
    -2
285
     1
 65
     0
276
    -2
286
     1
 66
     0
277
    -2
287
     1
 67
     0
278
    -2
288
     1
 68
     0
279
    -2
289
     1
 69
     0
  7
STANDARD
140
0.25
170
     5
 62
     0
 63
     7
283
     0
274
    -2
284
     1
 64
     0
275
    -2
285
     1
 65
     0
276
    -2
286
     1
 66
     0
277
    -2
287
     1
 67
     0
278
    -2
288
     1
 68
     0
279
    -2
289
     1
 69
     0
  7
STANDARD
140
0.18
170
     5
 62
     0
 63
     7
283
     0
274
    -2
284
     1
 64
     0
275
    -2
285
     1
 65
     0
276
    -2
286
     1
 66
     0
277
    -2
287
     1
 67
     0
278
    -2
288
     1
 68
     0
279
    -2
289
     1
 69
     0
  0
VISUALSTYLE
  5
4979
102
{ACAD_XDICTIONARY
360
4AE0
102
}
102
{ACAD_REACTORS
330
4973
102
}
330
4973
100
AcDbVisualStyle
  2
2dWireframe
 70
     4
 71
     0
 72
     2
 73
     0
 90
        0
 40
-0.6
 41
-30.0
 62
     5
 63
     7
421
 16777215
 74
     1
 91
        4
 64
     7
 65
   257
 75
     1
175
     1
 42
1.0
 92
        0
 66
   257
 43
1.0
 76
     1
 77
     6
 78
     2
 67
     7
 79
     5
170
     0
171
     0
290
     0
174
     0
 93
        1
 44
0.0
173
     0
291
     0
 45
0.0
1001
ACAD
1000
AcDbSavedByObjectVersion
1070
     0
  0
VISUALSTYLE
  5
4978
102
{ACAD_XDICTIONARY
360
4ADE
102
}
102
{ACAD_REACTORS
330
4973
102
}
330
4973
100
AcDbVisualStyle
  2
Basic
 70
     7
 71
     1
 72
     0
 73
     1
 90
        0
 40
-0.6
 41
-30.0
 62
     5
 63
     7
421
 16777215
 74
     0
 91
        4
 64
     7
 65
   257
 75
     1
175
     1
 42
1.0
 92
        8
 66
     7
 43
1.0
 76
     1
 77
     6
 78
     2
 67
     7
 79
     5
170
     0
171
     0
290
     0
174
     0
 93
        1
 44
0.0
173
     0
291
     1
 45
0.0
1001
ACAD
1000
AcDbSavedByObjectVersion
1070
     0
  0
VISUALSTYLE
  5
497F
102
{ACAD_XDICTIONARY
360
4AEC
102
}
102
{ACAD_REACTORS
330
4973
102
}
330
4973
100
AcDbVisualStyle
  2
Brighten
 70
    12
 71
     2
 72
     2
 73
     0
 90
        0
 40
-0.6
 41
-30.0
 62
     5
 63
     7
421
 16777215
 74
     1
 91
        4
 64
     7
 65
   257
 75
     1
175
     1
 42
1.0
 92
        8
 66
     7
 43
1.0
 76
     1
 77
     6
 78
     2
 67
     7
 79
     5
170
     0
171
     0
290
     0
174
     0
 93
        1
 44
50.0
173
     0
291
     1
 45
0.0
1001
ACAD
1000
AcDbSavedByObjectVersion
1070
     0
  0
VISUALSTYLE
  5
4983
102
{ACAD_XDICTIONARY
360
4AF4
102
}
102
{ACAD_REACTORS
330
4973
102
}
330
4973
100
AcDbVisualStyle
  2
ColorChange
 70
    16
 71
     2
 72
     2
 73
     3
 90
        0
 40
-0.6
 41
-30.0
 62
     5
 63
     8
421
  8421504
 74
     1
 91
        4
 64
     7
 65
   257
 75
     1
175
     1
 42
1.0
 92
        8
 66
     8
424
  8421504
 43
1.0
 76
     1
 77
     6
 78
     2
 67
     7
 79
     5
170
     0
171
     0
290
     0
174
     0
 93
        1
 44
0.0
173
     0
291
     1
 45
0.0
1001
ACAD
1000
AcDbSavedByObjectVersion
1070
     0
  0
VISUALSTYLE
  5
497C
102
{ACAD_XDICTIONARY
360
4AE6
102
}
102
{ACAD_REACTORS
330
4973
102
}
330
4973
100
AcDbVisualStyle
  2
Conceptual
 70
     9
 71
     3
 72
     2
 73
     0
 90
        0
 40
-0.6
 41
-30.0
 62
     5
 63
     7
421
 16777215
 74
     2
 91
        2
 64
     7
 65
   257
 75
     1
175
     1
 42
179.0
 92
        8
 66
     7
 43
1.0
 76
     1
 77
     6
 78
     2
 67
     7
 79
     3
170
     0
171
     0
290
     0
174
     0
 93
        1
 44
0.0
173
     0
291
     0
 45
0.0
1001
ACAD
1000
AcDbSavedByObjectVersion
1070
     0
  0
VISUALSTYLE
  5
497E
102
{ACAD_XDICTIONARY
360
4AEA
102
}
102
{ACAD_REACTORS
330
4973
102
}
330
4973
100
AcDbVisualStyle
  2
Dim
 70
    11
 71
     2
 72
     2
 73
     0
 90
        0
 40
-0.6
 41
-30.0
 62
     5
 63
     7
421
 16777215
 74
     1
 91
        4
 64
     7
 65
   257
 75
     1
175
     1
 42
1.0
 92
        8
 66
     7
 43
1.0
 76
     1
 77
     6
 78
     2
 67
     7
 79
     5
170
     0
171
     0
290
     0
174
     0
 93
        1
 44
-50.0
173
     0
291
     1
 45
0.0
1001
ACAD
1000
AcDbSavedByObjectVersion
1070
     0
  0
VISUALSTYLE
  5
498B
102
{ACAD_XDICTIONARY
360
4B04
102
}
102
{ACAD_REACTORS
330
4973
102
}
330
4973
100
AcDbVisualStyle
  2
EdgeColorOff
 70
    22
 71
     2
 72
     2
 73
     0
 90
        0
 40
-0.6
 41
-30.0
 62
     5
 63
     7
421
 16777215
 74
     1
 91
        4
 64
     7
 65
   257
 75
     1
175
     1
 42
1.0
 92
        8
 66
     7
 43
1.0
 76
     1
 77
     6
 78
     2
 67
     7
 79
     5
170
     0
171
     0
290
     0
174
     0
 93
        1
 44
0.0
173
     0
291
     1
 45
0.0
1001
ACAD
1000
AcDbSavedByObjectVersion
1070
     0
  0
VISUALSTYLE
  5
4982
102
{ACAD_XDICTIONARY
360
4AF2
102
}
102
{ACAD_REACTORS
330
4973
102
}
330
4973
100
AcDbVisualStyle
  2
Facepattern
 70
    15
 71
     2
 72
     2
 73
     0
 90
        0
 40
-0.6
 41
-30.0
 62
     5
 63
     7
421
 16777215
 74
     1
 91
        4
 64
     7
 65
   257
 75
     1
175
     1
 42
1.0
 92
        8
 66
     7
 43
1.0
 76
     1
 77
     6
 78
     2
 67
     7
 79
     5
170
     0
171
     0
290
     0
174
     0
 93
        1
 44
0.0
173
     0
291
     1
 45
0.0
1001
ACAD
1000
AcDbSavedByObjectVersion
1070
     0
  0
VISUALSTYLE
  5
4974
102
{ACAD_XDICTIONARY
360
4AD6
102
}
102
{ACAD_REACTORS
330
4973
102
}
330
4973
100
AcDbVisualStyle
  2
Flat
 70
     0
 71
     2
 72
     1
 73
     1
 90
        2
 40
-0.6
 41
30.0
 62
     5
 63
     7
421
 16777215
 74
     0
 91
        0
 64
     7
 65
   257
 75
     1
175
     1
 42
1.0
 92
        8
 66
     7
 43
1.0
 76
     1
 77
     6
 78
     2
 67
     7
 79
     5
170
     0
171
     0
290
     0
174
     0
 93
       13
 44
0.0
173
     0
291
     1
 45
0.0
1001
ACAD
1000
AcDbSavedByObjectVersion
1070
     0
  0
VISUALSTYLE
  5
4975
102
{ACAD_XDICTIONARY
360
4AD8
102
}
102
{ACAD_REACTORS
330
4973
102
}
330
4973
100
AcDbVisualStyle
  2
FlatWithEdges
 70
     1
 71
     2
 72
     1
 73
     1
 90
        2
 40
-0.6
 41
30.0
 62
     5
 63
     7
421
 16777215
 74
     1
 91
        0
 64
     7
 65
   257
 75
     1
175
     1
 42
1.0
 92
        0
 66
   257
 43
1.0
 76
     1
 77
     6
 78
     2
 67
     7
 79
     5
170
     0
171
     0
290
     0
174
     0
 93
       13
 44
0.0
173
     0
291
     1
 45
0.0
1001
ACAD
1000
AcDbSavedByObjectVersion
1070
     0
  0
VISUALSTYLE
  5
4976
102
{ACAD_XDICTIONARY
360
4ADA
102
}
102
{ACAD_REACTORS
330
4973
102
}
330
4973
100
AcDbVisualStyle
  2
Gouraud
 70
     2
 71
     2
 72
     2
 73
     1
 90
        2
 40
-0.6
 41
30.0
 62
     5
 63
     7
421
 16777215
 74
     0
 91
        0
 64
     7
 65
   257
 75
     1
175
     1
 42
1.0
 92
        0
 66
     7
 43
1.0
 76
     1
 77
     6
 78
     2
 67
     7
 79
     5
170
     0
171
     0
290
     0
174
     0
 93
       13
 44
0.0
173
     0
291
     1
 45
0.0
1001
ACAD
1000
AcDbSavedByObjectVersion
1070
     0
  0
VISUALSTYLE
  5
4977
102
{ACAD_XDICTIONARY
360
4ADC
102
}
102
{ACAD_REACTORS
330
4973
102
}
330
4973
100
AcDbVisualStyle
  2
GouraudWithEdges
 70
     3
 71
     2
 72
     2
 73
     1
 90
        2
 40
-0.6
 41
30.0
 62
     5
 63
     7
421
 16777215
 74
     1
 91
        0
 64
     7
 65
   257
 75
     1
175
     1
 42
1.0
 92
        0
 66
   257
 43
1.0
 76
     1
 77
     6
 78
     2
 67
     7
 79
     5
170
     0
171
     0
290
     0
174
     0
 93
       13
 44
0.0
173
     0
291
     1
 45
0.0
1001
ACAD
1000
AcDbSavedByObjectVersion
1070
     0
  0
VISUALSTYLE
  5
497B
102
{ACAD_XDICTIONARY
360
4AE4
102
}
102
{ACAD_REACTORS
330
4973
102
}
330
4973
100
AcDbVisualStyle
  2
Hidden
 70
     6
 71
     1
 72
     2
 73
     2
 90
        0
 40
-0.6
 41
-30.0
 62
     5
 63
     7
421
 16777215
 74
     2
 91
        2
 64
     7
 65
   257
 75
     2
175
     1
 42
40.0
 92
        0
 66
   257
 43
1.0
 76
     1
 77
     6
 78
     2
 67
     7
 79
     3
170
     0
171
     0
290
     0
174
     0
 93
        1
 44
0.0
173
     0
291
     0
 45
0.0
1001
ACAD
1000
AcDbSavedByObjectVersion
1070
     0
  0
VISUALSTYLE
  5
4989
102
{ACAD_XDICTIONARY
360
4B00
102
}
102
{ACAD_REACTORS
330
4973
102
}
330
4973
100
AcDbVisualStyle
  2
JitterOff
 70
    20
 71
     2
 72
     2
 73
     0
 90
        0
 40
-0.6
 41
-30.0
 62
     5
 63
     7
421
 16777215
 74
     1
 91
        4
 64
     7
 65
   257
 75
     1
175
     1
 42
1.0
 92
       10
 66
     7
 43
1.0
 76
     1
 77
     6
 78
     2
 67
     7
 79
     5
170
     0
171
     0
290
     0
174
     0
 93
        1
 44
0.0
173
     0
291
     1
 45
0.0
1001
ACAD
1000
AcDbSavedByObjectVersion
1070
     0
  0
VISUALSTYLE
  5
4981
102
{ACAD_XDICTIONARY
360
4AF0
102
}
102
{ACAD_REACTORS
330
4973
102
}
330
4973
100
AcDbVisualStyle
  2
Linepattern
 70
    14
 71
     2
 72
     2
 73
     0
 90
        0
 40
-0.6
 41
-30.0
 62
     5
 63
     7
421
 16777215
 74
     1
 91
        4
 64
     7
 65
   257
 75
     7
175
     7
 42
1.0
 92
        8
 66
     7
 43
1.0
 76
     1
 77
     6
 78
     2
 67
     7
 79
     5
170
     0
171
     0
290
     0
174
     0
 93
        1
 44
0.0
173
     0
291
     1
 45
0.0
1001
ACAD
1000
AcDbSavedByObjectVersion
1070
     0
  0
VISUALSTYLE
  5
498A
102
{ACAD_XDICTIONARY
360
4B02
102
}
102
{ACAD_REACTORS
330
4973
102
}
330
4973
100
AcDbVisualStyle
  2
OverhangOff
 70
    21
 71
     2
 72
     2
 73
     0
 90
        0
 40
-0.6
 41
-30.0
 62
     5
 63
     7
421
 16777215
 74
     1
 91
        4
 64
     7
 65
   257
 75
     1
175
     1
 42
1.0
 92
        9
 66
     7
 43
1.0
 76
     1
 77
     6
 78
     2
 67
     7
 79
     5
170
     0
171
     0
290
     0
174
     0
 93
        1
 44
0.0
173
     0
291
     1
 45
0.0
1001
ACAD
1000
AcDbSavedByObjectVersion
1070
     0
  0
VISUALSTYLE
  5
497D
102
{ACAD_XDICTIONARY
360
4AE8
102
}
102
{ACAD_REACTORS
330
4973
102
}
330
4973
100
AcDbVisualStyle
  2
Realistic
 70
     8
 71
     2
 72
     3
 73
     0
 90
        2
 40
-0.6
 41
30.0
 62
     5
 63
     7
421
 16777215
 74
     0
 91
        0
 64
     7
 65
   257
 75
     1
175
     1
 42
1.0
 92
        8
 66
   257
 43
1.0
 76
     1
 77
     6
 78
     2
 67
     7
 79
     3
170
     0
171
     0
290
     0
174
     0
 93
       13
 44
0.0
173
     0
291
     0
 45
0.0
1001
ACAD
1000
AcDbSavedByObjectVersion
1070
     0
  0
VISUALSTYLE
  5
4988
102
{ACAD_XDICTIONARY
360
4AFE
102
}
102
{ACAD_REACTORS
330
4973
102
}
330
4973
100
AcDbVisualStyle
  2
Shaded
 70
    27
 71
     2
 72
     2
 73
     1
 90
        2
 40
-0.6
 41
30.0
 62
     5
 63
     7
421
 16777215
 74
     0
 91
        4
 64
     7
 65
   257
 75
     1
175
     1
 42
1.0
 92
        8
 66
   257
 43
1.0
 76
     1
 77
     6
 78
     2
 67
     8
425
  7895160
 79
     3
170
     0
171
     0
290
     0
174
     0
 93
        5
 44
0.0
173
     0
291
     0
 45
0.0
1001
ACAD
1000
AcDbSavedByObjectVersion
1070
     0
  0
VISUALSTYLE
  5
4987
102
{ACAD_XDICTIONARY
360
4AFC
102
}
102
{ACAD_REACTORS
330
4973
102
}
330
4973
100
AcDbVisualStyle
  2
Shaded with edges
 70
    26
 71
     2
 72
     2
 73
     1
 90
        2
 40
-0.6
 41
30.0
 62
     5
 63
     7
421
 16777215
 74
     1
 91
       10
 64
     7
 65
   257
 75
     2
175
     1
 42
1.0
 92
        8
 66
   257
 43
1.0
 76
     1
 77
     6
 78
     2
 67
     7
 79
     3
170
     0
171
     0
290
     0
174
     0
 93
        5
 44
0.0
173
     0
291
     0
 45
0.0
1001
ACAD
1000
AcDbSavedByObjectVersion
1070
     0
  0
VISUALSTYLE
  5
4984
102
{ACAD_XDICTIONARY
360
4AF6
102
}
102
{ACAD_REACTORS
330
4973
102
}
330
4973
100
AcDbVisualStyle
  2
Shades of Gray
 70
    23
 71
     2
 72
     2
 73
     3
 90
        0
 40
-0.6
 41
-30.0
 62
     5
 63
     7
421
 16777215
 74
     2
 91
        2
 64
     7
 65
     7
 75
     1
175
     1
 42
40.0
 92
        8
 66
     7
 43
1.0
 76
     1
 77
     6
 78
     2
 67
     7
 79
     3
170
     0
171
     0
290
     0
174
     0
 93
        1
 44
0.0
173
     0
291
     0
 45
0.0
1001
ACAD
1000
AcDbSavedByObjectVersion
1070
     0
  0
VISUALSTYLE
  5
4985
102
{ACAD_XDICTIONARY
360
4AF8
102
}
102
{ACAD_REACTORS
330
4973
102
}
330
4973
100
AcDbVisualStyle
  2
Sketchy
 70
    24
 71
     1
 72
     2
 73
     2
 90
        0
 40
-0.6
 41
-30.0
 62
     5
 63
     7
421
 16777215
 74
     2
 91
        2
 64
     7
 65
     7
 75
     1
175
     1
 42
40.0
 92
       11
 66
     7
 43
1.0
 76
     1
 77
     6
 78
     2
 67
     7
 79
     6
170
     0
171
     0
290
     0
174
     0
 93
        1
 44
0.0
173
     0
291
     0
 45
0.0
1001
ACAD
1000
AcDbSavedByObjectVersion
1070
     0
  0
VISUALSTYLE
  5
4980
102
{ACAD_XDICTIONARY
360
4AEE
102
}
102
{ACAD_REACTORS
330
4973
102
}
330
4973
100
AcDbVisualStyle
  2
Thicken
 70
    13
 71
     2
 72
     2
 73
     0
 90
        0
 40
-0.6
 41
-30.0
 62
     5
 63
     7
421
 16777215
 74
     1
 91
        4
 64
     7
 65
   257
 75
     1
175
     1
 42
1.0
 92
       12
 66
     7
 43
1.0
 76
     1
 77
     6
 78
     2
 67
     7
 79
     5
170
     0
171
     0
290
     0
174
     0
 93
        1
 44
0.0
173
     0
291
     1
 45
0.0
1001
ACAD
1000
AcDbSavedByObjectVersion
1070
     0
  0
VISUALSTYLE
  5
497A
102
{ACAD_XDICTIONARY
360
4AE2
102
}
102
{ACAD_REACTORS
330
4973
102
}
330
4973
100
AcDbVisualStyle
  2
Wireframe
 70
     5
 71
     0
 72
     2
 73
     0
 90
        0
 40
-0.6
 41
-30.0
 62
     5
 63
     7
421
 16777215
 74
     1
 91
        4
 64
     7
 65
   257
 75
     1
175
     1
 42
1.0
 92
        0
 66
   257
 43
1.0
 76
     1
 77
     6
 78
     2
 67
     7
 79
     3
170
     0
171
     0
290
     0
174
     0
 93
        1
 44
0.0
173
     0
291
     0
 45
0.0
1001
ACAD
1000
AcDbSavedByObjectVersion
1070
     0
  0
VISUALSTYLE
  5
4986
102
{ACAD_XDICTIONARY
360
4AFA
102
}
102
{ACAD_REACTORS
330
4973
102
}
330
4973
100
AcDbVisualStyle
  2
X-Ray
 70
    25
 71
     2
 72
     2
 73
     1
 90
        1
 40
0.5
 41
-30.0
 62
     5
 63
     7
421
 16777215
 74
     1
 91
        0
 64
     7
 65
   257
 75
     1
175
     1
 42
1.0
 92
        8
 66
     7
 43
1.0
 76
     1
 77
     6
 78
     2
 67
     7
 79
     3
170
     0
171
     0
290
     0
174
     0
 93
       13
 44
0.0
173
     0
291
     0
 45
0.0
1001
ACAD
1000
AcDbSavedByObjectVersion
1070
     0
  0
DICTIONARYVAR
  5
4A65
102
{ACAD_REACTORS
330
7F0
102
}
330
7F0
100
DictionaryVariables
280
     0
  1
1:1
  0
DICTIONARYVAR
  5
4A61
102
{ACAD_REACTORS
330
7F0
102
}
330
7F0
100
DictionaryVariables
280
     0
  1
STANDARD
  0
DICTIONARYVAR
  5
4A60
102
{ACAD_REACTORS
330
7F0
102
}
330
7F0
100
DictionaryVariables
280
     0
  1
STANDARD
  0
DICTIONARYVAR
  5
4A62
102
{ACAD_REACTORS
330
7F0
102
}
330
7F0
100
DictionaryVariables
280
     0
  1
Imperial24
  0
DICTIONARYVAR
  5
4A63
102
{ACAD_REACTORS
330
7F0
102
}
330
7F0
100
DictionaryVariables
280
     0
  1
Imperial24
  0
DICTIONARYVAR
  5
2258
102
{ACAD_REACTORS
330
7F0
102
}
330
7F0
100
DictionaryVariables
280
     0
  1
1
  0
DICTIONARYVAR
  5
4A67
102
{ACAD_REACTORS
330
7F0
102
}
330
7F0
100
DictionaryVariables
280
     0
  1
1
  0
DICTIONARYVAR
  5
4A68
102
{ACAD_REACTORS
330
7F0
102
}
330
7F0
100
DictionaryVariables
280
     0
  1
15
  0
DICTIONARYVAR
  5
4A66
102
{ACAD_REACTORS
330
7F0
102
}
330
7F0
100
DictionaryVariables
280
     0
  1
0
  0
DICTIONARYVAR
  5
4A64
102
{ACAD_REACTORS
330
7F0
102
}
330
7F0
100
DictionaryVariables
280
     0
  1
0
  0
DICTIONARYVAR
  5
7F1
102
{ACAD_REACTORS
330
7F0
102
}
330
7F0
100
DictionaryVariables
280
     0
  1
96
  0
DICTIONARYVAR
  5
4AC7
102
{ACAD_REACTORS
330
7F0
102
}
330
7F0
100
DictionaryVariables
280
     0
  1
2
  0
DICTIONARY
  5
4AD2
102
{ACAD_REACTORS
330
4AD0
102
}
330
4AD0
100
AcDbDictionary
281
     1
  0
DICTIONARY
  5
4AD1
102
{ACAD_REACTORS
330
4AD0
102
}
330
4AD0
100
AcDbDictionary
281
     1
  3
140695674178352
350
4ACB
  3
140695674178368
350
4ACC
  3
140695674178384
350
4ACD
  3
140695674178400
350
4ACE
  3
140695674178416
350
4ACF
  0
DICTIONARY
  5
4964
330
4963
100
AcDbDictionary
280
     1
281
     1
  3
ACAD_XREC_ROUNDTRIP
360
4AD4
  3
BUMPTILE
360
4966
  3
DIFFUSETILE
360
4965
  3
OPACITYTILE
360
4969
  3
REFLECTIONTILE
360
4968
  3
REFRACTIONTILE
360
496A
  3
SPECULARTILE
360
4967
  0
DICTIONARY
  5
495C
330
495B
100
AcDbDictionary
280
     1
281
     1
  3
ACAD_XREC_ROUNDTRIP
360
4AD3
  3
BUMPTILE
360
495E
  3
DIFFUSETILE
360
495D
  3
OPACITYTILE
360
4961
  3
REFLECTIONTILE
360
4960
  3
REFRACTIONTILE
360
4962
  3
SPECULARTILE
360
495F
  0
DICTIONARY
  5
496C
330
496B
100
AcDbDictionary
280
     1
281
     1
  3
ACAD_XREC_ROUNDTRIP
360
4AD5
  3
BUMPTILE
360
496E
  3
DIFFUSETILE
360
496D
  3
OPACITYTILE
360
4971
  3
REFLECTIONTILE
360
4970
  3
REFRACTIONTILE
360
4972
  3
SPECULARTILE
360
496F
  0
DICTIONARY
  5
4B08
330
49A2
100
AcDbDictionary
280
     1
281
     1
  3
ACAD_XREC_ROUNDTRIP
360
4B09
  0
DICTIONARY
  5
4AC8
330
498E
100
AcDbDictionary
280
     1
281
     1
  3
ACAD_ROUNDTRIP_2008_TABLESTYLE_CELLSTYLEMAP
360
4AC9
  3
ACAD_XREC_ROUNDTRIP
360
4B06
  0
DICTIONARY
  5
4AE0
330
4979
100
AcDbDictionary
280
     1
281
     1
  3
ACAD_XREC_ROUNDTRIP
360
4AE1
  0
DICTIONARY
  5
4ADE
330
4978
100
AcDbDictionary
280
     1
281
     1
  3
ACAD_XREC_ROUNDTRIP
360
4ADF
  0
DICTIONARY
  5
4AEC
330
497F
100
AcDbDictionary
280
     1
281
     1
  3
ACAD_XREC_ROUNDTRIP
360
4AED
  0
DICTIONARY
  5
4AF4
330
4983
100
AcDbDictionary
280
     1
281
     1
  3
ACAD_XREC_ROUNDTRIP
360
4AF5
  0
DICTIONARY
  5
4AE6
330
497C
100
AcDbDictionary
280
     1
281
     1
  3
ACAD_XREC_ROUNDTRIP
360
4AE7
  0
DICTIONARY
  5
4AEA
330
497E
100
AcDbDictionary
280
     1
281
     1
  3
ACAD_XREC_ROUNDTRIP
360
4AEB
  0
DICTIONARY
  5
4B04
330
498B
100
AcDbDictionary
280
     1
281
     1
  3
ACAD_XREC_ROUNDTRIP
360
4B05
  0
DICTIONARY
  5
4AF2
330
4982
100
AcDbDictionary
280
     1
281
     1
  3
ACAD_XREC_ROUNDTRIP
360
4AF3
  0
DICTIONARY
  5
4AD6
330
4974
100
AcDbDictionary
280
     1
281
     1
  3
ACAD_XREC_ROUNDTRIP
360
4AD7
  0
DICTIONARY
  5
4AD8
330
4975
100
AcDbDictionary
280
     1
281
     1
  3
ACAD_XREC_ROUNDTRIP
360
4AD9
  0
DICTIONARY
  5
4ADA
330
4976
100
AcDbDictionary
280
     1
281
     1
  3
ACAD_XREC_ROUNDTRIP
360
4ADB
  0
DICTIONARY
  5
4ADC
330
4977
100
AcDbDictionary
280
     1
281
     1
  3
ACAD_XREC_ROUNDTRIP
360
4ADD
  0
DICTIONARY
  5
4AE4
330
497B
100
AcDbDictionary
280
     1
281
     1
  3
ACAD_XREC_ROUNDTRIP
360
4AE5
  0
DICTIONARY
  5
4B00
330
4989
100
AcDbDictionary
280
     1
281
     1
  3
ACAD_XREC_ROUNDTRIP
360
4B01
  0
DICTIONARY
  5
4AF0
330
4981
100
AcDbDictionary
280
     1
281
     1
  3
ACAD_XREC_ROUNDTRIP
360
4AF1
  0
DICTIONARY
  5
4B02
330
498A
100
AcDbDictionary
280
     1
281
     1
  3
ACAD_XREC_ROUNDTRIP
360
4B03
  0
DICTIONARY
  5
4AE8
330
497D
100
AcDbDictionary
280
     1
281
     1
  3
ACAD_XREC_ROUNDTRIP
360
4AE9
  0
DICTIONARY
  5
4AFE
330
4988
100
AcDbDictionary
280
     1
281
     1
  3
ACAD_XREC_ROUNDTRIP
360
4AFF
  0
DICTIONARY
  5
4AFC
330
4987
100
AcDbDictionary
280
     1
281
     1
  3
ACAD_XREC_ROUNDTRIP
360
4AFD
  0
DICTIONARY
  5
4AF6
330
4984
100
AcDbDictionary
280
     1
281
     1
  3
ACAD_XREC_ROUNDTRIP
360
4AF7
  0
DICTIONARY
  5
4AF8
330
4985
100
AcDbDictionary
280
     1
281
     1
  3
ACAD_XREC_ROUNDTRIP
360
4AF9
  0
DICTIONARY
  5
4AEE
330
4980
100
AcDbDictionary
280
     1
281
     1
  3
ACAD_XREC_ROUNDTRIP
360
4AEF
  0
DICTIONARY
  5
4AE2
330
497A
100
AcDbDictionary
280
     1
281
     1
  3
ACAD_XREC_ROUNDTRIP
360
4AE3
  0
DICTIONARY
  5
4AFA
330
4986
100
AcDbDictionary
280
     1
281
     1
  3
ACAD_XREC_ROUNDTRIP
360
4AFB
  0
XRECORD
  5
4ACB
102
{ACAD_REACTORS
330
4AD1
102
}
330
4AD1
100
AcDbXrecord
280
     1
  1
AcDb_Thumbnail_Schema
102
{ATTRRECORD
341
4ACC
  2
AcDbDs::TreatedAsObjectData
280
     1
291
     1
102
ATTRRECORD}
102
{ATTRRECORD
341
4ACD
  2
AcDbDs::Legacy
280
     1
291
     1
102
ATTRRECORD}
  2
AcDbDs::ID
280
    10
 91
        8
102
{ATTRRECORD
341
4ACE
  2
AcDs:Indexable
280
     1
291
     1
102
ATTRRECORD}
102
{ATTRRECORD
341
4ACF
  2
AcDbDs::HandleAttribute
280
     7
282
     1
102
ATTRRECORD}
  2
Thumbnail_Data
280
    15
 91
        0
  0
XRECORD
  5
4ACC
102
{ACAD_REACTORS
330
4AD1
102
}
330
4AD1
100
AcDbXrecord
280
     1
  1
AcDbDs::TreatedAsObjectDataSchema
  2
AcDbDs::TreatedAsObjectData
280
     1
 91
        0
  0
XRECORD
  5
4ACD
102
{ACAD_REACTORS
330
4AD1
102
}
330
4AD1
100
AcDbXrecord
280
     1
  1
AcDbDs::LegacySchema
  2
AcDbDs::Legacy
280
     1
 91
        0
  0
XRECORD
  5
4ACE
102
{ACAD_REACTORS
330
4AD1
102
}
330
4AD1
100
AcDbXrecord
280
     1
  1
AcDbDs::IndexedPropertySchema
  2
AcDs:Indexable
280
     1
 91
        0
  0
XRECORD
  5
4ACF
102
{ACAD_REACTORS
330
4AD1
102
}
330
4AD1
100
AcDbXrecord
280
     1
  1
AcDbDs::HandleAttributeSchema
  2
AcDbDs::HandleAttribute
280
     7
 91
        1
284
     1
  0
XRECORD
  5
4AD4
102
{ACAD_REACTORS
330
4964
102
}
330
4964
100
AcDbXrecord
280
     1
102
MATERIAL
148
0.0
149
0.0
149
0.0
 93
        0
 94
      127
282
     0
 72
     0
 77
     0
171
     0
175
     0
179
     0
273
     0
  0
XRECORD
  5
4966
102
{ACAD_REACTORS
330
4964
102
}
330
4964
100
AcDbXrecord
280
     1
270
     1
271
     1
  0
XRECORD
  5
4965
102
{ACAD_REACTORS
330
4964
102
}
330
4964
100
AcDbXrecord
280
     1
270
     1
271
     1
  0
XRECORD
  5
4969
102
{ACAD_REACTORS
330
4964
102
}
330
4964
100
AcDbXrecord
280
     1
270
     1
271
     1
  0
XRECORD
  5
4968
102
{ACAD_REACTORS
330
4964
102
}
330
4964
100
AcDbXrecord
280
     1
270
     1
271
     1
  0
XRECORD
  5
496A
102
{ACAD_REACTORS
330
4964
102
}
330
4964
100
AcDbXrecord
280
     1
270
     1
271
     1
  0
XRECORD
  5
4967
102
{ACAD_REACTORS
330
4964
102
}
330
4964
100
AcDbXrecord
280
     1
270
     1
271
     1
  0
XRECORD
  5
4AD3
102
{ACAD_REACTORS
330
495C
102
}
330
495C
100
AcDbXrecord
280
     1
102
MATERIAL
148
0.0
149
0.0
149
0.0
 93
        0
 94
      127
282
     0
 72
     0
 77
     0
171
     0
175
     0
179
     0
273
     0
  0
XRECORD
  5
495E
102
{ACAD_REACTORS
330
495C
102
}
330
495C
100
AcDbXrecord
280
     1
270
     1
271
     1
  0
XRECORD
  5
495D
102
{ACAD_REACTORS
330
495C
102
}
330
495C
100
AcDbXrecord
280
     1
270
     1
271
     1
  0
XRECORD
  5
4961
102
{ACAD_REACTORS
330
495C
102
}
330
495C
100
AcDbXrecord
280
     1
270
     1
271
     1
  0
XRECORD
  5
4960
102
{ACAD_REACTORS
330
495C
102
}
330
495C
100
AcDbXrecord
280
     1
270
     1
271
     1
  0
XRECORD
  5
4962
102
{ACAD_REACTORS
330
495C
102
}
330
495C
100
AcDbXrecord
280
     1
270
     1
271
     1
  0
XRECORD
  5
495F
102
{ACAD_REACTORS
330
495C
102
}
330
495C
100
AcDbXrecord
280
     1
270
     1
271
     1
  0
XRECORD
  5
4AD5
102
{ACAD_REACTORS
330
496C
102
}
330
496C
100
AcDbXrecord
280
     1
102
MATERIAL
148
0.0
149
0.0
149
0.0
 93
        0
 94
      127
282
     0
 72
     0
 77
     0
171
     0
175
     0
179
     0
273
     0
  0
XRECORD
  5
496E
102
{ACAD_REACTORS
330
496C
102
}
330
496C
100
AcDbXrecord
280
     1
270
     1
271
     1
  0
XRECORD
  5
496D
102
{ACAD_REACTORS
330
496C
102
}
330
496C
100
AcDbXrecord
280
     1
270
     1
271
     1
  0
XRECORD
  5
4971
102
{ACAD_REACTORS
330
496C
102
}
330
496C
100
AcDbXrecord
280
     1
270
     1
271
     1
  0
XRECORD
  5
4970
102
{ACAD_REACTORS
330
496C
102
}
330
496C
100
AcDbXrecord
280
     1
270
     1
271
     1
  0
XRECORD
  5
4972
102
{ACAD_REACTORS
330
496C
102
}
330
496C
100
AcDbXrecord
280
     1
270
     1
271
     1
  0
XRECORD
  5
496F
102
{ACAD_REACTORS
330
496C
102
}
330
496C
100
AcDbXrecord
280
     1
270
     1
271
     1
  0
XRECORD
  5
4B09
102
{ACAD_REACTORS
330
4B08
102
}
330
4B08
100
AcDbXrecord
280
     1
102
ACAD_ROUNDTRIP_2012_MLEADER_STYLE
298
     1
  0
CELLSTYLEMAP
  5
4AC9
102
{ACAD_REACTORS
330
4AC8
102
}
330
4AC8
100
AcDbCellStyleMap
 90
        3
300
CELLSTYLE
  1
TABLEFORMAT_BEGIN
 90
        5
170
     1
 91
        0
 92
    32768
 62
   257
 93
        1
300
CONTENTFORMAT
  1
CONTENTFORMAT_BEGIN
 90
        0
 91
        0
 92
      512
 93
        0
300

 40
0.0
140
1.0
 94
        5
 62
     0
340
F
144
0.25
309
CONTENTFORMAT_END
171
     0
 94
        0
309
TABLEFORMAT_END
  1
CELLSTYLE_BEGIN
 90
        1
 91
        1
300
_TITLE
309
CELLSTYLE_END
300
CELLSTYLE
  1
TABLEFORMAT_BEGIN
 90
        5
170
     1
 91
        0
 92
        0
 62
   257
 93
        1
300
CONTENTFORMAT
  1
CONTENTFORMAT_BEGIN
 90
        0
 91
        0
 92
      512
 93
        0
300

 40
0.0
140
1.0
 94
        5
 62
     0
340
F
144
0.18
309
CONTENTFORMAT_END
171
     0
 94
        0
309
TABLEFORMAT_END
  1
CELLSTYLE_BEGIN
 90
        2
 91
        1
300
_HEADER
309
CELLSTYLE_END
300
CELLSTYLE
  1
TABLEFORMAT_BEGIN
 90
        5
170
     1
 91
        0
 92
        0
 62
   257
 93
        1
300
CONTENTFORMAT
  1
CONTENTFORMAT_BEGIN
 90
        0
 91
        0
 92
      512
 93
        0
300

 40
0.0
140
1.0
 94
        2
 62
     0
340
F
144
0.18
309
CONTENTFORMAT_END
171
     0
 94
        0
309
TABLEFORMAT_END
  1
CELLSTYLE_BEGIN
 90
        3
 91
        2
300
_DATA
309
CELLSTYLE_END
  0
XRECORD
  5
4B06
102
{ACAD_REACTORS
330
4AC8
102
}
330
4AC8
100
AcDbXrecord
280
     1
102
ACAD_ROUNDTRIP_PRE2007_TABLESTYLE
 90
      512
 91
        0
  1

 92
      512
 93
        0
  2

 94
      512
 95
        0
  3

  0
XRECORD
  5
4AE1
102
{ACAD_REACTORS
330
4AE0
102
}
330
4AE0
100
AcDbXrecord
280
     1
102
RTVSPost2010Prop28
280
     1
102
RTVSPost2010PropOp28
 70
     1
102
RTVSPost2010Prop29
280
     1
102
RTVSPost2010PropOp29
 70
     1
102
RTVSPost2010Prop30
280
     0
102
RTVSPost2010PropOp30
 70
     1
102
RTVSPost2010Prop31
280
     0
102
RTVSPost2010PropOp31
 70
     1
102
RTVSPost2010Prop32
280
     0
102
RTVSPost2010PropOp32
 70
     1
102
RTVSPost2010Prop33
280
     0
102
RTVSPost2010PropOp33
 70
     1
102
RTVSPost2010Prop34
280
     0
102
RTVSPost2010PropOp34
 70
     1
102
RTVSPost2010Prop35
280
     0
102
RTVSPost2010PropOp35
 70
     1
102
RTVSPost2010Prop36
280
     0
102
RTVSPost2010PropOp36
 70
     1
102
RTVSPost2010Prop37
 90
       50
102
RTVSPost2010PropOp37
 70
     1
102
RTVSPost2010Prop38
140
0.0
102
RTVSPost2010PropOp38
 70
     1
102
RTVSPost2010Prop39
140
1.0
102
RTVSPost2010PropOp39
 70
     1
102
RTVSPost2010Prop40
 90
        0
102
RTVSPost2010PropOp40
 70
     1
102
RTVSPost2010Prop41ColorIndex
 90
       18
102
RTVSPost2010Prop41ColorRGB
 90
        0
102
RTVSPost2010PropOp41
 70
     1
102
RTVSPost2010Prop42
 90
       50
102
RTVSPost2010PropOp42
 70
     1
102
RTVSPost2010Prop43
 90
        3
102
RTVSPost2010PropOp43
 70
     1
102
RTVSPost2010Prop44ColorIndex
 90
        5
102
RTVSPost2010Prop44ColorRGB
 90
      255
102
RTVSPost2010PropOp44
 70
     1
102
RTVSPost2010Prop45
280
     0
102
RTVSPost2010PropOp45
 70
     1
102
RTVSPost2010Prop46
 90
       50
102
RTVSPost2010PropOp46
 70
     1
102
RTVSPost2010Prop47
 90
       50
102
RTVSPost2010PropOp47
 70
     1
102
RTVSPost2010Prop48
 90
       50
102
RTVSPost2010PropOp48
 70
     1
102
RTVSPost2010Prop49
280
     0
102
RTVSPost2010PropOp49
 70
     1
102
RTVSPost2010Prop50
 90
       50
102
RTVSPost2010PropOp50
 70
     1
102
RTVSPost2010Prop51ColorIndex
 90
      256
102
RTVSPost2010Prop51ColorRGB
 90
-16777216
102
RTVSPost2010PropOp51
 70
     0
102
RTVSPost2010Prop52
140
1.0
102
RTVSPost2010PropOp52
 70
     0
102
RTVSPost2010Prop53
 90
        2
102
RTVSPost2010PropOp53
 70
     1
102
RTVSPost2010Prop54
  1
strokes_ogs.tif
102
RTVSPost2010PropOp54
 70
     1
102
RTVSPost2010Prop55
280
     0
102
RTVSPost2010PropOp55
 70
     1
102
RTVSPost2010Prop56
140
1.0
102
RTVSPost2010PropOp56
 70
     1
102
RTVSPost2010Prop57
140
1.0
102
RTVSPost2010PropOp57
 70
     1
102
RTVSPropertyOp0
 70
     1
102
RTVSPropertyOp1
 70
     1
102
RTVSPropertyOp2
 70
     1
102
RTVSPropertyOp3
 70
     1
102
RTVSPropertyOp4
 70
     1
102
RTVSPropertyOp5
 70
     1
102
RTVSPropertyOp6
 70
     1
102
RTVSPropertyOp7
 70
     1
102
RTVSPropertyOp8
 70
     1
102
RTVSPropertyOp9
 70
     1
102
RTVSPropertyOp10
 70
     1
102
RTVSPropertyOp11
 70
     1
102
RTVSPropertyOp12
 70
     1
102
RTVSPropertyOp13
 70
     1
102
RTVSPropertyOp14
 70
     1
102
RTVSPropertyOp15
 70
     1
102
RTVSPropertyOp16
 70
     1
102
RTVSPropertyOp17
 70
     1
102
RTVSPropertyOp18
 70
     1
102
RTVSPropertyOp19
 70
     1
102
RTVSPropertyOp20
 70
     1
102
RTVSPropertyOp21
 70
     1
102
RTVSPropertyOp22
 70
     1
102
RTVSPropertyOp23
 70
     1
102
RTVSPropertyOp24
 70
     1
102
RTVSPropertyOp25
 70
     1
102
RTVSPropertyOp26
 70
     1
102
RTVSPropertyOp27
 70
     1
102
RTVSPropertyOp28
 70
     1
102
RTVSPropertyOp29
 70
     1
102
RTVSPropertyOp30
 70
     1
102
RTVSPropertyOp31
 70
     1
102
RTVSPropertyOp32
 70
     1
102
RTVSPropertyOp33
 70
     1
102
RTVSPropertyOp34
 70
     1
102
RTVSPropertyOp35
 70
     1
102
RTVSPropertyOp36
 70
     1
102
RTVSPropertyOp37
 70
     1
102
RTVSPropertyOp38
 70
     1
102
RTVSPropertyOp39
 70
     1
102
RTVSPropertyOp40
 70
     1
102
RTVSPropertyOp41
 70
     1
102
RTVSPropertyOp42
 70
     1
102
RTVSPropertyOp43
 70
     1
102
RTVSPropertyOp44
 70
     1
102
RTVSPropertyOp45
 70
     1
102
RTVSPropertyOp46
 70
     1
102
RTVSPropertyOp47
 70
     1
102
RTVSPropertyOp48
 70
     1
102
RTVSPropertyOp49
 70
     1
102
RTVSPropertyOp50
 70
     1
102
RTVSPropertyOp51
 70
     0
102
RTVSPropertyOp52
 70
     0
102
RTVSPropertyOp53
 70
     1
102
RTVSPropertyOp54
 70
     1
102
RTVSPropertyOp55
 70
     1
102
RTVSPropertyOp56
 70
     1
102
RTVSPropertyOp57
 70
     1
102
RTVSPropertyOp58
 70
     1
102
RTVSPropertyOp59
 70
     1
102
RTVSPropertyOp60
 70
     1
102
RTVSPropertyOp61
 70
     1
102
RTVSPropertyOp62
 70
     1
  0
XRECORD
  5
4ADF
102
{ACAD_REACTORS
330
4ADE
102
}
330
4ADE
100
AcDbXrecord
280
     1
102
RTVSPost2010Prop28
280
     0
102
RTVSPost2010PropOp28
 70
     1
102
RTVSPost2010Prop29
280
     1
102
RTVSPost2010PropOp29
 70
     1
102
RTVSPost2010Prop30
280
     1
102
RTVSPost2010PropOp30
 70
     1
102
RTVSPost2010Prop31
280
     0
102
RTVSPost2010PropOp31
 70
     1
102
RTVSPost2010Prop32
280
     0
102
RTVSPost2010PropOp32
 70
     1
102
RTVSPost2010Prop33
280
     0
102
RTVSPost2010PropOp33
 70
     1
102
RTVSPost2010Prop34
280
     0
102
RTVSPost2010PropOp34
 70
     1
102
RTVSPost2010Prop35
280
     0
102
RTVSPost2010PropOp35
 70
     1
102
RTVSPost2010Prop36
280
     0
102
RTVSPost2010PropOp36
 70
     1
102
RTVSPost2010Prop37
 90
       50
102
RTVSPost2010PropOp37
 70
     1
102
RTVSPost2010Prop38
140
0.0
102
RTVSPost2010PropOp38
 70
     1
102
RTVSPost2010Prop39
140
1.0
102
RTVSPost2010PropOp39
 70
     1
102
RTVSPost2010Prop40
 90
        0
102
RTVSPost2010PropOp40
 70
     1
102
RTVSPost2010Prop41ColorIndex
 90
       18
102
RTVSPost2010Prop41ColorRGB
 90
        0
102
RTVSPost2010PropOp41
 70
     1
102
RTVSPost2010Prop42
 90
       50
102
RTVSPost2010PropOp42
 70
     1
102
RTVSPost2010Prop43
 90
        3
102
RTVSPost2010PropOp43
 70
     1
102
RTVSPost2010Prop44ColorIndex
 90
        5
102
RTVSPost2010Prop44ColorRGB
 90
      255
102
RTVSPost2010PropOp44
 70
     1
102
RTVSPost2010Prop45
280
     0
102
RTVSPost2010PropOp45
 70
     1
102
RTVSPost2010Prop46
 90
       50
102
RTVSPost2010PropOp46
 70
     1
102
RTVSPost2010Prop47
 90
       50
102
RTVSPost2010PropOp47
 70
     1
102
RTVSPost2010Prop48
 90
       50
102
RTVSPost2010PropOp48
 70
     1
102
RTVSPost2010Prop49
280
     0
102
RTVSPost2010PropOp49
 70
     1
102
RTVSPost2010Prop50
 90
       50
102
RTVSPost2010PropOp50
 70
     1
102
RTVSPost2010Prop51ColorIndex
 90
      256
102
RTVSPost2010Prop51ColorRGB
 90
-16777216
102
RTVSPost2010PropOp51
 70
     0
102
RTVSPost2010Prop52
140
1.0
102
RTVSPost2010PropOp52
 70
     0
102
RTVSPost2010Prop53
 90
        2
102
RTVSPost2010PropOp53
 70
     1
102
RTVSPost2010Prop54
  1
strokes_ogs.tif
102
RTVSPost2010PropOp54
 70
     1
102
RTVSPost2010Prop55
280
     0
102
RTVSPost2010PropOp55
 70
     1
102
RTVSPost2010Prop56
140
1.0
102
RTVSPost2010PropOp56
 70
     1
102
RTVSPost2010Prop57
140
1.0
102
RTVSPost2010PropOp57
 70
     1
102
RTVSPropertyOp0
 70
     1
102
RTVSPropertyOp1
 70
     1
102
RTVSPropertyOp2
 70
     1
102
RTVSPropertyOp3
 70
     1
102
RTVSPropertyOp4
 70
     1
102
RTVSPropertyOp5
 70
     1
102
RTVSPropertyOp6
 70
     1
102
RTVSPropertyOp7
 70
     1
102
RTVSPropertyOp8
 70
     1
102
RTVSPropertyOp9
 70
     1
102
RTVSPropertyOp10
 70
     1
102
RTVSPropertyOp11
 70
     1
102
RTVSPropertyOp12
 70
     1
102
RTVSPropertyOp13
 70
     1
102
RTVSPropertyOp14
 70
     1
102
RTVSPropertyOp15
 70
     1
102
RTVSPropertyOp16
 70
     1
102
RTVSPropertyOp17
 70
     1
102
RTVSPropertyOp18
 70
     1
102
RTVSPropertyOp19
 70
     1
102
RTVSPropertyOp20
 70
     1
102
RTVSPropertyOp21
 70
     1
102
RTVSPropertyOp22
 70
     1
102
RTVSPropertyOp23
 70
     1
102
RTVSPropertyOp24
 70
     1
102
RTVSPropertyOp25
 70
     1
102
RTVSPropertyOp26
 70
     1
102
RTVSPropertyOp27
 70
     1
102
RTVSPropertyOp28
 70
     1
102
RTVSPropertyOp29
 70
     1
102
RTVSPropertyOp30
 70
     1
102
RTVSPropertyOp31
 70
     1
102
RTVSPropertyOp32
 70
     1
102
RTVSPropertyOp33
 70
     1
102
RTVSPropertyOp34
 70
     1
102
RTVSPropertyOp35
 70
     1
102
RTVSPropertyOp36
 70
     1
102
RTVSPropertyOp37
 70
     1
102
RTVSPropertyOp38
 70
     1
102
RTVSPropertyOp39
 70
     1
102
RTVSPropertyOp40
 70
     1
102
RTVSPropertyOp41
 70
     1
102
RTVSPropertyOp42
 70
     1
102
RTVSPropertyOp43
 70
     1
102
RTVSPropertyOp44
 70
     1
102
RTVSPropertyOp45
 70
     1
102
RTVSPropertyOp46
 70
     1
102
RTVSPropertyOp47
 70
     1
102
RTVSPropertyOp48
 70
     1
102
RTVSPropertyOp49
 70
     1
102
RTVSPropertyOp50
 70
     1
102
RTVSPropertyOp51
 70
     0
102
RTVSPropertyOp52
 70
     0
102
RTVSPropertyOp53
 70
     1
102
RTVSPropertyOp54
 70
     1
102
RTVSPropertyOp55
 70
     1
102
RTVSPropertyOp56
 70
     1
102
RTVSPropertyOp57
 70
     1
102
RTVSPropertyOp58
 70
     1
102
RTVSPropertyOp59
 70
     1
102
RTVSPropertyOp60
 70
     1
102
RTVSPropertyOp61
 70
     1
102
RTVSPropertyOp62
 70
     1
  0
XRECORD
  5
4AED
102
{ACAD_REACTORS
330
4AEC
102
}
330
4AEC
100
AcDbXrecord
280
     1
102
RTVSPost2010Prop28
280
     0
102
RTVSPost2010PropOp28
 70
     1
102
RTVSPost2010Prop29
280
     1
102
RTVSPost2010PropOp29
 70
     1
102
RTVSPost2010Prop30
280
     1
102
RTVSPost2010PropOp30
 70
     1
102
RTVSPost2010Prop31
280
     0
102
RTVSPost2010PropOp31
 70
     1
102
RTVSPost2010Prop32
280
     0
102
RTVSPost2010PropOp32
 70
     1
102
RTVSPost2010Prop33
280
     0
102
RTVSPost2010PropOp33
 70
     1
102
RTVSPost2010Prop34
280
     0
102
RTVSPost2010PropOp34
 70
     1
102
RTVSPost2010Prop35
280
     0
102
RTVSPost2010PropOp35
 70
     1
102
RTVSPost2010Prop36
280
     0
102
RTVSPost2010PropOp36
 70
     1
102
RTVSPost2010Prop37
 90
       50
102
RTVSPost2010PropOp37
 70
     1
102
RTVSPost2010Prop38
140
0.0
102
RTVSPost2010PropOp38
 70
     1
102
RTVSPost2010Prop39
140
1.0
102
RTVSPost2010PropOp39
 70
     1
102
RTVSPost2010Prop40
 90
        0
102
RTVSPost2010PropOp40
 70
     1
102
RTVSPost2010Prop41ColorIndex
 90
       18
102
RTVSPost2010Prop41ColorRGB
 90
        0
102
RTVSPost2010PropOp41
 70
     1
102
RTVSPost2010Prop42
 90
       50
102
RTVSPost2010PropOp42
 70
     1
102
RTVSPost2010Prop43
 90
        3
102
RTVSPost2010PropOp43
 70
     1
102
RTVSPost2010Prop44ColorIndex
 90
        5
102
RTVSPost2010Prop44ColorRGB
 90
      255
102
RTVSPost2010PropOp44
 70
     1
102
RTVSPost2010Prop45
280
     0
102
RTVSPost2010PropOp45
 70
     1
102
RTVSPost2010Prop46
 90
       50
102
RTVSPost2010PropOp46
 70
     1
102
RTVSPost2010Prop47
 90
       50
102
RTVSPost2010PropOp47
 70
     1
102
RTVSPost2010Prop48
 90
       50
102
RTVSPost2010PropOp48
 70
     1
102
RTVSPost2010Prop49
280
     0
102
RTVSPost2010PropOp49
 70
     1
102
RTVSPost2010Prop50
 90
       50
102
RTVSPost2010PropOp50
 70
     1
102
RTVSPost2010Prop51ColorIndex
 90
      256
102
RTVSPost2010Prop51ColorRGB
 90
-16777216
102
RTVSPost2010PropOp51
 70
     0
102
RTVSPost2010Prop52
140
1.0
102
RTVSPost2010PropOp52
 70
     0
102
RTVSPost2010Prop53
 90
        2
102
RTVSPost2010PropOp53
 70
     1
102
RTVSPost2010Prop54
  1
strokes_ogs.tif
102
RTVSPost2010PropOp54
 70
     1
102
RTVSPost2010Prop55
280
     0
102
RTVSPost2010PropOp55
 70
     1
102
RTVSPost2010Prop56
140
1.0
102
RTVSPost2010PropOp56
 70
     1
102
RTVSPost2010Prop57
140
1.0
102
RTVSPost2010PropOp57
 70
     1
102
RTVSPropertyOp0
 70
     1
102
RTVSPropertyOp1
 70
     1
102
RTVSPropertyOp2
 70
     1
102
RTVSPropertyOp3
 70
     1
102
RTVSPropertyOp4
 70
     1
102
RTVSPropertyOp5
 70
     1
102
RTVSPropertyOp6
 70
     1
102
RTVSPropertyOp7
 70
     1
102
RTVSPropertyOp8
 70
     1
102
RTVSPropertyOp9
 70
     1
102
RTVSPropertyOp10
 70
     1
102
RTVSPropertyOp11
 70
     1
102
RTVSPropertyOp12
 70
     1
102
RTVSPropertyOp13
 70
     1
102
RTVSPropertyOp14
 70
     1
102
RTVSPropertyOp15
 70
     1
102
RTVSPropertyOp16
 70
     1
102
RTVSPropertyOp17
 70
     1
102
RTVSPropertyOp18
 70
     1
102
RTVSPropertyOp19
 70
     1
102
RTVSPropertyOp20
 70
     1
102
RTVSPropertyOp21
 70
     1
102
RTVSPropertyOp22
 70
     1
102
RTVSPropertyOp23
 70
     1
102
RTVSPropertyOp24
 70
     1
102
RTVSPropertyOp25
 70
     1
102
RTVSPropertyOp26
 70
     1
102
RTVSPropertyOp27
 70
     1
102
RTVSPropertyOp28
 70
     1
102
RTVSPropertyOp29
 70
     1
102
RTVSPropertyOp30
 70
     1
102
RTVSPropertyOp31
 70
     1
102
RTVSPropertyOp32
 70
     1
102
RTVSPropertyOp33
 70
     1
102
RTVSPropertyOp34
 70
     1
102
RTVSPropertyOp35
 70
     1
102
RTVSPropertyOp36
 70
     1
102
RTVSPropertyOp37
 70
     1
102
RTVSPropertyOp38
 70
     1
102
RTVSPropertyOp39
 70
     1
102
RTVSPropertyOp40
 70
     1
102
RTVSPropertyOp41
 70
     1
102
RTVSPropertyOp42
 70
     1
102
RTVSPropertyOp43
 70
     1
102
RTVSPropertyOp44
 70
     1
102
RTVSPropertyOp45
 70
     1
102
RTVSPropertyOp46
 70
     1
102
RTVSPropertyOp47
 70
     1
102
RTVSPropertyOp48
 70
     1
102
RTVSPropertyOp49
 70
     1
102
RTVSPropertyOp50
 70
     1
102
RTVSPropertyOp51
 70
     0
102
RTVSPropertyOp52
 70
     0
102
RTVSPropertyOp53
 70
     1
102
RTVSPropertyOp54
 70
     1
102
RTVSPropertyOp55
 70
     1
102
RTVSPropertyOp56
 70
     1
102
RTVSPropertyOp57
 70
     1
102
RTVSPropertyOp58
 70
     1
102
RTVSPropertyOp59
 70
     1
102
RTVSPropertyOp60
 70
     1
102
RTVSPropertyOp61
 70
     1
102
RTVSPropertyOp62
 70
     1
  0
XRECORD
  5
4AF5
102
{ACAD_REACTORS
330
4AF4
102
}
330
4AF4
100
AcDbXrecord
280
     1
102
RTVSPost2010Prop28
280
     0
102
RTVSPost2010PropOp28
 70
     1
102
RTVSPost2010Prop29
280
     1
102
RTVSPost2010PropOp29
 70
     1
102
RTVSPost2010Prop30
280
     1
102
RTVSPost2010PropOp30
 70
     1
102
RTVSPost2010Prop31
280
     0
102
RTVSPost2010PropOp31
 70
     1
102
RTVSPost2010Prop32
280
     0
102
RTVSPost2010PropOp32
 70
     1
102
RTVSPost2010Prop33
280
     0
102
RTVSPost2010PropOp33
 70
     1
102
RTVSPost2010Prop34
280
     0
102
RTVSPost2010PropOp34
 70
     1
102
RTVSPost2010Prop35
280
     0
102
RTVSPost2010PropOp35
 70
     1
102
RTVSPost2010Prop36
280
     0
102
RTVSPost2010PropOp36
 70
     1
102
RTVSPost2010Prop37
 90
       50
102
RTVSPost2010PropOp37
 70
     1
102
RTVSPost2010Prop38
140
0.0
102
RTVSPost2010PropOp38
 70
     1
102
RTVSPost2010Prop39
140
1.0
102
RTVSPost2010PropOp39
 70
     1
102
RTVSPost2010Prop40
 90
        0
102
RTVSPost2010PropOp40
 70
     1
102
RTVSPost2010Prop41ColorIndex
 90
       18
102
RTVSPost2010Prop41ColorRGB
 90
        0
102
RTVSPost2010PropOp41
 70
     1
102
RTVSPost2010Prop42
 90
       50
102
RTVSPost2010PropOp42
 70
     1
102
RTVSPost2010Prop43
 90
        3
102
RTVSPost2010PropOp43
 70
     1
102
RTVSPost2010Prop44ColorIndex
 90
        5
102
RTVSPost2010Prop44ColorRGB
 90
      255
102
RTVSPost2010PropOp44
 70
     1
102
RTVSPost2010Prop45
280
     0
102
RTVSPost2010PropOp45
 70
     1
102
RTVSPost2010Prop46
 90
       50
102
RTVSPost2010PropOp46
 70
     1
102
RTVSPost2010Prop47
 90
       50
102
RTVSPost2010PropOp47
 70
     1
102
RTVSPost2010Prop48
 90
       50
102
RTVSPost2010PropOp48
 70
     1
102
RTVSPost2010Prop49
280
     0
102
RTVSPost2010PropOp49
 70
     1
102
RTVSPost2010Prop50
 90
       50
102
RTVSPost2010PropOp50
 70
     1
102
RTVSPost2010Prop51ColorIndex
 90
      256
102
RTVSPost2010Prop51ColorRGB
 90
-16777216
102
RTVSPost2010PropOp51
 70
     0
102
RTVSPost2010Prop52
140
1.0
102
RTVSPost2010PropOp52
 70
     0
102
RTVSPost2010Prop53
 90
        2
102
RTVSPost2010PropOp53
 70
     1
102
RTVSPost2010Prop54
  1
strokes_ogs.tif
102
RTVSPost2010PropOp54
 70
     1
102
RTVSPost2010Prop55
280
     0
102
RTVSPost2010PropOp55
 70
     1
102
RTVSPost2010Prop56
140
1.0
102
RTVSPost2010PropOp56
 70
     1
102
RTVSPost2010Prop57
140
1.0
102
RTVSPost2010PropOp57
 70
     1
102
RTVSPropertyOp0
 70
     1
102
RTVSPropertyOp1
 70
     1
102
RTVSPropertyOp2
 70
     1
102
RTVSPropertyOp3
 70
     1
102
RTVSPropertyOp4
 70
     1
102
RTVSPropertyOp5
 70
     1
102
RTVSPropertyOp6
 70
     1
102
RTVSPropertyOp7
 70
     1
102
RTVSPropertyOp8
 70
     1
102
RTVSPropertyOp9
 70
     1
102
RTVSPropertyOp10
 70
     1
102
RTVSPropertyOp11
 70
     1
102
RTVSPropertyOp12
 70
     1
102
RTVSPropertyOp13
 70
     1
102
RTVSPropertyOp14
 70
     1
102
RTVSPropertyOp15
 70
     1
102
RTVSPropertyOp16
 70
     1
102
RTVSPropertyOp17
 70
     1
102
RTVSPropertyOp18
 70
     1
102
RTVSPropertyOp19
 70
     1
102
RTVSPropertyOp20
 70
     1
102
RTVSPropertyOp21
 70
     1
102
RTVSPropertyOp22
 70
     1
102
RTVSPropertyOp23
 70
     1
102
RTVSPropertyOp24
 70
     1
102
RTVSPropertyOp25
 70
     1
102
RTVSPropertyOp26
 70
     1
102
RTVSPropertyOp27
 70
     1
102
RTVSPropertyOp28
 70
     1
102
RTVSPropertyOp29
 70
     1
102
RTVSPropertyOp30
 70
     1
102
RTVSPropertyOp31
 70
     1
102
RTVSPropertyOp32
 70
     1
102
RTVSPropertyOp33
 70
     1
102
RTVSPropertyOp34
 70
     1
102
RTVSPropertyOp35
 70
     1
102
RTVSPropertyOp36
 70
     1
102
RTVSPropertyOp37
 70
     1
102
RTVSPropertyOp38
 70
     1
102
RTVSPropertyOp39
 70
     1
102
RTVSPropertyOp40
 70
     1
102
RTVSPropertyOp41
 70
     1
102
RTVSPropertyOp42
 70
     1
102
RTVSPropertyOp43
 70
     1
102
RTVSPropertyOp44
 70
     1
102
RTVSPropertyOp45
 70
     1
102
RTVSPropertyOp46
 70
     1
102
RTVSPropertyOp47
 70
     1
102
RTVSPropertyOp48
 70
     1
102
RTVSPropertyOp49
 70
     1
102
RTVSPropertyOp50
 70
     1
102
RTVSPropertyOp51
 70
     0
102
RTVSPropertyOp52
 70
     0
102
RTVSPropertyOp53
 70
     1
102
RTVSPropertyOp54
 70
     1
102
RTVSPropertyOp55
 70
     1
102
RTVSPropertyOp56
 70
     1
102
RTVSPropertyOp57
 70
     1
102
RTVSPropertyOp58
 70
     1
102
RTVSPropertyOp59
 70
     1
102
RTVSPropertyOp60
 70
     1
102
RTVSPropertyOp61
 70
     1
102
RTVSPropertyOp62
 70
     1
  0
XRECORD
  5
4AE7
102
{ACAD_REACTORS
330
4AE6
102
}
330
4AE6
100
AcDbXrecord
280
     1
102
RTVSPost2010Prop28
280
     0
102
RTVSPost2010PropOp28
 70
     1
102
RTVSPost2010Prop29
280
     1
102
RTVSPost2010PropOp29
 70
     1
102
RTVSPost2010Prop30
280
     1
102
RTVSPost2010PropOp30
 70
     1
102
RTVSPost2010Prop31
280
     0
102
RTVSPost2010PropOp31
 70
     1
102
RTVSPost2010Prop32
280
     0
102
RTVSPost2010PropOp32
 70
     1
102
RTVSPost2010Prop33
280
     0
102
RTVSPost2010PropOp33
 70
     1
102
RTVSPost2010Prop34
280
     0
102
RTVSPost2010PropOp34
 70
     1
102
RTVSPost2010Prop35
280
     0
102
RTVSPost2010PropOp35
 70
     1
102
RTVSPost2010Prop36
280
     0
102
RTVSPost2010PropOp36
 70
     1
102
RTVSPost2010Prop37
 90
       50
102
RTVSPost2010PropOp37
 70
     1
102
RTVSPost2010Prop38
140
0.0
102
RTVSPost2010PropOp38
 70
     1
102
RTVSPost2010Prop39
140
1.0
102
RTVSPost2010PropOp39
 70
     1
102
RTVSPost2010Prop40
 90
        0
102
RTVSPost2010PropOp40
 70
     1
102
RTVSPost2010Prop41ColorIndex
 90
       18
102
RTVSPost2010Prop41ColorRGB
 90
        0
102
RTVSPost2010PropOp41
 70
     1
102
RTVSPost2010Prop42
 90
       50
102
RTVSPost2010PropOp42
 70
     1
102
RTVSPost2010Prop43
 90
        3
102
RTVSPost2010PropOp43
 70
     1
102
RTVSPost2010Prop44ColorIndex
 90
        5
102
RTVSPost2010Prop44ColorRGB
 90
      255
102
RTVSPost2010PropOp44
 70
     1
102
RTVSPost2010Prop45
280
     0
102
RTVSPost2010PropOp45
 70
     1
102
RTVSPost2010Prop46
 90
       50
102
RTVSPost2010PropOp46
 70
     1
102
RTVSPost2010Prop47
 90
       50
102
RTVSPost2010PropOp47
 70
     1
102
RTVSPost2010Prop48
 90
       50
102
RTVSPost2010PropOp48
 70
     1
102
RTVSPost2010Prop49
280
     0
102
RTVSPost2010PropOp49
 70
     1
102
RTVSPost2010Prop50
 90
       50
102
RTVSPost2010PropOp50
 70
     1
102
RTVSPost2010Prop51ColorIndex
 90
      256
102
RTVSPost2010Prop51ColorRGB
 90
-16777216
102
RTVSPost2010PropOp51
 70
     0
102
RTVSPost2010Prop52
140
1.0
102
RTVSPost2010PropOp52
 70
     0
102
RTVSPost2010Prop53
 90
        2
102
RTVSPost2010PropOp53
 70
     1
102
RTVSPost2010Prop54
  1
strokes_ogs.tif
102
RTVSPost2010PropOp54
 70
     1
102
RTVSPost2010Prop55
280
     0
102
RTVSPost2010PropOp55
 70
     1
102
RTVSPost2010Prop56
140
1.0
102
RTVSPost2010PropOp56
 70
     1
102
RTVSPost2010Prop57
140
1.0
102
RTVSPost2010PropOp57
 70
     1
102
RTVSPropertyOp0
 70
     1
102
RTVSPropertyOp1
 70
     1
102
RTVSPropertyOp2
 70
     1
102
RTVSPropertyOp3
 70
     1
102
RTVSPropertyOp4
 70
     1
102
RTVSPropertyOp5
 70
     1
102
RTVSPropertyOp6
 70
     1
102
RTVSPropertyOp7
 70
     1
102
RTVSPropertyOp8
 70
     1
102
RTVSPropertyOp9
 70
     1
102
RTVSPropertyOp10
 70
     1
102
RTVSPropertyOp11
 70
     1
102
RTVSPropertyOp12
 70
     1
102
RTVSPropertyOp13
 70
     1
102
RTVSPropertyOp14
 70
     1
102
RTVSPropertyOp15
 70
     1
102
RTVSPropertyOp16
 70
     1
102
RTVSPropertyOp17
 70
     1
102
RTVSPropertyOp18
 70
     1
102
RTVSPropertyOp19
 70
     1
102
RTVSPropertyOp20
 70
     1
102
RTVSPropertyOp21
 70
     1
102
RTVSPropertyOp22
 70
     1
102
RTVSPropertyOp23
 70
     1
102
RTVSPropertyOp24
 70
     1
102
RTVSPropertyOp25
 70
     1
102
RTVSPropertyOp26
 70
     1
102
RTVSPropertyOp27
 70
     1
102
RTVSPropertyOp28
 70
     1
102
RTVSPropertyOp29
 70
     1
102
RTVSPropertyOp30
 70
     1
102
RTVSPropertyOp31
 70
     1
102
RTVSPropertyOp32
 70
     1
102
RTVSPropertyOp33
 70
     1
102
RTVSPropertyOp34
 70
     1
102
RTVSPropertyOp35
 70
     1
102
RTVSPropertyOp36
 70
     1
102
RTVSPropertyOp37
 70
     1
102
RTVSPropertyOp38
 70
     1
102
RTVSPropertyOp39
 70
     1
102
RTVSPropertyOp40
 70
     1
102
RTVSPropertyOp41
 70
     1
102
RTVSPropertyOp42
 70
     1
102
RTVSPropertyOp43
 70
     1
102
RTVSPropertyOp44
 70
     1
102
RTVSPropertyOp45
 70
     1
102
RTVSPropertyOp46
 70
     1
102
RTVSPropertyOp47
 70
     1
102
RTVSPropertyOp48
 70
     1
102
RTVSPropertyOp49
 70
     1
102
RTVSPropertyOp50
 70
     1
102
RTVSPropertyOp51
 70
     0
102
RTVSPropertyOp52
 70
     0
102
RTVSPropertyOp53
 70
     1
102
RTVSPropertyOp54
 70
     1
102
RTVSPropertyOp55
 70
     1
102
RTVSPropertyOp56
 70
     1
102
RTVSPropertyOp57
 70
     1
102
RTVSPropertyOp58
 70
     1
102
RTVSPropertyOp59
 70
     1
102
RTVSPropertyOp60
 70
     1
102
RTVSPropertyOp61
 70
     1
102
RTVSPropertyOp62
 70
     1
  0
XRECORD
  5
4AEB
102
{ACAD_REACTORS
330
4AEA
102
}
330
4AEA
100
AcDbXrecord
280
     1
102
RTVSPost2010Prop28
280
     0
102
RTVSPost2010PropOp28
 70
     1
102
RTVSPost2010Prop29
280
     1
102
RTVSPost2010PropOp29
 70
     1
102
RTVSPost2010Prop30
280
     1
102
RTVSPost2010PropOp30
 70
     1
102
RTVSPost2010Prop31
280
     0
102
RTVSPost2010PropOp31
 70
     1
102
RTVSPost2010Prop32
280
     0
102
RTVSPost2010PropOp32
 70
     1
102
RTVSPost2010Prop33
280
     0
102
RTVSPost2010PropOp33
 70
     1
102
RTVSPost2010Prop34
280
     0
102
RTVSPost2010PropOp34
 70
     1
102
RTVSPost2010Prop35
280
     0
102
RTVSPost2010PropOp35
 70
     1
102
RTVSPost2010Prop36
280
     0
102
RTVSPost2010PropOp36
 70
     1
102
RTVSPost2010Prop37
 90
       50
102
RTVSPost2010PropOp37
 70
     1
102
RTVSPost2010Prop38
140
0.0
102
RTVSPost2010PropOp38
 70
     1
102
RTVSPost2010Prop39
140
1.0
102
RTVSPost2010PropOp39
 70
     1
102
RTVSPost2010Prop40
 90
        0
102
RTVSPost2010PropOp40
 70
     1
102
RTVSPost2010Prop41ColorIndex
 90
       18
102
RTVSPost2010Prop41ColorRGB
 90
        0
102
RTVSPost2010PropOp41
 70
     1
102
RTVSPost2010Prop42
 90
       50
102
RTVSPost2010PropOp42
 70
     1
102
RTVSPost2010Prop43
 90
        3
102
RTVSPost2010PropOp43
 70
     1
102
RTVSPost2010Prop44ColorIndex
 90
        5
102
RTVSPost2010Prop44ColorRGB
 90
      255
102
RTVSPost2010PropOp44
 70
     1
102
RTVSPost2010Prop45
280
     0
102
RTVSPost2010PropOp45
 70
     1
102
RTVSPost2010Prop46
 90
       50
102
RTVSPost2010PropOp46
 70
     1
102
RTVSPost2010Prop47
 90
       50
102
RTVSPost2010PropOp47
 70
     1
102
RTVSPost2010Prop48
 90
       50
102
RTVSPost2010PropOp48
 70
     1
102
RTVSPost2010Prop49
280
     0
102
RTVSPost2010PropOp49
 70
     1
102
RTVSPost2010Prop50
 90
       50
102
RTVSPost2010PropOp50
 70
     1
102
RTVSPost2010Prop51ColorIndex
 90
      256
102
RTVSPost2010Prop51ColorRGB
 90
-16777216
102
RTVSPost2010PropOp51
 70
     0
102
RTVSPost2010Prop52
140
1.0
102
RTVSPost2010PropOp52
 70
     0
102
RTVSPost2010Prop53
 90
        2
102
RTVSPost2010PropOp53
 70
     1
102
RTVSPost2010Prop54
  1
strokes_ogs.tif
102
RTVSPost2010PropOp54
 70
     1
102
RTVSPost2010Prop55
280
     0
102
RTVSPost2010PropOp55
 70
     1
102
RTVSPost2010Prop56
140
1.0
102
RTVSPost2010PropOp56
 70
     1
102
RTVSPost2010Prop57
140
1.0
102
RTVSPost2010PropOp57
 70
     1
102
RTVSPropertyOp0
 70
     1
102
RTVSPropertyOp1
 70
     1
102
RTVSPropertyOp2
 70
     1
102
RTVSPropertyOp3
 70
     1
102
RTVSPropertyOp4
 70
     1
102
RTVSPropertyOp5
 70
     1
102
RTVSPropertyOp6
 70
     1
102
RTVSPropertyOp7
 70
     1
102
RTVSPropertyOp8
 70
     1
102
RTVSPropertyOp9
 70
     1
102
RTVSPropertyOp10
 70
     1
102
RTVSPropertyOp11
 70
     1
102
RTVSPropertyOp12
 70
     1
102
RTVSPropertyOp13
 70
     1
102
RTVSPropertyOp14
 70
     1
102
RTVSPropertyOp15
 70
     1
102
RTVSPropertyOp16
 70
     1
102
RTVSPropertyOp17
 70
     1
102
RTVSPropertyOp18
 70
     1
102
RTVSPropertyOp19
 70
     1
102
RTVSPropertyOp20
 70
     1
102
RTVSPropertyOp21
 70
     1
102
RTVSPropertyOp22
 70
     1
102
RTVSPropertyOp23
 70
     1
102
RTVSPropertyOp24
 70
     1
102
RTVSPropertyOp25
 70
     1
102
RTVSPropertyOp26
 70
     1
102
RTVSPropertyOp27
 70
     1
102
RTVSPropertyOp28
 70
     1
102
RTVSPropertyOp29
 70
     1
102
RTVSPropertyOp30
 70
     1
102
RTVSPropertyOp31
 70
     1
102
RTVSPropertyOp32
 70
     1
102
RTVSPropertyOp33
 70
     1
102
RTVSPropertyOp34
 70
     1
102
RTVSPropertyOp35
 70
     1
102
RTVSPropertyOp36
 70
     1
102
RTVSPropertyOp37
 70
     1
102
RTVSPropertyOp38
 70
     1
102
RTVSPropertyOp39
 70
     1
102
RTVSPropertyOp40
 70
     1
102
RTVSPropertyOp41
 70
     1
102
RTVSPropertyOp42
 70
     1
102
RTVSPropertyOp43
 70
     1
102
RTVSPropertyOp44
 70
     1
102
RTVSPropertyOp45
 70
     1
102
RTVSPropertyOp46
 70
     1
102
RTVSPropertyOp47
 70
     1
102
RTVSPropertyOp48
 70
     1
102
RTVSPropertyOp49
 70
     1
102
RTVSPropertyOp50
 70
     1
102
RTVSPropertyOp51
 70
     0
102
RTVSPropertyOp52
 70
     0
102
RTVSPropertyOp53
 70
     1
102
RTVSPropertyOp54
 70
     1
102
RTVSPropertyOp55
 70
     1
102
RTVSPropertyOp56
 70
     1
102
RTVSPropertyOp57
 70
     1
102
RTVSPropertyOp58
 70
     1
102
RTVSPropertyOp59
 70
     1
102
RTVSPropertyOp60
 70
     1
102
RTVSPropertyOp61
 70
     1
102
RTVSPropertyOp62
 70
     1
  0
XRECORD
  5
4B05
102
{ACAD_REACTORS
330
4B04
102
}
330
4B04
100
AcDbXrecord
280
     1
102
RTVSPost2010Prop28
280
     0
102
RTVSPost2010PropOp28
 70
     0
102
RTVSPost2010Prop29
280
     1
102
RTVSPost2010PropOp29
 70
     0
102
RTVSPost2010Prop30
280
     1
102
RTVSPost2010PropOp30
 70
     0
102
RTVSPost2010Prop31
280
     0
102
RTVSPost2010PropOp31
 70
     0
102
RTVSPost2010Prop32
280
     0
102
RTVSPost2010PropOp32
 70
     0
102
RTVSPost2010Prop33
280
     0
102
RTVSPost2010PropOp33
 70
     0
102
RTVSPost2010Prop34
280
     0
102
RTVSPost2010PropOp34
 70
     0
102
RTVSPost2010Prop35
280
     0
102
RTVSPost2010PropOp35
 70
     0
102
RTVSPost2010Prop36
280
     0
102
RTVSPost2010PropOp36
 70
     0
102
RTVSPost2010Prop37
 90
       50
102
RTVSPost2010PropOp37
 70
     0
102
RTVSPost2010Prop38
140
0.0
102
RTVSPost2010PropOp38
 70
     0
102
RTVSPost2010Prop39
140
1.0
102
RTVSPost2010PropOp39
 70
     0
102
RTVSPost2010Prop40
 90
        0
102
RTVSPost2010PropOp40
 70
     0
102
RTVSPost2010Prop41ColorIndex
 90
       18
102
RTVSPost2010Prop41ColorRGB
 90
        0
102
RTVSPost2010PropOp41
 70
     0
102
RTVSPost2010Prop42
 90
       50
102
RTVSPost2010PropOp42
 70
     0
102
RTVSPost2010Prop43
 90
        3
102
RTVSPost2010PropOp43
 70
     0
102
RTVSPost2010Prop44ColorIndex
 90
        5
102
RTVSPost2010Prop44ColorRGB
 90
      255
102
RTVSPost2010PropOp44
 70
     0
102
RTVSPost2010Prop45
280
     0
102
RTVSPost2010PropOp45
 70
     0
102
RTVSPost2010Prop46
 90
       50
102
RTVSPost2010PropOp46
 70
     0
102
RTVSPost2010Prop47
 90
       50
102
RTVSPost2010PropOp47
 70
     0
102
RTVSPost2010Prop48
 90
       50
102
RTVSPost2010PropOp48
 70
     0
102
RTVSPost2010Prop49
280
     0
102
RTVSPost2010PropOp49
 70
     0
102
RTVSPost2010Prop50
 90
       50
102
RTVSPost2010PropOp50
 70
     0
102
RTVSPost2010Prop51ColorIndex
 90
      256
102
RTVSPost2010Prop51ColorRGB
 90
-16777216
102
RTVSPost2010PropOp51
 70
     0
102
RTVSPost2010Prop52
140
1.0
102
RTVSPost2010PropOp52
 70
     0
102
RTVSPost2010Prop53
 90
        2
102
RTVSPost2010PropOp53
 70
     0
102
RTVSPost2010Prop54
  1
strokes_ogs.tif
102
RTVSPost2010PropOp54
 70
     0
102
RTVSPost2010Prop55
280
     0
102
RTVSPost2010PropOp55
 70
     0
102
RTVSPost2010Prop56
140
1.0
102
RTVSPost2010PropOp56
 70
     0
102
RTVSPost2010Prop57
140
1.0
102
RTVSPost2010PropOp57
 70
     0
102
RTVSPropertyOp0
 70
     0
102
RTVSPropertyOp1
 70
     0
102
RTVSPropertyOp2
 70
     0
102
RTVSPropertyOp3
 70
     0
102
RTVSPropertyOp4
 70
     0
102
RTVSPropertyOp5
 70
     0
102
RTVSPropertyOp6
 70
     0
102
RTVSPropertyOp7
 70
     0
102
RTVSPropertyOp8
 70
     0
102
RTVSPropertyOp9
 70
     0
102
RTVSPropertyOp10
 70
     0
102
RTVSPropertyOp11
 70
     0
102
RTVSPropertyOp12
 70
     0
102
RTVSPropertyOp13
 70
     0
102
RTVSPropertyOp14
 70
     2
102
RTVSPropertyOp15
 70
     0
102
RTVSPropertyOp16
 70
     0
102
RTVSPropertyOp17
 70
     0
102
RTVSPropertyOp18
 70
     0
102
RTVSPropertyOp19
 70
     0
102
RTVSPropertyOp20
 70
     0
102
RTVSPropertyOp21
 70
     0
102
RTVSPropertyOp22
 70
     0
102
RTVSPropertyOp23
 70
     0
102
RTVSPropertyOp24
 70
     0
102
RTVSPropertyOp25
 70
     0
102
RTVSPropertyOp26
 70
     0
102
RTVSPropertyOp27
 70
     0
102
RTVSPropertyOp28
 70
     0
102
RTVSPropertyOp29
 70
     0
102
RTVSPropertyOp30
 70
     0
102
RTVSPropertyOp31
 70
     0
102
RTVSPropertyOp32
 70
     0
102
RTVSPropertyOp33
 70
     0
102
RTVSPropertyOp34
 70
     0
102
RTVSPropertyOp35
 70
     0
102
RTVSPropertyOp36
 70
     0
102
RTVSPropertyOp37
 70
     0
102
RTVSPropertyOp38
 70
     0
102
RTVSPropertyOp39
 70
     0
102
RTVSPropertyOp40
 70
     0
102
RTVSPropertyOp41
 70
     0
102
RTVSPropertyOp42
 70
     0
102
RTVSPropertyOp43
 70
     0
102
RTVSPropertyOp44
 70
     0
102
RTVSPropertyOp45
 70
     0
102
RTVSPropertyOp46
 70
     0
102
RTVSPropertyOp47
 70
     0
102
RTVSPropertyOp48
 70
     0
102
RTVSPropertyOp49
 70
     0
102
RTVSPropertyOp50
 70
     0
102
RTVSPropertyOp51
 70
     0
102
RTVSPropertyOp52
 70
     0
102
RTVSPropertyOp53
 70
     0
102
RTVSPropertyOp54
 70
     0
102
RTVSPropertyOp55
 70
     0
102
RTVSPropertyOp56
 70
     0
102
RTVSPropertyOp57
 70
     0
102
RTVSPropertyOp58
 70
     1
102
RTVSPropertyOp59
 70
     1
102
RTVSPropertyOp60
 70
     1
102
RTVSPropertyOp61
 70
     1
102
RTVSPropertyOp62
 70
     1
  0
XRECORD
  5
4AF3
102
{ACAD_REACTORS
330
4AF2
102
}
330
4AF2
100
AcDbXrecord
280
     1
102
RTVSPost2010Prop28
280
     0
102
RTVSPost2010PropOp28
 70
     1
102
RTVSPost2010Prop29
280
     1
102
RTVSPost2010PropOp29
 70
     1
102
RTVSPost2010Prop30
280
     1
102
RTVSPost2010PropOp30
 70
     1
102
RTVSPost2010Prop31
280
     0
102
RTVSPost2010PropOp31
 70
     1
102
RTVSPost2010Prop32
280
     0
102
RTVSPost2010PropOp32
 70
     1
102
RTVSPost2010Prop33
280
     0
102
RTVSPost2010PropOp33
 70
     1
102
RTVSPost2010Prop34
280
     0
102
RTVSPost2010PropOp34
 70
     1
102
RTVSPost2010Prop35
280
     0
102
RTVSPost2010PropOp35
 70
     1
102
RTVSPost2010Prop36
280
     0
102
RTVSPost2010PropOp36
 70
     1
102
RTVSPost2010Prop37
 90
       50
102
RTVSPost2010PropOp37
 70
     1
102
RTVSPost2010Prop38
140
0.0
102
RTVSPost2010PropOp38
 70
     1
102
RTVSPost2010Prop39
140
1.0
102
RTVSPost2010PropOp39
 70
     1
102
RTVSPost2010Prop40
 90
        0
102
RTVSPost2010PropOp40
 70
     1
102
RTVSPost2010Prop41ColorIndex
 90
       18
102
RTVSPost2010Prop41ColorRGB
 90
        0
102
RTVSPost2010PropOp41
 70
     1
102
RTVSPost2010Prop42
 90
       50
102
RTVSPost2010PropOp42
 70
     1
102
RTVSPost2010Prop43
 90
        3
102
RTVSPost2010PropOp43
 70
     1
102
RTVSPost2010Prop44ColorIndex
 90
        5
102
RTVSPost2010Prop44ColorRGB
 90
      255
102
RTVSPost2010PropOp44
 70
     1
102
RTVSPost2010Prop45
280
     0
102
RTVSPost2010PropOp45
 70
     1
102
RTVSPost2010Prop46
 90
       50
102
RTVSPost2010PropOp46
 70
     1
102
RTVSPost2010Prop47
 90
       50
102
RTVSPost2010PropOp47
 70
     1
102
RTVSPost2010Prop48
 90
       50
102
RTVSPost2010PropOp48
 70
     1
102
RTVSPost2010Prop49
280
     0
102
RTVSPost2010PropOp49
 70
     1
102
RTVSPost2010Prop50
 90
       50
102
RTVSPost2010PropOp50
 70
     1
102
RTVSPost2010Prop51ColorIndex
 90
      256
102
RTVSPost2010Prop51ColorRGB
 90
-16777216
102
RTVSPost2010PropOp51
 70
     0
102
RTVSPost2010Prop52
140
1.0
102
RTVSPost2010PropOp52
 70
     0
102
RTVSPost2010Prop53
 90
        2
102
RTVSPost2010PropOp53
 70
     1
102
RTVSPost2010Prop54
  1
strokes_ogs.tif
102
RTVSPost2010PropOp54
 70
     1
102
RTVSPost2010Prop55
280
     0
102
RTVSPost2010PropOp55
 70
     1
102
RTVSPost2010Prop56
140
1.0
102
RTVSPost2010PropOp56
 70
     1
102
RTVSPost2010Prop57
140
1.0
102
RTVSPost2010PropOp57
 70
     1
102
RTVSPropertyOp0
 70
     1
102
RTVSPropertyOp1
 70
     1
102
RTVSPropertyOp2
 70
     1
102
RTVSPropertyOp3
 70
     1
102
RTVSPropertyOp4
 70
     1
102
RTVSPropertyOp5
 70
     1
102
RTVSPropertyOp6
 70
     1
102
RTVSPropertyOp7
 70
     1
102
RTVSPropertyOp8
 70
     1
102
RTVSPropertyOp9
 70
     1
102
RTVSPropertyOp10
 70
     1
102
RTVSPropertyOp11
 70
     1
102
RTVSPropertyOp12
 70
     1
102
RTVSPropertyOp13
 70
     1
102
RTVSPropertyOp14
 70
     1
102
RTVSPropertyOp15
 70
     1
102
RTVSPropertyOp16
 70
     1
102
RTVSPropertyOp17
 70
     1
102
RTVSPropertyOp18
 70
     1
102
RTVSPropertyOp19
 70
     1
102
RTVSPropertyOp20
 70
     1
102
RTVSPropertyOp21
 70
     1
102
RTVSPropertyOp22
 70
     1
102
RTVSPropertyOp23
 70
     1
102
RTVSPropertyOp24
 70
     1
102
RTVSPropertyOp25
 70
     1
102
RTVSPropertyOp26
 70
     1
102
RTVSPropertyOp27
 70
     1
102
RTVSPropertyOp28
 70
     1
102
RTVSPropertyOp29
 70
     1
102
RTVSPropertyOp30
 70
     1
102
RTVSPropertyOp31
 70
     1
102
RTVSPropertyOp32
 70
     1
102
RTVSPropertyOp33
 70
     1
102
RTVSPropertyOp34
 70
     1
102
RTVSPropertyOp35
 70
     1
102
RTVSPropertyOp36
 70
     1
102
RTVSPropertyOp37
 70
     1
102
RTVSPropertyOp38
 70
     1
102
RTVSPropertyOp39
 70
     1
102
RTVSPropertyOp40
 70
     1
102
RTVSPropertyOp41
 70
     1
102
RTVSPropertyOp42
 70
     1
102
RTVSPropertyOp43
 70
     1
102
RTVSPropertyOp44
 70
     1
102
RTVSPropertyOp45
 70
     1
102
RTVSPropertyOp46
 70
     1
102
RTVSPropertyOp47
 70
     1
102
RTVSPropertyOp48
 70
     1
102
RTVSPropertyOp49
 70
     1
102
RTVSPropertyOp50
 70
     1
102
RTVSPropertyOp51
 70
     0
102
RTVSPropertyOp52
 70
     0
102
RTVSPropertyOp53
 70
     1
102
RTVSPropertyOp54
 70
     1
102
RTVSPropertyOp55
 70
     1
102
RTVSPropertyOp56
 70
     1
102
RTVSPropertyOp57
 70
     1
102
RTVSPropertyOp58
 70
     1
102
RTVSPropertyOp59
 70
     1
102
RTVSPropertyOp60
 70
     1
102
RTVSPropertyOp61
 70
     1
102
RTVSPropertyOp62
 70
     1
  0
XRECORD
  5
4AD7
102
{ACAD_REACTORS
330
4AD6
102
}
330
4AD6
100
AcDbXrecord
280
     1
102
RTVSPost2010Prop28
280
     0
102
RTVSPost2010PropOp28
 70
     1
102
RTVSPost2010Prop29
280
     1
102
RTVSPost2010PropOp29
 70
     1
102
RTVSPost2010Prop30
280
     1
102
RTVSPost2010PropOp30
 70
     1
102
RTVSPost2010Prop31
280
     0
102
RTVSPost2010PropOp31
 70
     1
102
RTVSPost2010Prop32
280
     0
102
RTVSPost2010PropOp32
 70
     1
102
RTVSPost2010Prop33
280
     0
102
RTVSPost2010PropOp33
 70
     1
102
RTVSPost2010Prop34
280
     0
102
RTVSPost2010PropOp34
 70
     1
102
RTVSPost2010Prop35
280
     0
102
RTVSPost2010PropOp35
 70
     1
102
RTVSPost2010Prop36
280
     0
102
RTVSPost2010PropOp36
 70
     1
102
RTVSPost2010Prop37
 90
       50
102
RTVSPost2010PropOp37
 70
     1
102
RTVSPost2010Prop38
140
0.0
102
RTVSPost2010PropOp38
 70
     1
102
RTVSPost2010Prop39
140
1.0
102
RTVSPost2010PropOp39
 70
     1
102
RTVSPost2010Prop40
 90
        0
102
RTVSPost2010PropOp40
 70
     1
102
RTVSPost2010Prop41ColorIndex
 90
       18
102
RTVSPost2010Prop41ColorRGB
 90
        0
102
RTVSPost2010PropOp41
 70
     1
102
RTVSPost2010Prop42
 90
       50
102
RTVSPost2010PropOp42
 70
     1
102
RTVSPost2010Prop43
 90
        3
102
RTVSPost2010PropOp43
 70
     1
102
RTVSPost2010Prop44ColorIndex
 90
        5
102
RTVSPost2010Prop44ColorRGB
 90
      255
102
RTVSPost2010PropOp44
 70
     1
102
RTVSPost2010Prop45
280
     0
102
RTVSPost2010PropOp45
 70
     1
102
RTVSPost2010Prop46
 90
       50
102
RTVSPost2010PropOp46
 70
     1
102
RTVSPost2010Prop47
 90
       50
102
RTVSPost2010PropOp47
 70
     1
102
RTVSPost2010Prop48
 90
       50
102
RTVSPost2010PropOp48
 70
     1
102
RTVSPost2010Prop49
280
     0
102
RTVSPost2010PropOp49
 70
     1
102
RTVSPost2010Prop50
 90
       50
102
RTVSPost2010PropOp50
 70
     1
102
RTVSPost2010Prop51ColorIndex
 90
      256
102
RTVSPost2010Prop51ColorRGB
 90
-16777216
102
RTVSPost2010PropOp51
 70
     0
102
RTVSPost2010Prop52
140
1.0
102
RTVSPost2010PropOp52
 70
     0
102
RTVSPost2010Prop53
 90
        2
102
RTVSPost2010PropOp53
 70
     1
102
RTVSPost2010Prop54
  1
strokes_ogs.tif
102
RTVSPost2010PropOp54
 70
     1
102
RTVSPost2010Prop55
280
     0
102
RTVSPost2010PropOp55
 70
     1
102
RTVSPost2010Prop56
140
1.0
102
RTVSPost2010PropOp56
 70
     1
102
RTVSPost2010Prop57
140
1.0
102
RTVSPost2010PropOp57
 70
     1
102
RTVSPropertyOp0
 70
     1
102
RTVSPropertyOp1
 70
     1
102
RTVSPropertyOp2
 70
     1
102
RTVSPropertyOp3
 70
     1
102
RTVSPropertyOp4
 70
     1
102
RTVSPropertyOp5
 70
     1
102
RTVSPropertyOp6
 70
     1
102
RTVSPropertyOp7
 70
     1
102
RTVSPropertyOp8
 70
     1
102
RTVSPropertyOp9
 70
     1
102
RTVSPropertyOp10
 70
     1
102
RTVSPropertyOp11
 70
     1
102
RTVSPropertyOp12
 70
     1
102
RTVSPropertyOp13
 70
     1
102
RTVSPropertyOp14
 70
     1
102
RTVSPropertyOp15
 70
     1
102
RTVSPropertyOp16
 70
     1
102
RTVSPropertyOp17
 70
     1
102
RTVSPropertyOp18
 70
     1
102
RTVSPropertyOp19
 70
     1
102
RTVSPropertyOp20
 70
     1
102
RTVSPropertyOp21
 70
     1
102
RTVSPropertyOp22
 70
     1
102
RTVSPropertyOp23
 70
     1
102
RTVSPropertyOp24
 70
     1
102
RTVSPropertyOp25
 70
     1
102
RTVSPropertyOp26
 70
     1
102
RTVSPropertyOp27
 70
     1
102
RTVSPropertyOp28
 70
     1
102
RTVSPropertyOp29
 70
     1
102
RTVSPropertyOp30
 70
     1
102
RTVSPropertyOp31
 70
     1
102
RTVSPropertyOp32
 70
     1
102
RTVSPropertyOp33
 70
     1
102
RTVSPropertyOp34
 70
     1
102
RTVSPropertyOp35
 70
     1
102
RTVSPropertyOp36
 70
     1
102
RTVSPropertyOp37
 70
     1
102
RTVSPropertyOp38
 70
     1
102
RTVSPropertyOp39
 70
     1
102
RTVSPropertyOp40
 70
     1
102
RTVSPropertyOp41
 70
     1
102
RTVSPropertyOp42
 70
     1
102
RTVSPropertyOp43
 70
     1
102
RTVSPropertyOp44
 70
     1
102
RTVSPropertyOp45
 70
     1
102
RTVSPropertyOp46
 70
     1
102
RTVSPropertyOp47
 70
     1
102
RTVSPropertyOp48
 70
     1
102
RTVSPropertyOp49
 70
     1
102
RTVSPropertyOp50
 70
     1
102
RTVSPropertyOp51
 70
     0
102
RTVSPropertyOp52
 70
     0
102
RTVSPropertyOp53
 70
     1
102
RTVSPropertyOp54
 70
     1
102
RTVSPropertyOp55
 70
     1
102
RTVSPropertyOp56
 70
     1
102
RTVSPropertyOp57
 70
     1
102
RTVSPropertyOp58
 70
     1
102
RTVSPropertyOp59
 70
     1
102
RTVSPropertyOp60
 70
     1
102
RTVSPropertyOp61
 70
     1
102
RTVSPropertyOp62
 70
     1
  0
XRECORD
  5
4AD9
102
{ACAD_REACTORS
330
4AD8
102
}
330
4AD8
100
AcDbXrecord
280
     1
102
RTVSPost2010Prop28
280
     0
102
RTVSPost2010PropOp28
 70
     1
102
RTVSPost2010Prop29
280
     1
102
RTVSPost2010PropOp29
 70
     1
102
RTVSPost2010Prop30
280
     1
102
RTVSPost2010PropOp30
 70
     1
102
RTVSPost2010Prop31
280
     0
102
RTVSPost2010PropOp31
 70
     1
102
RTVSPost2010Prop32
280
     0
102
RTVSPost2010PropOp32
 70
     1
102
RTVSPost2010Prop33
280
     0
102
RTVSPost2010PropOp33
 70
     1
102
RTVSPost2010Prop34
280
     0
102
RTVSPost2010PropOp34
 70
     1
102
RTVSPost2010Prop35
280
     0
102
RTVSPost2010PropOp35
 70
     1
102
RTVSPost2010Prop36
280
     0
102
RTVSPost2010PropOp36
 70
     1
102
RTVSPost2010Prop37
 90
       50
102
RTVSPost2010PropOp37
 70
     1
102
RTVSPost2010Prop38
140
0.0
102
RTVSPost2010PropOp38
 70
     1
102
RTVSPost2010Prop39
140
1.0
102
RTVSPost2010PropOp39
 70
     1
102
RTVSPost2010Prop40
 90
        0
102
RTVSPost2010PropOp40
 70
     1
102
RTVSPost2010Prop41ColorIndex
 90
       18
102
RTVSPost2010Prop41ColorRGB
 90
        0
102
RTVSPost2010PropOp41
 70
     1
102
RTVSPost2010Prop42
 90
       50
102
RTVSPost2010PropOp42
 70
     1
102
RTVSPost2010Prop43
 90
        3
102
RTVSPost2010PropOp43
 70
     1
102
RTVSPost2010Prop44ColorIndex
 90
        5
102
RTVSPost2010Prop44ColorRGB
 90
      255
102
RTVSPost2010PropOp44
 70
     1
102
RTVSPost2010Prop45
280
     0
102
RTVSPost2010PropOp45
 70
     1
102
RTVSPost2010Prop46
 90
       50
102
RTVSPost2010PropOp46
 70
     1
102
RTVSPost2010Prop47
 90
       50
102
RTVSPost2010PropOp47
 70
     1
102
RTVSPost2010Prop48
 90
       50
102
RTVSPost2010PropOp48
 70
     1
102
RTVSPost2010Prop49
280
     0
102
RTVSPost2010PropOp49
 70
     1
102
RTVSPost2010Prop50
 90
       50
102
RTVSPost2010PropOp50
 70
     1
102
RTVSPost2010Prop51ColorIndex
 90
      256
102
RTVSPost2010Prop51ColorRGB
 90
-16777216
102
RTVSPost2010PropOp51
 70
     0
102
RTVSPost2010Prop52
140
1.0
102
RTVSPost2010PropOp52
 70
     0
102
RTVSPost2010Prop53
 90
        2
102
RTVSPost2010PropOp53
 70
     1
102
RTVSPost2010Prop54
  1
strokes_ogs.tif
102
RTVSPost2010PropOp54
 70
     1
102
RTVSPost2010Prop55
280
     0
102
RTVSPost2010PropOp55
 70
     1
102
RTVSPost2010Prop56
140
1.0
102
RTVSPost2010PropOp56
 70
     1
102
RTVSPost2010Prop57
140
1.0
102
RTVSPost2010PropOp57
 70
     1
102
RTVSPropertyOp0
 70
     1
102
RTVSPropertyOp1
 70
     1
102
RTVSPropertyOp2
 70
     1
102
RTVSPropertyOp3
 70
     1
102
RTVSPropertyOp4
 70
     1
102
RTVSPropertyOp5
 70
     1
102
RTVSPropertyOp6
 70
     1
102
RTVSPropertyOp7
 70
     1
102
RTVSPropertyOp8
 70
     1
102
RTVSPropertyOp9
 70
     1
102
RTVSPropertyOp10
 70
     1
102
RTVSPropertyOp11
 70
     1
102
RTVSPropertyOp12
 70
     1
102
RTVSPropertyOp13
 70
     1
102
RTVSPropertyOp14
 70
     1
102
RTVSPropertyOp15
 70
     1
102
RTVSPropertyOp16
 70
     1
102
RTVSPropertyOp17
 70
     1
102
RTVSPropertyOp18
 70
     1
102
RTVSPropertyOp19
 70
     1
102
RTVSPropertyOp20
 70
     1
102
RTVSPropertyOp21
 70
     1
102
RTVSPropertyOp22
 70
     1
102
RTVSPropertyOp23
 70
     1
102
RTVSPropertyOp24
 70
     1
102
RTVSPropertyOp25
 70
     1
102
RTVSPropertyOp26
 70
     1
102
RTVSPropertyOp27
 70
     1
102
RTVSPropertyOp28
 70
     1
102
RTVSPropertyOp29
 70
     1
102
RTVSPropertyOp30
 70
     1
102
RTVSPropertyOp31
 70
     1
102
RTVSPropertyOp32
 70
     1
102
RTVSPropertyOp33
 70
     1
102
RTVSPropertyOp34
 70
     1
102
RTVSPropertyOp35
 70
     1
102
RTVSPropertyOp36
 70
     1
102
RTVSPropertyOp37
 70
     1
102
RTVSPropertyOp38
 70
     1
102
RTVSPropertyOp39
 70
     1
102
RTVSPropertyOp40
 70
     1
102
RTVSPropertyOp41
 70
     1
102
RTVSPropertyOp42
 70
     1
102
RTVSPropertyOp43
 70
     1
102
RTVSPropertyOp44
 70
     1
102
RTVSPropertyOp45
 70
     1
102
RTVSPropertyOp46
 70
     1
102
RTVSPropertyOp47
 70
     1
102
RTVSPropertyOp48
 70
     1
102
RTVSPropertyOp49
 70
     1
102
RTVSPropertyOp50
 70
     1
102
RTVSPropertyOp51
 70
     0
102
RTVSPropertyOp52
 70
     0
102
RTVSPropertyOp53
 70
     1
102
RTVSPropertyOp54
 70
     1
102
RTVSPropertyOp55
 70
     1
102
RTVSPropertyOp56
 70
     1
102
RTVSPropertyOp57
 70
     1
102
RTVSPropertyOp58
 70
     1
102
RTVSPropertyOp59
 70
     1
102
RTVSPropertyOp60
 70
     1
102
RTVSPropertyOp61
 70
     1
102
RTVSPropertyOp62
 70
     1
  0
XRECORD
  5
4ADB
102
{ACAD_REACTORS
330
4ADA
102
}
330
4ADA
100
AcDbXrecord
280
     1
102
RTVSPost2010Prop28
280
     0
102
RTVSPost2010PropOp28
 70
     1
102
RTVSPost2010Prop29
280
     1
102
RTVSPost2010PropOp29
 70
     1
102
RTVSPost2010Prop30
280
     1
102
RTVSPost2010PropOp30
 70
     1
102
RTVSPost2010Prop31
280
     0
102
RTVSPost2010PropOp31
 70
     1
102
RTVSPost2010Prop32
280
     0
102
RTVSPost2010PropOp32
 70
     1
102
RTVSPost2010Prop33
280
     0
102
RTVSPost2010PropOp33
 70
     1
102
RTVSPost2010Prop34
280
     0
102
RTVSPost2010PropOp34
 70
     1
102
RTVSPost2010Prop35
280
     0
102
RTVSPost2010PropOp35
 70
     1
102
RTVSPost2010Prop36
280
     0
102
RTVSPost2010PropOp36
 70
     1
102
RTVSPost2010Prop37
 90
       50
102
RTVSPost2010PropOp37
 70
     1
102
RTVSPost2010Prop38
140
0.0
102
RTVSPost2010PropOp38
 70
     1
102
RTVSPost2010Prop39
140
1.0
102
RTVSPost2010PropOp39
 70
     1
102
RTVSPost2010Prop40
 90
        0
102
RTVSPost2010PropOp40
 70
     1
102
RTVSPost2010Prop41ColorIndex
 90
       18
102
RTVSPost2010Prop41ColorRGB
 90
        0
102
RTVSPost2010PropOp41
 70
     1
102
RTVSPost2010Prop42
 90
       50
102
RTVSPost2010PropOp42
 70
     1
102
RTVSPost2010Prop43
 90
        3
102
RTVSPost2010PropOp43
 70
     1
102
RTVSPost2010Prop44ColorIndex
 90
        5
102
RTVSPost2010Prop44ColorRGB
 90
      255
102
RTVSPost2010PropOp44
 70
     1
102
RTVSPost2010Prop45
280
     0
102
RTVSPost2010PropOp45
 70
     1
102
RTVSPost2010Prop46
 90
       50
102
RTVSPost2010PropOp46
 70
     1
102
RTVSPost2010Prop47
 90
       50
102
RTVSPost2010PropOp47
 70
     1
102
RTVSPost2010Prop48
 90
       50
102
RTVSPost2010PropOp48
 70
     1
102
RTVSPost2010Prop49
280
     0
102
RTVSPost2010PropOp49
 70
     1
102
RTVSPost2010Prop50
 90
       50
102
RTVSPost2010PropOp50
 70
     1
102
RTVSPost2010Prop51ColorIndex
 90
      256
102
RTVSPost2010Prop51ColorRGB
 90
-16777216
102
RTVSPost2010PropOp51
 70
     0
102
RTVSPost2010Prop52
140
1.0
102
RTVSPost2010PropOp52
 70
     0
102
RTVSPost2010Prop53
 90
        2
102
RTVSPost2010PropOp53
 70
     1
102
RTVSPost2010Prop54
  1
strokes_ogs.tif
102
RTVSPost2010PropOp54
 70
     1
102
RTVSPost2010Prop55
280
     0
102
RTVSPost2010PropOp55
 70
     1
102
RTVSPost2010Prop56
140
1.0
102
RTVSPost2010PropOp56
 70
     1
102
RTVSPost2010Prop57
140
1.0
102
RTVSPost2010PropOp57
 70
     1
102
RTVSPropertyOp0
 70
     1
102
RTVSPropertyOp1
 70
     1
102
RTVSPropertyOp2
 70
     1
102
RTVSPropertyOp3
 70
     1
102
RTVSPropertyOp4
 70
     1
102
RTVSPropertyOp5
 70
     1
102
RTVSPropertyOp6
 70
     1
102
RTVSPropertyOp7
 70
     1
102
RTVSPropertyOp8
 70
     1
102
RTVSPropertyOp9
 70
     1
102
RTVSPropertyOp10
 70
     1
102
RTVSPropertyOp11
 70
     1
102
RTVSPropertyOp12
 70
     1
102
RTVSPropertyOp13
 70
     1
102
RTVSPropertyOp14
 70
     1
102
RTVSPropertyOp15
 70
     1
102
RTVSPropertyOp16
 70
     1
102
RTVSPropertyOp17
 70
     1
102
RTVSPropertyOp18
 70
     1
102
RTVSPropertyOp19
 70
     1
102
RTVSPropertyOp20
 70
     1
102
RTVSPropertyOp21
 70
     1
102
RTVSPropertyOp22
 70
     1
102
RTVSPropertyOp23
 70
     1
102
RTVSPropertyOp24
 70
     1
102
RTVSPropertyOp25
 70
     1
102
RTVSPropertyOp26
 70
     1
102
RTVSPropertyOp27
 70
     1
102
RTVSPropertyOp28
 70
     1
102
RTVSPropertyOp29
 70
     1
102
RTVSPropertyOp30
 70
     1
102
RTVSPropertyOp31
 70
     1
102
RTVSPropertyOp32
 70
     1
102
RTVSPropertyOp33
 70
     1
102
RTVSPropertyOp34
 70
     1
102
RTVSPropertyOp35
 70
     1
102
RTVSPropertyOp36
 70
     1
102
RTVSPropertyOp37
 70
     1
102
RTVSPropertyOp38
 70
     1
102
RTVSPropertyOp39
 70
     1
102
RTVSPropertyOp40
 70
     1
102
RTVSPropertyOp41
 70
     1
102
RTVSPropertyOp42
 70
     1
102
RTVSPropertyOp43
 70
     1
102
RTVSPropertyOp44
 70
     1
102
RTVSPropertyOp45
 70
     1
102
RTVSPropertyOp46
 70
     1
102
RTVSPropertyOp47
 70
     1
102
RTVSPropertyOp48
 70
     1
102
RTVSPropertyOp49
 70
     1
102
RTVSPropertyOp50
 70
     1
102
RTVSPropertyOp51
 70
     0
102
RTVSPropertyOp52
 70
     0
102
RTVSPropertyOp53
 70
     1
102
RTVSPropertyOp54
 70
     1
102
RTVSPropertyOp55
 70
     1
102
RTVSPropertyOp56
 70
     1
102
RTVSPropertyOp57
 70
     1
102
RTVSPropertyOp58
 70
     1
102
RTVSPropertyOp59
 70
     1
102
RTVSPropertyOp60
 70
     1
102
RTVSPropertyOp61
 70
     1
102
RTVSPropertyOp62
 70
     1
  0
XRECORD
  5
4ADD
102
{ACAD_REACTORS
330
4ADC
102
}
330
4ADC
100
AcDbXrecord
280
     1
102
RTVSPost2010Prop28
280
     0
102
RTVSPost2010PropOp28
 70
     1
102
RTVSPost2010Prop29
280
     1
102
RTVSPost2010PropOp29
 70
     1
102
RTVSPost2010Prop30
280
     1
102
RTVSPost2010PropOp30
 70
     1
102
RTVSPost2010Prop31
280
     0
102
RTVSPost2010PropOp31
 70
     1
102
RTVSPost2010Prop32
280
     0
102
RTVSPost2010PropOp32
 70
     1
102
RTVSPost2010Prop33
280
     0
102
RTVSPost2010PropOp33
 70
     1
102
RTVSPost2010Prop34
280
     0
102
RTVSPost2010PropOp34
 70
     1
102
RTVSPost2010Prop35
280
     0
102
RTVSPost2010PropOp35
 70
     1
102
RTVSPost2010Prop36
280
     0
102
RTVSPost2010PropOp36
 70
     1
102
RTVSPost2010Prop37
 90
       50
102
RTVSPost2010PropOp37
 70
     1
102
RTVSPost2010Prop38
140
0.0
102
RTVSPost2010PropOp38
 70
     1
102
RTVSPost2010Prop39
140
1.0
102
RTVSPost2010PropOp39
 70
     1
102
RTVSPost2010Prop40
 90
        0
102
RTVSPost2010PropOp40
 70
     1
102
RTVSPost2010Prop41ColorIndex
 90
       18
102
RTVSPost2010Prop41ColorRGB
 90
        0
102
RTVSPost2010PropOp41
 70
     1
102
RTVSPost2010Prop42
 90
       50
102
RTVSPost2010PropOp42
 70
     1
102
RTVSPost2010Prop43
 90
        3
102
RTVSPost2010PropOp43
 70
     1
102
RTVSPost2010Prop44ColorIndex
 90
        5
102
RTVSPost2010Prop44ColorRGB
 90
      255
102
RTVSPost2010PropOp44
 70
     1
102
RTVSPost2010Prop45
280
     0
102
RTVSPost2010PropOp45
 70
     1
102
RTVSPost2010Prop46
 90
       50
102
RTVSPost2010PropOp46
 70
     1
102
RTVSPost2010Prop47
 90
       50
102
RTVSPost2010PropOp47
 70
     1
102
RTVSPost2010Prop48
 90
       50
102
RTVSPost2010PropOp48
 70
     1
102
RTVSPost2010Prop49
280
     0
102
RTVSPost2010PropOp49
 70
     1
102
RTVSPost2010Prop50
 90
       50
102
RTVSPost2010PropOp50
 70
     1
102
RTVSPost2010Prop51ColorIndex
 90
      256
102
RTVSPost2010Prop51ColorRGB
 90
-16777216
102
RTVSPost2010PropOp51
 70
     0
102
RTVSPost2010Prop52
140
1.0
102
RTVSPost2010PropOp52
 70
     0
102
RTVSPost2010Prop53
 90
        2
102
RTVSPost2010PropOp53
 70
     1
102
RTVSPost2010Prop54
  1
strokes_ogs.tif
102
RTVSPost2010PropOp54
 70
     1
102
RTVSPost2010Prop55
280
     0
102
RTVSPost2010PropOp55
 70
     1
102
RTVSPost2010Prop56
140
1.0
102
RTVSPost2010PropOp56
 70
     1
102
RTVSPost2010Prop57
140
1.0
102
RTVSPost2010PropOp57
 70
     1
102
RTVSPropertyOp0
 70
     1
102
RTVSPropertyOp1
 70
     1
102
RTVSPropertyOp2
 70
     1
102
RTVSPropertyOp3
 70
     1
102
RTVSPropertyOp4
 70
     1
102
RTVSPropertyOp5
 70
     1
102
RTVSPropertyOp6
 70
     1
102
RTVSPropertyOp7
 70
     1
102
RTVSPropertyOp8
 70
     1
102
RTVSPropertyOp9
 70
     1
102
RTVSPropertyOp10
 70
     1
102
RTVSPropertyOp11
 70
     1
102
RTVSPropertyOp12
 70
     1
102
RTVSPropertyOp13
 70
     1
102
RTVSPropertyOp14
 70
     1
102
RTVSPropertyOp15
 70
     1
102
RTVSPropertyOp16
 70
     1
102
RTVSPropertyOp17
 70
     1
102
RTVSPropertyOp18
 70
     1
102
RTVSPropertyOp19
 70
     1
102
RTVSPropertyOp20
 70
     1
102
RTVSPropertyOp21
 70
     1
102
RTVSPropertyOp22
 70
     1
102
RTVSPropertyOp23
 70
     1
102
RTVSPropertyOp24
 70
     1
102
RTVSPropertyOp25
 70
     1
102
RTVSPropertyOp26
 70
     1
102
RTVSPropertyOp27
 70
     1
102
RTVSPropertyOp28
 70
     1
102
RTVSPropertyOp29
 70
     1
102
RTVSPropertyOp30
 70
     1
102
RTVSPropertyOp31
 70
     1
102
RTVSPropertyOp32
 70
     1
102
RTVSPropertyOp33
 70
     1
102
RTVSPropertyOp34
 70
     1
102
RTVSPropertyOp35
 70
     1
102
RTVSPropertyOp36
 70
     1
102
RTVSPropertyOp37
 70
     1
102
RTVSPropertyOp38
 70
     1
102
RTVSPropertyOp39
 70
     1
102
RTVSPropertyOp40
 70
     1
102
RTVSPropertyOp41
 70
     1
102
RTVSPropertyOp42
 70
     1
102
RTVSPropertyOp43
 70
     1
102
RTVSPropertyOp44
 70
     1
102
RTVSPropertyOp45
 70
     1
102
RTVSPropertyOp46
 70
     1
102
RTVSPropertyOp47
 70
     1
102
RTVSPropertyOp48
 70
     1
102
RTVSPropertyOp49
 70
     1
102
RTVSPropertyOp50
 70
     1
102
RTVSPropertyOp51
 70
     0
102
RTVSPropertyOp52
 70
     0
102
RTVSPropertyOp53
 70
     1
102
RTVSPropertyOp54
 70
     1
102
RTVSPropertyOp55
 70
     1
102
RTVSPropertyOp56
 70
     1
102
RTVSPropertyOp57
 70
     1
102
RTVSPropertyOp58
 70
     1
102
RTVSPropertyOp59
 70
     1
102
RTVSPropertyOp60
 70
     1
102
RTVSPropertyOp61
 70
     1
102
RTVSPropertyOp62
 70
     1
  0
XRECORD
  5
4AE5
102
{ACAD_REACTORS
330
4AE4
102
}
330
4AE4
100
AcDbXrecord
280
     1
102
RTVSPost2010Prop28
280
     0
102
RTVSPost2010PropOp28
 70
     1
102
RTVSPost2010Prop29
280
     1
102
RTVSPost2010PropOp29
 70
     1
102
RTVSPost2010Prop30
280
     1
102
RTVSPost2010PropOp30
 70
     1
102
RTVSPost2010Prop31
280
     0
102
RTVSPost2010PropOp31
 70
     1
102
RTVSPost2010Prop32
280
     0
102
RTVSPost2010PropOp32
 70
     1
102
RTVSPost2010Prop33
280
     0
102
RTVSPost2010PropOp33
 70
     1
102
RTVSPost2010Prop34
280
     0
102
RTVSPost2010PropOp34
 70
     1
102
RTVSPost2010Prop35
280
     0
102
RTVSPost2010PropOp35
 70
     1
102
RTVSPost2010Prop36
280
     0
102
RTVSPost2010PropOp36
 70
     1
102
RTVSPost2010Prop37
 90
       50
102
RTVSPost2010PropOp37
 70
     1
102
RTVSPost2010Prop38
140
0.0
102
RTVSPost2010PropOp38
 70
     1
102
RTVSPost2010Prop39
140
1.0
102
RTVSPost2010PropOp39
 70
     1
102
RTVSPost2010Prop40
 90
        0
102
RTVSPost2010PropOp40
 70
     1
102
RTVSPost2010Prop41ColorIndex
 90
       18
102
RTVSPost2010Prop41ColorRGB
 90
        0
102
RTVSPost2010PropOp41
 70
     1
102
RTVSPost2010Prop42
 90
       50
102
RTVSPost2010PropOp42
 70
     1
102
RTVSPost2010Prop43
 90
        3
102
RTVSPost2010PropOp43
 70
     1
102
RTVSPost2010Prop44ColorIndex
 90
        5
102
RTVSPost2010Prop44ColorRGB
 90
      255
102
RTVSPost2010PropOp44
 70
     1
102
RTVSPost2010Prop45
280
     0
102
RTVSPost2010PropOp45
 70
     1
102
RTVSPost2010Prop46
 90
       50
102
RTVSPost2010PropOp46
 70
     1
102
RTVSPost2010Prop47
 90
       50
102
RTVSPost2010PropOp47
 70
     1
102
RTVSPost2010Prop48
 90
       50
102
RTVSPost2010PropOp48
 70
     1
102
RTVSPost2010Prop49
280
     0
102
RTVSPost2010PropOp49
 70
     1
102
RTVSPost2010Prop50
 90
       50
102
RTVSPost2010PropOp50
 70
     1
102
RTVSPost2010Prop51ColorIndex
 90
      256
102
RTVSPost2010Prop51ColorRGB
 90
-16777216
102
RTVSPost2010PropOp51
 70
     0
102
RTVSPost2010Prop52
140
1.0
102
RTVSPost2010PropOp52
 70
     0
102
RTVSPost2010Prop53
 90
        2
102
RTVSPost2010PropOp53
 70
     1
102
RTVSPost2010Prop54
  1
strokes_ogs.tif
102
RTVSPost2010PropOp54
 70
     1
102
RTVSPost2010Prop55
280
     0
102
RTVSPost2010PropOp55
 70
     1
102
RTVSPost2010Prop56
140
1.0
102
RTVSPost2010PropOp56
 70
     1
102
RTVSPost2010Prop57
140
1.0
102
RTVSPost2010PropOp57
 70
     1
102
RTVSPropertyOp0
 70
     1
102
RTVSPropertyOp1
 70
     1
102
RTVSPropertyOp2
 70
     1
102
RTVSPropertyOp3
 70
     1
102
RTVSPropertyOp4
 70
     1
102
RTVSPropertyOp5
 70
     1
102
RTVSPropertyOp6
 70
     1
102
RTVSPropertyOp7
 70
     1
102
RTVSPropertyOp8
 70
     1
102
RTVSPropertyOp9
 70
     1
102
RTVSPropertyOp10
 70
     1
102
RTVSPropertyOp11
 70
     1
102
RTVSPropertyOp12
 70
     1
102
RTVSPropertyOp13
 70
     1
102
RTVSPropertyOp14
 70
     1
102
RTVSPropertyOp15
 70
     1
102
RTVSPropertyOp16
 70
     1
102
RTVSPropertyOp17
 70
     1
102
RTVSPropertyOp18
 70
     1
102
RTVSPropertyOp19
 70
     1
102
RTVSPropertyOp20
 70
     1
102
RTVSPropertyOp21
 70
     1
102
RTVSPropertyOp22
 70
     1
102
RTVSPropertyOp23
 70
     1
102
RTVSPropertyOp24
 70
     1
102
RTVSPropertyOp25
 70
     1
102
RTVSPropertyOp26
 70
     1
102
RTVSPropertyOp27
 70
     1
102
RTVSPropertyOp28
 70
     1
102
RTVSPropertyOp29
 70
     1
102
RTVSPropertyOp30
 70
     1
102
RTVSPropertyOp31
 70
     1
102
RTVSPropertyOp32
 70
     1
102
RTVSPropertyOp33
 70
     1
102
RTVSPropertyOp34
 70
     1
102
RTVSPropertyOp35
 70
     1
102
RTVSPropertyOp36
 70
     1
102
RTVSPropertyOp37
 70
     1
102
RTVSPropertyOp38
 70
     1
102
RTVSPropertyOp39
 70
     1
102
RTVSPropertyOp40
 70
     1
102
RTVSPropertyOp41
 70
     1
102
RTVSPropertyOp42
 70
     1
102
RTVSPropertyOp43
 70
     1
102
RTVSPropertyOp44
 70
     1
102
RTVSPropertyOp45
 70
     1
102
RTVSPropertyOp46
 70
     1
102
RTVSPropertyOp47
 70
     1
102
RTVSPropertyOp48
 70
     1
102
RTVSPropertyOp49
 70
     1
102
RTVSPropertyOp50
 70
     1
102
RTVSPropertyOp51
 70
     0
102
RTVSPropertyOp52
 70
     0
102
RTVSPropertyOp53
 70
     1
102
RTVSPropertyOp54
 70
     1
102
RTVSPropertyOp55
 70
     1
102
RTVSPropertyOp56
 70
     1
102
RTVSPropertyOp57
 70
     1
102
RTVSPropertyOp58
 70
     1
102
RTVSPropertyOp59
 70
     1
102
RTVSPropertyOp60
 70
     1
102
RTVSPropertyOp61
 70
     1
102
RTVSPropertyOp62
 70
     1
  0
XRECORD
  5
4B01
102
{ACAD_REACTORS
330
4B00
102
}
330
4B00
100
AcDbXrecord
280
     1
102
RTVSPost2010Prop28
280
     0
102
RTVSPost2010PropOp28
 70
     0
102
RTVSPost2010Prop29
280
     1
102
RTVSPost2010PropOp29
 70
     0
102
RTVSPost2010Prop30
280
     1
102
RTVSPost2010PropOp30
 70
     0
102
RTVSPost2010Prop31
280
     0
102
RTVSPost2010PropOp31
 70
     0
102
RTVSPost2010Prop32
280
     0
102
RTVSPost2010PropOp32
 70
     0
102
RTVSPost2010Prop33
280
     0
102
RTVSPost2010PropOp33
 70
     0
102
RTVSPost2010Prop34
280
     0
102
RTVSPost2010PropOp34
 70
     0
102
RTVSPost2010Prop35
280
     0
102
RTVSPost2010PropOp35
 70
     0
102
RTVSPost2010Prop36
280
     0
102
RTVSPost2010PropOp36
 70
     0
102
RTVSPost2010Prop37
 90
       50
102
RTVSPost2010PropOp37
 70
     0
102
RTVSPost2010Prop38
140
0.0
102
RTVSPost2010PropOp38
 70
     0
102
RTVSPost2010Prop39
140
1.0
102
RTVSPost2010PropOp39
 70
     0
102
RTVSPost2010Prop40
 90
        0
102
RTVSPost2010PropOp40
 70
     0
102
RTVSPost2010Prop41ColorIndex
 90
       18
102
RTVSPost2010Prop41ColorRGB
 90
        0
102
RTVSPost2010PropOp41
 70
     0
102
RTVSPost2010Prop42
 90
       50
102
RTVSPost2010PropOp42
 70
     0
102
RTVSPost2010Prop43
 90
        3
102
RTVSPost2010PropOp43
 70
     0
102
RTVSPost2010Prop44ColorIndex
 90
        5
102
RTVSPost2010Prop44ColorRGB
 90
      255
102
RTVSPost2010PropOp44
 70
     0
102
RTVSPost2010Prop45
280
     0
102
RTVSPost2010PropOp45
 70
     0
102
RTVSPost2010Prop46
 90
       50
102
RTVSPost2010PropOp46
 70
     0
102
RTVSPost2010Prop47
 90
       50
102
RTVSPost2010PropOp47
 70
     0
102
RTVSPost2010Prop48
 90
       50
102
RTVSPost2010PropOp48
 70
     0
102
RTVSPost2010Prop49
280
     0
102
RTVSPost2010PropOp49
 70
     0
102
RTVSPost2010Prop50
 90
       50
102
RTVSPost2010PropOp50
 70
     0
102
RTVSPost2010Prop51ColorIndex
 90
      256
102
RTVSPost2010Prop51ColorRGB
 90
-16777216
102
RTVSPost2010PropOp51
 70
     0
102
RTVSPost2010Prop52
140
1.0
102
RTVSPost2010PropOp52
 70
     0
102
RTVSPost2010Prop53
 90
        2
102
RTVSPost2010PropOp53
 70
     0
102
RTVSPost2010Prop54
  1
strokes_ogs.tif
102
RTVSPost2010PropOp54
 70
     0
102
RTVSPost2010Prop55
280
     0
102
RTVSPost2010PropOp55
 70
     0
102
RTVSPost2010Prop56
140
1.0
102
RTVSPost2010PropOp56
 70
     0
102
RTVSPost2010Prop57
140
1.0
102
RTVSPost2010PropOp57
 70
     0
102
RTVSPropertyOp0
 70
     0
102
RTVSPropertyOp1
 70
     0
102
RTVSPropertyOp2
 70
     0
102
RTVSPropertyOp3
 70
     0
102
RTVSPropertyOp4
 70
     0
102
RTVSPropertyOp5
 70
     0
102
RTVSPropertyOp6
 70
     0
102
RTVSPropertyOp7
 70
     0
102
RTVSPropertyOp8
 70
     0
102
RTVSPropertyOp9
 70
     0
102
RTVSPropertyOp10
 70
     0
102
RTVSPropertyOp11
 70
     0
102
RTVSPropertyOp12
 70
     0
102
RTVSPropertyOp13
 70
     0
102
RTVSPropertyOp14
 70
     2
102
RTVSPropertyOp15
 70
     0
102
RTVSPropertyOp16
 70
     0
102
RTVSPropertyOp17
 70
     0
102
RTVSPropertyOp18
 70
     0
102
RTVSPropertyOp19
 70
     0
102
RTVSPropertyOp20
 70
     0
102
RTVSPropertyOp21
 70
     0
102
RTVSPropertyOp22
 70
     0
102
RTVSPropertyOp23
 70
     0
102
RTVSPropertyOp24
 70
     0
102
RTVSPropertyOp25
 70
     0
102
RTVSPropertyOp26
 70
     0
102
RTVSPropertyOp27
 70
     0
102
RTVSPropertyOp28
 70
     0
102
RTVSPropertyOp29
 70
     0
102
RTVSPropertyOp30
 70
     0
102
RTVSPropertyOp31
 70
     0
102
RTVSPropertyOp32
 70
     0
102
RTVSPropertyOp33
 70
     0
102
RTVSPropertyOp34
 70
     0
102
RTVSPropertyOp35
 70
     0
102
RTVSPropertyOp36
 70
     0
102
RTVSPropertyOp37
 70
     0
102
RTVSPropertyOp38
 70
     0
102
RTVSPropertyOp39
 70
     0
102
RTVSPropertyOp40
 70
     0
102
RTVSPropertyOp41
 70
     0
102
RTVSPropertyOp42
 70
     0
102
RTVSPropertyOp43
 70
     0
102
RTVSPropertyOp44
 70
     0
102
RTVSPropertyOp45
 70
     0
102
RTVSPropertyOp46
 70
     0
102
RTVSPropertyOp47
 70
     0
102
RTVSPropertyOp48
 70
     0
102
RTVSPropertyOp49
 70
     0
102
RTVSPropertyOp50
 70
     0
102
RTVSPropertyOp51
 70
     0
102
RTVSPropertyOp52
 70
     0
102
RTVSPropertyOp53
 70
     0
102
RTVSPropertyOp54
 70
     0
102
RTVSPropertyOp55
 70
     0
102
RTVSPropertyOp56
 70
     0
102
RTVSPropertyOp57
 70
     0
102
RTVSPropertyOp58
 70
     1
102
RTVSPropertyOp59
 70
     1
102
RTVSPropertyOp60
 70
     1
102
RTVSPropertyOp61
 70
     1
102
RTVSPropertyOp62
 70
     1
  0
XRECORD
  5
4AF1
102
{ACAD_REACTORS
330
4AF0
102
}
330
4AF0
100
AcDbXrecord
280
     1
102
RTVSPost2010Prop28
280
     0
102
RTVSPost2010PropOp28
 70
     1
102
RTVSPost2010Prop29
280
     1
102
RTVSPost2010PropOp29
 70
     1
102
RTVSPost2010Prop30
280
     1
102
RTVSPost2010PropOp30
 70
     1
102
RTVSPost2010Prop31
280
     0
102
RTVSPost2010PropOp31
 70
     1
102
RTVSPost2010Prop32
280
     0
102
RTVSPost2010PropOp32
 70
     1
102
RTVSPost2010Prop33
280
     0
102
RTVSPost2010PropOp33
 70
     1
102
RTVSPost2010Prop34
280
     0
102
RTVSPost2010PropOp34
 70
     1
102
RTVSPost2010Prop35
280
     0
102
RTVSPost2010PropOp35
 70
     1
102
RTVSPost2010Prop36
280
     0
102
RTVSPost2010PropOp36
 70
     1
102
RTVSPost2010Prop37
 90
       50
102
RTVSPost2010PropOp37
 70
     1
102
RTVSPost2010Prop38
140
0.0
102
RTVSPost2010PropOp38
 70
     1
102
RTVSPost2010Prop39
140
1.0
102
RTVSPost2010PropOp39
 70
     1
102
RTVSPost2010Prop40
 90
        0
102
RTVSPost2010PropOp40
 70
     1
102
RTVSPost2010Prop41ColorIndex
 90
       18
102
RTVSPost2010Prop41ColorRGB
 90
        0
102
RTVSPost2010PropOp41
 70
     1
102
RTVSPost2010Prop42
 90
       50
102
RTVSPost2010PropOp42
 70
     1
102
RTVSPost2010Prop43
 90
        3
102
RTVSPost2010PropOp43
 70
     1
102
RTVSPost2010Prop44ColorIndex
 90
        5
102
RTVSPost2010Prop44ColorRGB
 90
      255
102
RTVSPost2010PropOp44
 70
     1
102
RTVSPost2010Prop45
280
     0
102
RTVSPost2010PropOp45
 70
     1
102
RTVSPost2010Prop46
 90
       50
102
RTVSPost2010PropOp46
 70
     1
102
RTVSPost2010Prop47
 90
       50
102
RTVSPost2010PropOp47
 70
     1
102
RTVSPost2010Prop48
 90
       50
102
RTVSPost2010PropOp48
 70
     1
102
RTVSPost2010Prop49
280
     0
102
RTVSPost2010PropOp49
 70
     1
102
RTVSPost2010Prop50
 90
       50
102
RTVSPost2010PropOp50
 70
     1
102
RTVSPost2010Prop51ColorIndex
 90
      256
102
RTVSPost2010Prop51ColorRGB
 90
-16777216
102
RTVSPost2010PropOp51
 70
     0
102
RTVSPost2010Prop52
140
1.0
102
RTVSPost2010PropOp52
 70
     0
102
RTVSPost2010Prop53
 90
        2
102
RTVSPost2010PropOp53
 70
     1
102
RTVSPost2010Prop54
  1
strokes_ogs.tif
102
RTVSPost2010PropOp54
 70
     1
102
RTVSPost2010Prop55
280
     0
102
RTVSPost2010PropOp55
 70
     1
102
RTVSPost2010Prop56
140
1.0
102
RTVSPost2010PropOp56
 70
     1
102
RTVSPost2010Prop57
140
1.0
102
RTVSPost2010PropOp57
 70
     1
102
RTVSPropertyOp0
 70
     1
102
RTVSPropertyOp1
 70
     1
102
RTVSPropertyOp2
 70
     1
102
RTVSPropertyOp3
 70
     1
102
RTVSPropertyOp4
 70
     1
102
RTVSPropertyOp5
 70
     1
102
RTVSPropertyOp6
 70
     1
102
RTVSPropertyOp7
 70
     1
102
RTVSPropertyOp8
 70
     1
102
RTVSPropertyOp9
 70
     1
102
RTVSPropertyOp10
 70
     1
102
RTVSPropertyOp11
 70
     1
102
RTVSPropertyOp12
 70
     1
102
RTVSPropertyOp13
 70
     1
102
RTVSPropertyOp14
 70
     1
102
RTVSPropertyOp15
 70
     1
102
RTVSPropertyOp16
 70
     1
102
RTVSPropertyOp17
 70
     1
102
RTVSPropertyOp18
 70
     1
102
RTVSPropertyOp19
 70
     1
102
RTVSPropertyOp20
 70
     1
102
RTVSPropertyOp21
 70
     1
102
RTVSPropertyOp22
 70
     1
102
RTVSPropertyOp23
 70
     1
102
RTVSPropertyOp24
 70
     1
102
RTVSPropertyOp25
 70
     1
102
RTVSPropertyOp26
 70
     1
102
RTVSPropertyOp27
 70
     1
102
RTVSPropertyOp28
 70
     1
102
RTVSPropertyOp29
 70
     1
102
RTVSPropertyOp30
 70
     1
102
RTVSPropertyOp31
 70
     1
102
RTVSPropertyOp32
 70
     1
102
RTVSPropertyOp33
 70
     1
102
RTVSPropertyOp34
 70
     1
102
RTVSPropertyOp35
 70
     1
102
RTVSPropertyOp36
 70
     1
102
RTVSPropertyOp37
 70
     1
102
RTVSPropertyOp38
 70
     1
102
RTVSPropertyOp39
 70
     1
102
RTVSPropertyOp40
 70
     1
102
RTVSPropertyOp41
 70
     1
102
RTVSPropertyOp42
 70
     1
102
RTVSPropertyOp43
 70
     1
102
RTVSPropertyOp44
 70
     1
102
RTVSPropertyOp45
 70
     1
102
RTVSPropertyOp46
 70
     1
102
RTVSPropertyOp47
 70
     1
102
RTVSPropertyOp48
 70
     1
102
RTVSPropertyOp49
 70
     1
102
RTVSPropertyOp50
 70
     1
102
RTVSPropertyOp51
 70
     0
102
RTVSPropertyOp52
 70
     0
102
RTVSPropertyOp53
 70
     1
102
RTVSPropertyOp54
 70
     1
102
RTVSPropertyOp55
 70
     1
102
RTVSPropertyOp56
 70
     1
102
RTVSPropertyOp57
 70
     1
102
RTVSPropertyOp58
 70
     1
102
RTVSPropertyOp59
 70
     1
102
RTVSPropertyOp60
 70
     1
102
RTVSPropertyOp61
 70
     1
102
RTVSPropertyOp62
 70
     1
  0
XRECORD
  5
4B03
102
{ACAD_REACTORS
330
4B02
102
}
330
4B02
100
AcDbXrecord
280
     1
102
RTVSPost2010Prop28
280
     0
102
RTVSPost2010PropOp28
 70
     0
102
RTVSPost2010Prop29
280
     1
102
RTVSPost2010PropOp29
 70
     0
102
RTVSPost2010Prop30
280
     1
102
RTVSPost2010PropOp30
 70
     0
102
RTVSPost2010Prop31
280
     0
102
RTVSPost2010PropOp31
 70
     0
102
RTVSPost2010Prop32
280
     0
102
RTVSPost2010PropOp32
 70
     0
102
RTVSPost2010Prop33
280
     0
102
RTVSPost2010PropOp33
 70
     0
102
RTVSPost2010Prop34
280
     0
102
RTVSPost2010PropOp34
 70
     0
102
RTVSPost2010Prop35
280
     0
102
RTVSPost2010PropOp35
 70
     0
102
RTVSPost2010Prop36
280
     0
102
RTVSPost2010PropOp36
 70
     0
102
RTVSPost2010Prop37
 90
       50
102
RTVSPost2010PropOp37
 70
     0
102
RTVSPost2010Prop38
140
0.0
102
RTVSPost2010PropOp38
 70
     0
102
RTVSPost2010Prop39
140
1.0
102
RTVSPost2010PropOp39
 70
     0
102
RTVSPost2010Prop40
 90
        0
102
RTVSPost2010PropOp40
 70
     0
102
RTVSPost2010Prop41ColorIndex
 90
       18
102
RTVSPost2010Prop41ColorRGB
 90
        0
102
RTVSPost2010PropOp41
 70
     0
102
RTVSPost2010Prop42
 90
       50
102
RTVSPost2010PropOp42
 70
     0
102
RTVSPost2010Prop43
 90
        3
102
RTVSPost2010PropOp43
 70
     0
102
RTVSPost2010Prop44ColorIndex
 90
        5
102
RTVSPost2010Prop44ColorRGB
 90
      255
102
RTVSPost2010PropOp44
 70
     0
102
RTVSPost2010Prop45
280
     0
102
RTVSPost2010PropOp45
 70
     0
102
RTVSPost2010Prop46
 90
       50
102
RTVSPost2010PropOp46
 70
     0
102
RTVSPost2010Prop47
 90
       50
102
RTVSPost2010PropOp47
 70
     0
102
RTVSPost2010Prop48
 90
       50
102
RTVSPost2010PropOp48
 70
     0
102
RTVSPost2010Prop49
280
     0
102
RTVSPost2010PropOp49
 70
     0
102
RTVSPost2010Prop50
 90
       50
102
RTVSPost2010PropOp50
 70
     0
102
RTVSPost2010Prop51ColorIndex
 90
      256
102
RTVSPost2010Prop51ColorRGB
 90
-16777216
102
RTVSPost2010PropOp51
 70
     0
102
RTVSPost2010Prop52
140
1.0
102
RTVSPost2010PropOp52
 70
     0
102
RTVSPost2010Prop53
 90
        2
102
RTVSPost2010PropOp53
 70
     0
102
RTVSPost2010Prop54
  1
strokes_ogs.tif
102
RTVSPost2010PropOp54
 70
     0
102
RTVSPost2010Prop55
280
     0
102
RTVSPost2010PropOp55
 70
     0
102
RTVSPost2010Prop56
140
1.0
102
RTVSPost2010PropOp56
 70
     0
102
RTVSPost2010Prop57
140
1.0
102
RTVSPost2010PropOp57
 70
     0
102
RTVSPropertyOp0
 70
     0
102
RTVSPropertyOp1
 70
     0
102
RTVSPropertyOp2
 70
     0
102
RTVSPropertyOp3
 70
     0
102
RTVSPropertyOp4
 70
     0
102
RTVSPropertyOp5
 70
     0
102
RTVSPropertyOp6
 70
     0
102
RTVSPropertyOp7
 70
     0
102
RTVSPropertyOp8
 70
     0
102
RTVSPropertyOp9
 70
     0
102
RTVSPropertyOp10
 70
     0
102
RTVSPropertyOp11
 70
     0
102
RTVSPropertyOp12
 70
     0
102
RTVSPropertyOp13
 70
     0
102
RTVSPropertyOp14
 70
     2
102
RTVSPropertyOp15
 70
     0
102
RTVSPropertyOp16
 70
     0
102
RTVSPropertyOp17
 70
     0
102
RTVSPropertyOp18
 70
     0
102
RTVSPropertyOp19
 70
     0
102
RTVSPropertyOp20
 70
     0
102
RTVSPropertyOp21
 70
     0
102
RTVSPropertyOp22
 70
     0
102
RTVSPropertyOp23
 70
     0
102
RTVSPropertyOp24
 70
     0
102
RTVSPropertyOp25
 70
     0
102
RTVSPropertyOp26
 70
     0
102
RTVSPropertyOp27
 70
     0
102
RTVSPropertyOp28
 70
     0
102
RTVSPropertyOp29
 70
     0
102
RTVSPropertyOp30
 70
     0
102
RTVSPropertyOp31
 70
     0
102
RTVSPropertyOp32
 70
     0
102
RTVSPropertyOp33
 70
     0
102
RTVSPropertyOp34
 70
     0
102
RTVSPropertyOp35
 70
     0
102
RTVSPropertyOp36
 70
     0
102
RTVSPropertyOp37
 70
     0
102
RTVSPropertyOp38
 70
     0
102
RTVSPropertyOp39
 70
     0
102
RTVSPropertyOp40
 70
     0
102
RTVSPropertyOp41
 70
     0
102
RTVSPropertyOp42
 70
     0
102
RTVSPropertyOp43
 70
     0
102
RTVSPropertyOp44
 70
     0
102
RTVSPropertyOp45
 70
     0
102
RTVSPropertyOp46
 70
     0
102
RTVSPropertyOp47
 70
     0
102
RTVSPropertyOp48
 70
     0
102
RTVSPropertyOp49
 70
     0
102
RTVSPropertyOp50
 70
     0
102
RTVSPropertyOp51
 70
     0
102
RTVSPropertyOp52
 70
     0
102
RTVSPropertyOp53
 70
     0
102
RTVSPropertyOp54
 70
     0
102
RTVSPropertyOp55
 70
     0
102
RTVSPropertyOp56
 70
     0
102
RTVSPropertyOp57
 70
     0
102
RTVSPropertyOp58
 70
     1
102
RTVSPropertyOp59
 70
     1
102
RTVSPropertyOp60
 70
     1
102
RTVSPropertyOp61
 70
     1
102
RTVSPropertyOp62
 70
     1
  0
XRECORD
  5
4AE9
102
{ACAD_REACTORS
330
4AE8
102
}
330
4AE8
100
AcDbXrecord
280
     1
102
RTVSPost2010Prop28
280
     0
102
RTVSPost2010PropOp28
 70
     1
102
RTVSPost2010Prop29
280
     1
102
RTVSPost2010PropOp29
 70
     1
102
RTVSPost2010Prop30
280
     1
102
RTVSPost2010PropOp30
 70
     1
102
RTVSPost2010Prop31
280
     0
102
RTVSPost2010PropOp31
 70
     1
102
RTVSPost2010Prop32
280
     0
102
RTVSPost2010PropOp32
 70
     1
102
RTVSPost2010Prop33
280
     0
102
RTVSPost2010PropOp33
 70
     1
102
RTVSPost2010Prop34
280
     0
102
RTVSPost2010PropOp34
 70
     1
102
RTVSPost2010Prop35
280
     0
102
RTVSPost2010PropOp35
 70
     1
102
RTVSPost2010Prop36
280
     0
102
RTVSPost2010PropOp36
 70
     1
102
RTVSPost2010Prop37
 90
       50
102
RTVSPost2010PropOp37
 70
     1
102
RTVSPost2010Prop38
140
0.0
102
RTVSPost2010PropOp38
 70
     1
102
RTVSPost2010Prop39
140
1.0
102
RTVSPost2010PropOp39
 70
     1
102
RTVSPost2010Prop40
 90
        0
102
RTVSPost2010PropOp40
 70
     1
102
RTVSPost2010Prop41ColorIndex
 90
       18
102
RTVSPost2010Prop41ColorRGB
 90
        0
102
RTVSPost2010PropOp41
 70
     1
102
RTVSPost2010Prop42
 90
       50
102
RTVSPost2010PropOp42
 70
     1
102
RTVSPost2010Prop43
 90
        3
102
RTVSPost2010PropOp43
 70
     1
102
RTVSPost2010Prop44ColorIndex
 90
        5
102
RTVSPost2010Prop44ColorRGB
 90
      255
102
RTVSPost2010PropOp44
 70
     1
102
RTVSPost2010Prop45
280
     0
102
RTVSPost2010PropOp45
 70
     1
102
RTVSPost2010Prop46
 90
       50
102
RTVSPost2010PropOp46
 70
     1
102
RTVSPost2010Prop47
 90
       50
102
RTVSPost2010PropOp47
 70
     1
102
RTVSPost2010Prop48
 90
       50
102
RTVSPost2010PropOp48
 70
     1
102
RTVSPost2010Prop49
280
     0
102
RTVSPost2010PropOp49
 70
     1
102
RTVSPost2010Prop50
 90
       50
102
RTVSPost2010PropOp50
 70
     1
102
RTVSPost2010Prop51ColorIndex
 90
      256
102
RTVSPost2010Prop51ColorRGB
 90
-16777216
102
RTVSPost2010PropOp51
 70
     0
102
RTVSPost2010Prop52
140
1.0
102
RTVSPost2010PropOp52
 70
     0
102
RTVSPost2010Prop53
 90
        2
102
RTVSPost2010PropOp53
 70
     1
102
RTVSPost2010Prop54
  1
strokes_ogs.tif
102
RTVSPost2010PropOp54
 70
     1
102
RTVSPost2010Prop55
280
     0
102
RTVSPost2010PropOp55
 70
     1
102
RTVSPost2010Prop56
140
1.0
102
RTVSPost2010PropOp56
 70
     1
102
RTVSPost2010Prop57
140
1.0
102
RTVSPost2010PropOp57
 70
     1
102
RTVSPropertyOp0
 70
     1
102
RTVSPropertyOp1
 70
     1
102
RTVSPropertyOp2
 70
     1
102
RTVSPropertyOp3
 70
     1
102
RTVSPropertyOp4
 70
     1
102
RTVSPropertyOp5
 70
     1
102
RTVSPropertyOp6
 70
     1
102
RTVSPropertyOp7
 70
     1
102
RTVSPropertyOp8
 70
     1
102
RTVSPropertyOp9
 70
     1
102
RTVSPropertyOp10
 70
     1
102
RTVSPropertyOp11
 70
     1
102
RTVSPropertyOp12
 70
     1
102
RTVSPropertyOp13
 70
     1
102
RTVSPropertyOp14
 70
     1
102
RTVSPropertyOp15
 70
     1
102
RTVSPropertyOp16
 70
     1
102
RTVSPropertyOp17
 70
     1
102
RTVSPropertyOp18
 70
     1
102
RTVSPropertyOp19
 70
     1
102
RTVSPropertyOp20
 70
     1
102
RTVSPropertyOp21
 70
     1
102
RTVSPropertyOp22
 70
     1
102
RTVSPropertyOp23
 70
     1
102
RTVSPropertyOp24
 70
     1
102
RTVSPropertyOp25
 70
     1
102
RTVSPropertyOp26
 70
     1
102
RTVSPropertyOp27
 70
     1
102
RTVSPropertyOp28
 70
     1
102
RTVSPropertyOp29
 70
     1
102
RTVSPropertyOp30
 70
     1
102
RTVSPropertyOp31
 70
     1
102
RTVSPropertyOp32
 70
     1
102
RTVSPropertyOp33
 70
     1
102
RTVSPropertyOp34
 70
     1
102
RTVSPropertyOp35
 70
     1
102
RTVSPropertyOp36
 70
     1
102
RTVSPropertyOp37
 70
     1
102
RTVSPropertyOp38
 70
     1
102
RTVSPropertyOp39
 70
     1
102
RTVSPropertyOp40
 70
     1
102
RTVSPropertyOp41
 70
     1
102
RTVSPropertyOp42
 70
     1
102
RTVSPropertyOp43
 70
     1
102
RTVSPropertyOp44
 70
     1
102
RTVSPropertyOp45
 70
     1
102
RTVSPropertyOp46
 70
     1
102
RTVSPropertyOp47
 70
     1
102
RTVSPropertyOp48
 70
     1
102
RTVSPropertyOp49
 70
     1
102
RTVSPropertyOp50
 70
     1
102
RTVSPropertyOp51
 70
     0
102
RTVSPropertyOp52
 70
     0
102
RTVSPropertyOp53
 70
     1
102
RTVSPropertyOp54
 70
     1
102
RTVSPropertyOp55
 70
     1
102
RTVSPropertyOp56
 70
     1
102
RTVSPropertyOp57
 70
     1
102
RTVSPropertyOp58
 70
     1
102
RTVSPropertyOp59
 70
     1
102
RTVSPropertyOp60
 70
     1
102
RTVSPropertyOp61
 70
     1
102
RTVSPropertyOp62
 70
     1
  0
XRECORD
  5
4AFF
102
{ACAD_REACTORS
330
4AFE
102
}
330
4AFE
100
AcDbXrecord
280
     1
102
RTVSPost2010Prop28
280
     0
102
RTVSPost2010PropOp28
 70
     1
102
RTVSPost2010Prop29
280
     1
102
RTVSPost2010PropOp29
 70
     1
102
RTVSPost2010Prop30
280
     1
102
RTVSPost2010PropOp30
 70
     1
102
RTVSPost2010Prop31
280
     0
102
RTVSPost2010PropOp31
 70
     1
102
RTVSPost2010Prop32
280
     0
102
RTVSPost2010PropOp32
 70
     1
102
RTVSPost2010Prop33
280
     0
102
RTVSPost2010PropOp33
 70
     1
102
RTVSPost2010Prop34
280
     0
102
RTVSPost2010PropOp34
 70
     1
102
RTVSPost2010Prop35
280
     0
102
RTVSPost2010PropOp35
 70
     1
102
RTVSPost2010Prop36
280
     0
102
RTVSPost2010PropOp36
 70
     1
102
RTVSPost2010Prop37
 90
       50
102
RTVSPost2010PropOp37
 70
     1
102
RTVSPost2010Prop38
140
0.0
102
RTVSPost2010PropOp38
 70
     1
102
RTVSPost2010Prop39
140
1.0
102
RTVSPost2010PropOp39
 70
     1
102
RTVSPost2010Prop40
 90
        0
102
RTVSPost2010PropOp40
 70
     1
102
RTVSPost2010Prop41ColorIndex
 90
       18
102
RTVSPost2010Prop41ColorRGB
 90
        0
102
RTVSPost2010PropOp41
 70
     1
102
RTVSPost2010Prop42
 90
       50
102
RTVSPost2010PropOp42
 70
     1
102
RTVSPost2010Prop43
 90
        3
102
RTVSPost2010PropOp43
 70
     1
102
RTVSPost2010Prop44ColorIndex
 90
        5
102
RTVSPost2010Prop44ColorRGB
 90
      255
102
RTVSPost2010PropOp44
 70
     1
102
RTVSPost2010Prop45
280
     0
102
RTVSPost2010PropOp45
 70
     1
102
RTVSPost2010Prop46
 90
       50
102
RTVSPost2010PropOp46
 70
     1
102
RTVSPost2010Prop47
 90
       50
102
RTVSPost2010PropOp47
 70
     1
102
RTVSPost2010Prop48
 90
       50
102
RTVSPost2010PropOp48
 70
     1
102
RTVSPost2010Prop49
280
     0
102
RTVSPost2010PropOp49
 70
     1
102
RTVSPost2010Prop50
 90
       50
102
RTVSPost2010PropOp50
 70
     1
102
RTVSPost2010Prop51ColorIndex
 90
      256
102
RTVSPost2010Prop51ColorRGB
 90
-16777216
102
RTVSPost2010PropOp51
 70
     0
102
RTVSPost2010Prop52
140
1.0
102
RTVSPost2010PropOp52
 70
     0
102
RTVSPost2010Prop53
 90
        2
102
RTVSPost2010PropOp53
 70
     1
102
RTVSPost2010Prop54
  1
strokes_ogs.tif
102
RTVSPost2010PropOp54
 70
     1
102
RTVSPost2010Prop55
280
     0
102
RTVSPost2010PropOp55
 70
     1
102
RTVSPost2010Prop56
140
1.0
102
RTVSPost2010PropOp56
 70
     1
102
RTVSPost2010Prop57
140
1.0
102
RTVSPost2010PropOp57
 70
     1
102
RTVSPropertyOp0
 70
     1
102
RTVSPropertyOp1
 70
     1
102
RTVSPropertyOp2
 70
     1
102
RTVSPropertyOp3
 70
     1
102
RTVSPropertyOp4
 70
     1
102
RTVSPropertyOp5
 70
     1
102
RTVSPropertyOp6
 70
     1
102
RTVSPropertyOp7
 70
     1
102
RTVSPropertyOp8
 70
     1
102
RTVSPropertyOp9
 70
     1
102
RTVSPropertyOp10
 70
     1
102
RTVSPropertyOp11
 70
     1
102
RTVSPropertyOp12
 70
     1
102
RTVSPropertyOp13
 70
     1
102
RTVSPropertyOp14
 70
     1
102
RTVSPropertyOp15
 70
     1
102
RTVSPropertyOp16
 70
     1
102
RTVSPropertyOp17
 70
     1
102
RTVSPropertyOp18
 70
     1
102
RTVSPropertyOp19
 70
     1
102
RTVSPropertyOp20
 70
     1
102
RTVSPropertyOp21
 70
     1
102
RTVSPropertyOp22
 70
     1
102
RTVSPropertyOp23
 70
     1
102
RTVSPropertyOp24
 70
     1
102
RTVSPropertyOp25
 70
     1
102
RTVSPropertyOp26
 70
     1
102
RTVSPropertyOp27
 70
     1
102
RTVSPropertyOp28
 70
     1
102
RTVSPropertyOp29
 70
     1
102
RTVSPropertyOp30
 70
     1
102
RTVSPropertyOp31
 70
     1
102
RTVSPropertyOp32
 70
     1
102
RTVSPropertyOp33
 70
     1
102
RTVSPropertyOp34
 70
     1
102
RTVSPropertyOp35
 70
     1
102
RTVSPropertyOp36
 70
     1
102
RTVSPropertyOp37
 70
     1
102
RTVSPropertyOp38
 70
     1
102
RTVSPropertyOp39
 70
     1
102
RTVSPropertyOp40
 70
     1
102
RTVSPropertyOp41
 70
     1
102
RTVSPropertyOp42
 70
     1
102
RTVSPropertyOp43
 70
     1
102
RTVSPropertyOp44
 70
     1
102
RTVSPropertyOp45
 70
     1
102
RTVSPropertyOp46
 70
     1
102
RTVSPropertyOp47
 70
     1
102
RTVSPropertyOp48
 70
     1
102
RTVSPropertyOp49
 70
     1
102
RTVSPropertyOp50
 70
     1
102
RTVSPropertyOp51
 70
     0
102
RTVSPropertyOp52
 70
     0
102
RTVSPropertyOp53
 70
     1
102
RTVSPropertyOp54
 70
     1
102
RTVSPropertyOp55
 70
     1
102
RTVSPropertyOp56
 70
     1
102
RTVSPropertyOp57
 70
     1
102
RTVSPropertyOp58
 70
     1
102
RTVSPropertyOp59
 70
     1
102
RTVSPropertyOp60
 70
     1
102
RTVSPropertyOp61
 70
     1
102
RTVSPropertyOp62
 70
     1
  0
XRECORD
  5
4AFD
102
{ACAD_REACTORS
330
4AFC
102
}
330
4AFC
100
AcDbXrecord
280
     1
102
RTVSPost2010Prop28
280
     0
102
RTVSPost2010PropOp28
 70
     1
102
RTVSPost2010Prop29
280
     1
102
RTVSPost2010PropOp29
 70
     1
102
RTVSPost2010Prop30
280
     1
102
RTVSPost2010PropOp30
 70
     1
102
RTVSPost2010Prop31
280
     0
102
RTVSPost2010PropOp31
 70
     1
102
RTVSPost2010Prop32
280
     0
102
RTVSPost2010PropOp32
 70
     1
102
RTVSPost2010Prop33
280
     0
102
RTVSPost2010PropOp33
 70
     1
102
RTVSPost2010Prop34
280
     0
102
RTVSPost2010PropOp34
 70
     1
102
RTVSPost2010Prop35
280
     0
102
RTVSPost2010PropOp35
 70
     1
102
RTVSPost2010Prop36
280
     0
102
RTVSPost2010PropOp36
 70
     1
102
RTVSPost2010Prop37
 90
       50
102
RTVSPost2010PropOp37
 70
     1
102
RTVSPost2010Prop38
140
0.0
102
RTVSPost2010PropOp38
 70
     1
102
RTVSPost2010Prop39
140
1.0
102
RTVSPost2010PropOp39
 70
     1
102
RTVSPost2010Prop40
 90
        0
102
RTVSPost2010PropOp40
 70
     1
102
RTVSPost2010Prop41ColorIndex
 90
       18
102
RTVSPost2010Prop41ColorRGB
 90
        0
102
RTVSPost2010PropOp41
 70
     1
102
RTVSPost2010Prop42
 90
       50
102
RTVSPost2010PropOp42
 70
     1
102
RTVSPost2010Prop43
 90
        3
102
RTVSPost2010PropOp43
 70
     1
102
RTVSPost2010Prop44ColorIndex
 90
        5
102
RTVSPost2010Prop44ColorRGB
 90
      255
102
RTVSPost2010PropOp44
 70
     1
102
RTVSPost2010Prop45
280
     0
102
RTVSPost2010PropOp45
 70
     1
102
RTVSPost2010Prop46
 90
       50
102
RTVSPost2010PropOp46
 70
     1
102
RTVSPost2010Prop47
 90
       50
102
RTVSPost2010PropOp47
 70
     1
102
RTVSPost2010Prop48
 90
       50
102
RTVSPost2010PropOp48
 70
     1
102
RTVSPost2010Prop49
280
     0
102
RTVSPost2010PropOp49
 70
     1
102
RTVSPost2010Prop50
 90
       50
102
RTVSPost2010PropOp50
 70
     1
102
RTVSPost2010Prop51ColorIndex
 90
      256
102
RTVSPost2010Prop51ColorRGB
 90
-16777216
102
RTVSPost2010PropOp51
 70
     0
102
RTVSPost2010Prop52
140
1.0
102
RTVSPost2010PropOp52
 70
     0
102
RTVSPost2010Prop53
 90
        2
102
RTVSPost2010PropOp53
 70
     1
102
RTVSPost2010Prop54
  1
strokes_ogs.tif
102
RTVSPost2010PropOp54
 70
     1
102
RTVSPost2010Prop55
280
     0
102
RTVSPost2010PropOp55
 70
     1
102
RTVSPost2010Prop56
140
1.0
102
RTVSPost2010PropOp56
 70
     1
102
RTVSPost2010Prop57
140
1.0
102
RTVSPost2010PropOp57
 70
     1
102
RTVSPropertyOp0
 70
     1
102
RTVSPropertyOp1
 70
     1
102
RTVSPropertyOp2
 70
     1
102
RTVSPropertyOp3
 70
     1
102
RTVSPropertyOp4
 70
     1
102
RTVSPropertyOp5
 70
     1
102
RTVSPropertyOp6
 70
     1
102
RTVSPropertyOp7
 70
     1
102
RTVSPropertyOp8
 70
     1
102
RTVSPropertyOp9
 70
     1
102
RTVSPropertyOp10
 70
     1
102
RTVSPropertyOp11
 70
     1
102
RTVSPropertyOp12
 70
     1
102
RTVSPropertyOp13
 70
     1
102
RTVSPropertyOp14
 70
     1
102
RTVSPropertyOp15
 70
     1
102
RTVSPropertyOp16
 70
     1
102
RTVSPropertyOp17
 70
     1
102
RTVSPropertyOp18
 70
     1
102
RTVSPropertyOp19
 70
     1
102
RTVSPropertyOp20
 70
     1
102
RTVSPropertyOp21
 70
     1
102
RTVSPropertyOp22
 70
     1
102
RTVSPropertyOp23
 70
     1
102
RTVSPropertyOp24
 70
     1
102
RTVSPropertyOp25
 70
     1
102
RTVSPropertyOp26
 70
     1
102
RTVSPropertyOp27
 70
     1
102
RTVSPropertyOp28
 70
     1
102
RTVSPropertyOp29
 70
     1
102
RTVSPropertyOp30
 70
     1
102
RTVSPropertyOp31
 70
     1
102
RTVSPropertyOp32
 70
     1
102
RTVSPropertyOp33
 70
     1
102
RTVSPropertyOp34
 70
     1
102
RTVSPropertyOp35
 70
     1
102
RTVSPropertyOp36
 70
     1
102
RTVSPropertyOp37
 70
     1
102
RTVSPropertyOp38
 70
     1
102
RTVSPropertyOp39
 70
     1
102
RTVSPropertyOp40
 70
     1
102
RTVSPropertyOp41
 70
     1
102
RTVSPropertyOp42
 70
     1
102
RTVSPropertyOp43
 70
     1
102
RTVSPropertyOp44
 70
     1
102
RTVSPropertyOp45
 70
     1
102
RTVSPropertyOp46
 70
     1
102
RTVSPropertyOp47
 70
     1
102
RTVSPropertyOp48
 70
     1
102
RTVSPropertyOp49
 70
     1
102
RTVSPropertyOp50
 70
     1
102
RTVSPropertyOp51
 70
     0
102
RTVSPropertyOp52
 70
     0
102
RTVSPropertyOp53
 70
     1
102
RTVSPropertyOp54
 70
     1
102
RTVSPropertyOp55
 70
     1
102
RTVSPropertyOp56
 70
     1
102
RTVSPropertyOp57
 70
     1
102
RTVSPropertyOp58
 70
     1
102
RTVSPropertyOp59
 70
     1
102
RTVSPropertyOp60
 70
     1
102
RTVSPropertyOp61
 70
     1
102
RTVSPropertyOp62
 70
     1
  0
XRECORD
  5
4AF7
102
{ACAD_REACTORS
330
4AF6
102
}
330
4AF6
100
AcDbXrecord
280
     1
102
RTVSPost2010Prop28
280
     0
102
RTVSPost2010PropOp28
 70
     1
102
RTVSPost2010Prop29
280
     1
102
RTVSPost2010PropOp29
 70
     1
102
RTVSPost2010Prop30
280
     1
102
RTVSPost2010PropOp30
 70
     1
102
RTVSPost2010Prop31
280
     0
102
RTVSPost2010PropOp31
 70
     1
102
RTVSPost2010Prop32
280
     0
102
RTVSPost2010PropOp32
 70
     1
102
RTVSPost2010Prop33
280
     0
102
RTVSPost2010PropOp33
 70
     1
102
RTVSPost2010Prop34
280
     0
102
RTVSPost2010PropOp34
 70
     1
102
RTVSPost2010Prop35
280
     0
102
RTVSPost2010PropOp35
 70
     1
102
RTVSPost2010Prop36
280
     0
102
RTVSPost2010PropOp36
 70
     1
102
RTVSPost2010Prop37
 90
       50
102
RTVSPost2010PropOp37
 70
     1
102
RTVSPost2010Prop38
140
0.0
102
RTVSPost2010PropOp38
 70
     1
102
RTVSPost2010Prop39
140
1.0
102
RTVSPost2010PropOp39
 70
     1
102
RTVSPost2010Prop40
 90
        0
102
RTVSPost2010PropOp40
 70
     1
102
RTVSPost2010Prop41ColorIndex
 90
       18
102
RTVSPost2010Prop41ColorRGB
 90
        0
102
RTVSPost2010PropOp41
 70
     1
102
RTVSPost2010Prop42
 90
       50
102
RTVSPost2010PropOp42
 70
     1
102
RTVSPost2010Prop43
 90
        3
102
RTVSPost2010PropOp43
 70
     1
102
RTVSPost2010Prop44ColorIndex
 90
        5
102
RTVSPost2010Prop44ColorRGB
 90
      255
102
RTVSPost2010PropOp44
 70
     1
102
RTVSPost2010Prop45
280
     0
102
RTVSPost2010PropOp45
 70
     1
102
RTVSPost2010Prop46
 90
       50
102
RTVSPost2010PropOp46
 70
     1
102
RTVSPost2010Prop47
 90
       50
102
RTVSPost2010PropOp47
 70
     1
102
RTVSPost2010Prop48
 90
       50
102
RTVSPost2010PropOp48
 70
     1
102
RTVSPost2010Prop49
280
     0
102
RTVSPost2010PropOp49
 70
     1
102
RTVSPost2010Prop50
 90
       50
102
RTVSPost2010PropOp50
 70
     1
102
RTVSPost2010Prop51ColorIndex
 90
      256
102
RTVSPost2010Prop51ColorRGB
 90
-16777216
102
RTVSPost2010PropOp51
 70
     0
102
RTVSPost2010Prop52
140
1.0
102
RTVSPost2010PropOp52
 70
     0
102
RTVSPost2010Prop53
 90
        2
102
RTVSPost2010PropOp53
 70
     1
102
RTVSPost2010Prop54
  1
strokes_ogs.tif
102
RTVSPost2010PropOp54
 70
     1
102
RTVSPost2010Prop55
280
     0
102
RTVSPost2010PropOp55
 70
     1
102
RTVSPost2010Prop56
140
1.0
102
RTVSPost2010PropOp56
 70
     1
102
RTVSPost2010Prop57
140
1.0
102
RTVSPost2010PropOp57
 70
     1
102
RTVSPropertyOp0
 70
     1
102
RTVSPropertyOp1
 70
     1
102
RTVSPropertyOp2
 70
     1
102
RTVSPropertyOp3
 70
     1
102
RTVSPropertyOp4
 70
     1
102
RTVSPropertyOp5
 70
     1
102
RTVSPropertyOp6
 70
     1
102
RTVSPropertyOp7
 70
     1
102
RTVSPropertyOp8
 70
     1
102
RTVSPropertyOp9
 70
     1
102
RTVSPropertyOp10
 70
     1
102
RTVSPropertyOp11
 70
     1
102
RTVSPropertyOp12
 70
     1
102
RTVSPropertyOp13
 70
     1
102
RTVSPropertyOp14
 70
     1
102
RTVSPropertyOp15
 70
     1
102
RTVSPropertyOp16
 70
     1
102
RTVSPropertyOp17
 70
     1
102
RTVSPropertyOp18
 70
     1
102
RTVSPropertyOp19
 70
     1
102
RTVSPropertyOp20
 70
     1
102
RTVSPropertyOp21
 70
     1
102
RTVSPropertyOp22
 70
     1
102
RTVSPropertyOp23
 70
     1
102
RTVSPropertyOp24
 70
     1
102
RTVSPropertyOp25
 70
     1
102
RTVSPropertyOp26
 70
     1
102
RTVSPropertyOp27
 70
     1
102
RTVSPropertyOp28
 70
     1
102
RTVSPropertyOp29
 70
     1
102
RTVSPropertyOp30
 70
     1
102
RTVSPropertyOp31
 70
     1
102
RTVSPropertyOp32
 70
     1
102
RTVSPropertyOp33
 70
     1
102
RTVSPropertyOp34
 70
     1
102
RTVSPropertyOp35
 70
     1
102
RTVSPropertyOp36
 70
     1
102
RTVSPropertyOp37
 70
     1
102
RTVSPropertyOp38
 70
     1
102
RTVSPropertyOp39
 70
     1
102
RTVSPropertyOp40
 70
     1
102
RTVSPropertyOp41
 70
     1
102
RTVSPropertyOp42
 70
     1
102
RTVSPropertyOp43
 70
     1
102
RTVSPropertyOp44
 70
     1
102
RTVSPropertyOp45
 70
     1
102
RTVSPropertyOp46
 70
     1
102
RTVSPropertyOp47
 70
     1
102
RTVSPropertyOp48
 70
     1
102
RTVSPropertyOp49
 70
     1
102
RTVSPropertyOp50
 70
     1
102
RTVSPropertyOp51
 70
     0
102
RTVSPropertyOp52
 70
     0
102
RTVSPropertyOp53
 70
     1
102
RTVSPropertyOp54
 70
     1
102
RTVSPropertyOp55
 70
     1
102
RTVSPropertyOp56
 70
     1
102
RTVSPropertyOp57
 70
     1
102
RTVSPropertyOp58
 70
     1
102
RTVSPropertyOp59
 70
     1
102
RTVSPropertyOp60
 70
     1
102
RTVSPropertyOp61
 70
     1
102
RTVSPropertyOp62
 70
     1
  0
XRECORD
  5
4AF9
102
{ACAD_REACTORS
330
4AF8
102
}
330
4AF8
100
AcDbXrecord
280
     1
102
RTVSPost2010Prop28
280
     0
102
RTVSPost2010PropOp28
 70
     1
102
RTVSPost2010Prop29
280
     1
102
RTVSPost2010PropOp29
 70
     1
102
RTVSPost2010Prop30
280
     1
102
RTVSPost2010PropOp30
 70
     1
102
RTVSPost2010Prop31
280
     0
102
RTVSPost2010PropOp31
 70
     1
102
RTVSPost2010Prop32
280
     0
102
RTVSPost2010PropOp32
 70
     1
102
RTVSPost2010Prop33
280
     0
102
RTVSPost2010PropOp33
 70
     1
102
RTVSPost2010Prop34
280
     0
102
RTVSPost2010PropOp34
 70
     1
102
RTVSPost2010Prop35
280
     0
102
RTVSPost2010PropOp35
 70
     1
102
RTVSPost2010Prop36
280
     0
102
RTVSPost2010PropOp36
 70
     1
102
RTVSPost2010Prop37
 90
       50
102
RTVSPost2010PropOp37
 70
     1
102
RTVSPost2010Prop38
140
0.0
102
RTVSPost2010PropOp38
 70
     1
102
RTVSPost2010Prop39
140
1.0
102
RTVSPost2010PropOp39
 70
     1
102
RTVSPost2010Prop40
 90
        0
102
RTVSPost2010PropOp40
 70
     1
102
RTVSPost2010Prop41ColorIndex
 90
       18
102
RTVSPost2010Prop41ColorRGB
 90
        0
102
RTVSPost2010PropOp41
 70
     1
102
RTVSPost2010Prop42
 90
       50
102
RTVSPost2010PropOp42
 70
     1
102
RTVSPost2010Prop43
 90
        3
102
RTVSPost2010PropOp43
 70
     1
102
RTVSPost2010Prop44ColorIndex
 90
        5
102
RTVSPost2010Prop44ColorRGB
 90
      255
102
RTVSPost2010PropOp44
 70
     1
102
RTVSPost2010Prop45
280
     0
102
RTVSPost2010PropOp45
 70
     1
102
RTVSPost2010Prop46
 90
       50
102
RTVSPost2010PropOp46
 70
     1
102
RTVSPost2010Prop47
 90
       50
102
RTVSPost2010PropOp47
 70
     1
102
RTVSPost2010Prop48
 90
       50
102
RTVSPost2010PropOp48
 70
     1
102
RTVSPost2010Prop49
280
     0
102
RTVSPost2010PropOp49
 70
     1
102
RTVSPost2010Prop50
 90
       50
102
RTVSPost2010PropOp50
 70
     1
102
RTVSPost2010Prop51ColorIndex
 90
      256
102
RTVSPost2010Prop51ColorRGB
 90
-16777216
102
RTVSPost2010PropOp51
 70
     0
102
RTVSPost2010Prop52
140
1.0
102
RTVSPost2010PropOp52
 70
     0
102
RTVSPost2010Prop53
 90
        2
102
RTVSPost2010PropOp53
 70
     1
102
RTVSPost2010Prop54
  1
strokes_ogs.tif
102
RTVSPost2010PropOp54
 70
     1
102
RTVSPost2010Prop55
280
     0
102
RTVSPost2010PropOp55
 70
     1
102
RTVSPost2010Prop56
140
1.0
102
RTVSPost2010PropOp56
 70
     1
102
RTVSPost2010Prop57
140
1.0
102
RTVSPost2010PropOp57
 70
     1
102
RTVSPropertyOp0
 70
     1
102
RTVSPropertyOp1
 70
     1
102
RTVSPropertyOp2
 70
     1
102
RTVSPropertyOp3
 70
     1
102
RTVSPropertyOp4
 70
     1
102
RTVSPropertyOp5
 70
     1
102
RTVSPropertyOp6
 70
     1
102
RTVSPropertyOp7
 70
     1
102
RTVSPropertyOp8
 70
     1
102
RTVSPropertyOp9
 70
     1
102
RTVSPropertyOp10
 70
     1
102
RTVSPropertyOp11
 70
     1
102
RTVSPropertyOp12
 70
     1
102
RTVSPropertyOp13
 70
     1
102
RTVSPropertyOp14
 70
     1
102
RTVSPropertyOp15
 70
     1
102
RTVSPropertyOp16
 70
     1
102
RTVSPropertyOp17
 70
     1
102
RTVSPropertyOp18
 70
     1
102
RTVSPropertyOp19
 70
     1
102
RTVSPropertyOp20
 70
     1
102
RTVSPropertyOp21
 70
     1
102
RTVSPropertyOp22
 70
     1
102
RTVSPropertyOp23
 70
     1
102
RTVSPropertyOp24
 70
     1
102
RTVSPropertyOp25
 70
     1
102
RTVSPropertyOp26
 70
     1
102
RTVSPropertyOp27
 70
     1
102
RTVSPropertyOp28
 70
     1
102
RTVSPropertyOp29
 70
     1
102
RTVSPropertyOp30
 70
     1
102
RTVSPropertyOp31
 70
     1
102
RTVSPropertyOp32
 70
     1
102
RTVSPropertyOp33
 70
     1
102
RTVSPropertyOp34
 70
     1
102
RTVSPropertyOp35
 70
     1
102
RTVSPropertyOp36
 70
     1
102
RTVSPropertyOp37
 70
     1
102
RTVSPropertyOp38
 70
     1
102
RTVSPropertyOp39
 70
     1
102
RTVSPropertyOp40
 70
     1
102
RTVSPropertyOp41
 70
     1
102
RTVSPropertyOp42
 70
     1
102
RTVSPropertyOp43
 70
     1
102
RTVSPropertyOp44
 70
     1
102
RTVSPropertyOp45
 70
     1
102
RTVSPropertyOp46
 70
     1
102
RTVSPropertyOp47
 70
     1
102
RTVSPropertyOp48
 70
     1
102
RTVSPropertyOp49
 70
     1
102
RTVSPropertyOp50
 70
     1
102
RTVSPropertyOp51
 70
     0
102
RTVSPropertyOp52
 70
     0
102
RTVSPropertyOp53
 70
     1
102
RTVSPropertyOp54
 70
     1
102
RTVSPropertyOp55
 70
     1
102
RTVSPropertyOp56
 70
     1
102
RTVSPropertyOp57
 70
     1
102
RTVSPropertyOp58
 70
     1
102
RTVSPropertyOp59
 70
     1
102
RTVSPropertyOp60
 70
     1
102
RTVSPropertyOp61
 70
     1
102
RTVSPropertyOp62
 70
     1
  0
XRECORD
  5
4AEF
102
{ACAD_REACTORS
330
4AEE
102
}
330
4AEE
100
AcDbXrecord
280
     1
102
RTVSPost2010Prop28
280
     0
102
RTVSPost2010PropOp28
 70
     1
102
RTVSPost2010Prop29
280
     1
102
RTVSPost2010PropOp29
 70
     1
102
RTVSPost2010Prop30
280
     1
102
RTVSPost2010PropOp30
 70
     1
102
RTVSPost2010Prop31
280
     0
102
RTVSPost2010PropOp31
 70
     1
102
RTVSPost2010Prop32
280
     0
102
RTVSPost2010PropOp32
 70
     1
102
RTVSPost2010Prop33
280
     0
102
RTVSPost2010PropOp33
 70
     1
102
RTVSPost2010Prop34
280
     0
102
RTVSPost2010PropOp34
 70
     1
102
RTVSPost2010Prop35
280
     0
102
RTVSPost2010PropOp35
 70
     1
102
RTVSPost2010Prop36
280
     0
102
RTVSPost2010PropOp36
 70
     1
102
RTVSPost2010Prop37
 90
       50
102
RTVSPost2010PropOp37
 70
     1
102
RTVSPost2010Prop38
140
0.0
102
RTVSPost2010PropOp38
 70
     1
102
RTVSPost2010Prop39
140
1.0
102
RTVSPost2010PropOp39
 70
     1
102
RTVSPost2010Prop40
 90
        0
102
RTVSPost2010PropOp40
 70
     1
102
RTVSPost2010Prop41ColorIndex
 90
       18
102
RTVSPost2010Prop41ColorRGB
 90
        0
102
RTVSPost2010PropOp41
 70
     1
102
RTVSPost2010Prop42
 90
       50
102
RTVSPost2010PropOp42
 70
     1
102
RTVSPost2010Prop43
 90
        3
102
RTVSPost2010PropOp43
 70
     1
102
RTVSPost2010Prop44ColorIndex
 90
        5
102
RTVSPost2010Prop44ColorRGB
 90
      255
102
RTVSPost2010PropOp44
 70
     1
102
RTVSPost2010Prop45
280
     0
102
RTVSPost2010PropOp45
 70
     1
102
RTVSPost2010Prop46
 90
       50
102
RTVSPost2010PropOp46
 70
     1
102
RTVSPost2010Prop47
 90
       50
102
RTVSPost2010PropOp47
 70
     1
102
RTVSPost2010Prop48
 90
       50
102
RTVSPost2010PropOp48
 70
     1
102
RTVSPost2010Prop49
280
     0
102
RTVSPost2010PropOp49
 70
     1
102
RTVSPost2010Prop50
 90
       50
102
RTVSPost2010PropOp50
 70
     1
102
RTVSPost2010Prop51ColorIndex
 90
      256
102
RTVSPost2010Prop51ColorRGB
 90
-16777216
102
RTVSPost2010PropOp51
 70
     0
102
RTVSPost2010Prop52
140
1.0
102
RTVSPost2010PropOp52
 70
     0
102
RTVSPost2010Prop53
 90
        2
102
RTVSPost2010PropOp53
 70
     1
102
RTVSPost2010Prop54
  1
strokes_ogs.tif
102
RTVSPost2010PropOp54
 70
     1
102
RTVSPost2010Prop55
280
     0
102
RTVSPost2010PropOp55
 70
     1
102
RTVSPost2010Prop56
140
1.0
102
RTVSPost2010PropOp56
 70
     1
102
RTVSPost2010Prop57
140
1.0
102
RTVSPost2010PropOp57
 70
     1
102
RTVSPropertyOp0
 70
     1
102
RTVSPropertyOp1
 70
     1
102
RTVSPropertyOp2
 70
     1
102
RTVSPropertyOp3
 70
     1
102
RTVSPropertyOp4
 70
     1
102
RTVSPropertyOp5
 70
     1
102
RTVSPropertyOp6
 70
     1
102
RTVSPropertyOp7
 70
     1
102
RTVSPropertyOp8
 70
     1
102
RTVSPropertyOp9
 70
     1
102
RTVSPropertyOp10
 70
     1
102
RTVSPropertyOp11
 70
     1
102
RTVSPropertyOp12
 70
     1
102
RTVSPropertyOp13
 70
     1
102
RTVSPropertyOp14
 70
     1
102
RTVSPropertyOp15
 70
     1
102
RTVSPropertyOp16
 70
     1
102
RTVSPropertyOp17
 70
     1
102
RTVSPropertyOp18
 70
     1
102
RTVSPropertyOp19
 70
     1
102
RTVSPropertyOp20
 70
     1
102
RTVSPropertyOp21
 70
     1
102
RTVSPropertyOp22
 70
     1
102
RTVSPropertyOp23
 70
     1
102
RTVSPropertyOp24
 70
     1
102
RTVSPropertyOp25
 70
     1
102
RTVSPropertyOp26
 70
     1
102
RTVSPropertyOp27
 70
     1
102
RTVSPropertyOp28
 70
     1
102
RTVSPropertyOp29
 70
     1
102
RTVSPropertyOp30
 70
     1
102
RTVSPropertyOp31
 70
     1
102
RTVSPropertyOp32
 70
     1
102
RTVSPropertyOp33
 70
     1
102
RTVSPropertyOp34
 70
     1
102
RTVSPropertyOp35
 70
     1
102
RTVSPropertyOp36
 70
     1
102
RTVSPropertyOp37
 70
     1
102
RTVSPropertyOp38
 70
     1
102
RTVSPropertyOp39
 70
     1
102
RTVSPropertyOp40
 70
     1
102
RTVSPropertyOp41
 70
     1
102
RTVSPropertyOp42
 70
     1
102
RTVSPropertyOp43
 70
     1
102
RTVSPropertyOp44
 70
     1
102
RTVSPropertyOp45
 70
     1
102
RTVSPropertyOp46
 70
     1
102
RTVSPropertyOp47
 70
     1
102
RTVSPropertyOp48
 70
     1
102
RTVSPropertyOp49
 70
     1
102
RTVSPropertyOp50
 70
     1
102
RTVSPropertyOp51
 70
     0
102
RTVSPropertyOp52
 70
     0
102
RTVSPropertyOp53
 70
     1
102
RTVSPropertyOp54
 70
     1
102
RTVSPropertyOp55
 70
     1
102
RTVSPropertyOp56
 70
     1
102
RTVSPropertyOp57
 70
     1
102
RTVSPropertyOp58
 70
     1
102
RTVSPropertyOp59
 70
     1
102
RTVSPropertyOp60
 70
     1
102
RTVSPropertyOp61
 70
     1
102
RTVSPropertyOp62
 70
     1
  0
XRECORD
  5
4AE3
102
{ACAD_REACTORS
330
4AE2
102
}
330
4AE2
100
AcDbXrecord
280
     1
102
RTVSPost2010Prop28
280
     0
102
RTVSPost2010PropOp28
 70
     1
102
RTVSPost2010Prop29
280
     1
102
RTVSPost2010PropOp29
 70
     1
102
RTVSPost2010Prop30
280
     1
102
RTVSPost2010PropOp30
 70
     1
102
RTVSPost2010Prop31
280
     0
102
RTVSPost2010PropOp31
 70
     1
102
RTVSPost2010Prop32
280
     0
102
RTVSPost2010PropOp32
 70
     1
102
RTVSPost2010Prop33
280
     0
102
RTVSPost2010PropOp33
 70
     1
102
RTVSPost2010Prop34
280
     0
102
RTVSPost2010PropOp34
 70
     1
102
RTVSPost2010Prop35
280
     0
102
RTVSPost2010PropOp35
 70
     1
102
RTVSPost2010Prop36
280
     0
102
RTVSPost2010PropOp36
 70
     1
102
RTVSPost2010Prop37
 90
       50
102
RTVSPost2010PropOp37
 70
     1
102
RTVSPost2010Prop38
140
0.0
102
RTVSPost2010PropOp38
 70
     1
102
RTVSPost2010Prop39
140
1.0
102
RTVSPost2010PropOp39
 70
     1
102
RTVSPost2010Prop40
 90
        0
102
RTVSPost2010PropOp40
 70
     1
102
RTVSPost2010Prop41ColorIndex
 90
       18
102
RTVSPost2010Prop41ColorRGB
 90
        0
102
RTVSPost2010PropOp41
 70
     1
102
RTVSPost2010Prop42
 90
       50
102
RTVSPost2010PropOp42
 70
     1
102
RTVSPost2010Prop43
 90
        3
102
RTVSPost2010PropOp43
 70
     1
102
RTVSPost2010Prop44ColorIndex
 90
        5
102
RTVSPost2010Prop44ColorRGB
 90
      255
102
RTVSPost2010PropOp44
 70
     1
102
RTVSPost2010Prop45
280
     0
102
RTVSPost2010PropOp45
 70
     1
102
RTVSPost2010Prop46
 90
       50
102
RTVSPost2010PropOp46
 70
     1
102
RTVSPost2010Prop47
 90
       50
102
RTVSPost2010PropOp47
 70
     1
102
RTVSPost2010Prop48
 90
       50
102
RTVSPost2010PropOp48
 70
     1
102
RTVSPost2010Prop49
280
     0
102
RTVSPost2010PropOp49
 70
     1
102
RTVSPost2010Prop50
 90
       50
102
RTVSPost2010PropOp50
 70
     1
102
RTVSPost2010Prop51ColorIndex
 90
      256
102
RTVSPost2010Prop51ColorRGB
 90
-16777216
102
RTVSPost2010PropOp51
 70
     0
102
RTVSPost2010Prop52
140
1.0
102
RTVSPost2010PropOp52
 70
     0
102
RTVSPost2010Prop53
 90
        2
102
RTVSPost2010PropOp53
 70
     1
102
RTVSPost2010Prop54
  1
strokes_ogs.tif
102
RTVSPost2010PropOp54
 70
     1
102
RTVSPost2010Prop55
280
     0
102
RTVSPost2010PropOp55
 70
     1
102
RTVSPost2010Prop56
140
1.0
102
RTVSPost2010PropOp56
 70
     1
102
RTVSPost2010Prop57
140
1.0
102
RTVSPost2010PropOp57
 70
     1
102
RTVSPropertyOp0
 70
     1
102
RTVSPropertyOp1
 70
     1
102
RTVSPropertyOp2
 70
     1
102
RTVSPropertyOp3
 70
     1
102
RTVSPropertyOp4
 70
     1
102
RTVSPropertyOp5
 70
     1
102
RTVSPropertyOp6
 70
     1
102
RTVSPropertyOp7
 70
     1
102
RTVSPropertyOp8
 70
     1
102
RTVSPropertyOp9
 70
     1
102
RTVSPropertyOp10
 70
     1
102
RTVSPropertyOp11
 70
     1
102
RTVSPropertyOp12
 70
     1
102
RTVSPropertyOp13
 70
     1
102
RTVSPropertyOp14
 70
     1
102
RTVSPropertyOp15
 70
     1
102
RTVSPropertyOp16
 70
     1
102
RTVSPropertyOp17
 70
     1
102
RTVSPropertyOp18
 70
     1
102
RTVSPropertyOp19
 70
     1
102
RTVSPropertyOp20
 70
     1
102
RTVSPropertyOp21
 70
     1
102
RTVSPropertyOp22
 70
     1
102
RTVSPropertyOp23
 70
     1
102
RTVSPropertyOp24
 70
     1
102
RTVSPropertyOp25
 70
     1
102
RTVSPropertyOp26
 70
     1
102
RTVSPropertyOp27
 70
     1
102
RTVSPropertyOp28
 70
     1
102
RTVSPropertyOp29
 70
     1
102
RTVSPropertyOp30
 70
     1
102
RTVSPropertyOp31
 70
     1
102
RTVSPropertyOp32
 70
     1
102
RTVSPropertyOp33
 70
     1
102
RTVSPropertyOp34
 70
     1
102
RTVSPropertyOp35
 70
     1
102
RTVSPropertyOp36
 70
     1
102
RTVSPropertyOp37
 70
     1
102
RTVSPropertyOp38
 70
     1
102
RTVSPropertyOp39
 70
     1
102
RTVSPropertyOp40
 70
     1
102
RTVSPropertyOp41
 70
     1
102
RTVSPropertyOp42
 70
     1
102
RTVSPropertyOp43
 70
     1
102
RTVSPropertyOp44
 70
     1
102
RTVSPropertyOp45
 70
     1
102
RTVSPropertyOp46
 70
     1
102
RTVSPropertyOp47
 70
     1
102
RTVSPropertyOp48
 70
     1
102
RTVSPropertyOp49
 70
     1
102
RTVSPropertyOp50
 70
     1
102
RTVSPropertyOp51
 70
     0
102
RTVSPropertyOp52
 70
     0
102
RTVSPropertyOp53
 70
     1
102
RTVSPropertyOp54
 70
     1
102
RTVSPropertyOp55
 70
     1
102
RTVSPropertyOp56
 70
     1
102
RTVSPropertyOp57
 70
     1
102
RTVSPropertyOp58
 70
     1
102
RTVSPropertyOp59
 70
     1
102
RTVSPropertyOp60
 70
     1
102
RTVSPropertyOp61
 70
     1
102
RTVSPropertyOp62
 70
     1
  0
XRECORD
  5
4AFB
102
{ACAD_REACTORS
330
4AFA
102
}
330
4AFA
100
AcDbXrecord
280
     1
102
RTVSPost2010Prop28
280
     0
102
RTVSPost2010PropOp28
 70
     1
102
RTVSPost2010Prop29
280
     1
102
RTVSPost2010PropOp29
 70
     1
102
RTVSPost2010Prop30
280
     1
102
RTVSPost2010PropOp30
 70
     1
102
RTVSPost2010Prop31
280
     0
102
RTVSPost2010PropOp31
 70
     1
102
RTVSPost2010Prop32
280
     0
102
RTVSPost2010PropOp32
 70
     1
102
RTVSPost2010Prop33
280
     0
102
RTVSPost2010PropOp33
 70
     1
102
RTVSPost2010Prop34
280
     0
102
RTVSPost2010PropOp34
 70
     1
102
RTVSPost2010Prop35
280
     0
102
RTVSPost2010PropOp35
 70
     1
102
RTVSPost2010Prop36
280
     0
102
RTVSPost2010PropOp36
 70
     1
102
RTVSPost2010Prop37
 90
       50
102
RTVSPost2010PropOp37
 70
     1
102
RTVSPost2010Prop38
140
0.0
102
RTVSPost2010PropOp38
 70
     1
102
RTVSPost2010Prop39
140
1.0
102
RTVSPost2010PropOp39
 70
     1
102
RTVSPost2010Prop40
 90
        0
102
RTVSPost2010PropOp40
 70
     1
102
RTVSPost2010Prop41ColorIndex
 90
       18
102
RTVSPost2010Prop41ColorRGB
 90
        0
102
RTVSPost2010PropOp41
 70
     1
102
RTVSPost2010Prop42
 90
       50
102
RTVSPost2010PropOp42
 70
     1
102
RTVSPost2010Prop43
 90
        3
102
RTVSPost2010PropOp43
 70
     1
102
RTVSPost2010Prop44ColorIndex
 90
        5
102
RTVSPost2010Prop44ColorRGB
 90
      255
102
RTVSPost2010PropOp44
 70
     1
102
RTVSPost2010Prop45
280
     0
102
RTVSPost2010PropOp45
 70
     1
102
RTVSPost2010Prop46
 90
       50
102
RTVSPost2010PropOp46
 70
     1
102
RTVSPost2010Prop47
 90
       50
102
RTVSPost2010PropOp47
 70
     1
102
RTVSPost2010Prop48
 90
       50
102
RTVSPost2010PropOp48
 70
     1
102
RTVSPost2010Prop49
280
     0
102
RTVSPost2010PropOp49
 70
     1
102
RTVSPost2010Prop50
 90
       50
102
RTVSPost2010PropOp50
 70
     1
102
RTVSPost2010Prop51ColorIndex
 90
      256
102
RTVSPost2010Prop51ColorRGB
 90
-16777216
102
RTVSPost2010PropOp51
 70
     0
102
RTVSPost2010Prop52
140
1.0
102
RTVSPost2010PropOp52
 70
     0
102
RTVSPost2010Prop53
 90
        2
102
RTVSPost2010PropOp53
 70
     1
102
RTVSPost2010Prop54
  1
strokes_ogs.tif
102
RTVSPost2010PropOp54
 70
     1
102
RTVSPost2010Prop55
280
     0
102
RTVSPost2010PropOp55
 70
     1
102
RTVSPost2010Prop56
140
1.0
102
RTVSPost2010PropOp56
 70
     1
102
RTVSPost2010Prop57
140
1.0
102
RTVSPost2010PropOp57
 70
     1
102
RTVSPropertyOp0
 70
     1
102
RTVSPropertyOp1
 70
     1
102
RTVSPropertyOp2
 70
     1
102
RTVSPropertyOp3
 70
     1
102
RTVSPropertyOp4
 70
     1
102
RTVSPropertyOp5
 70
     1
102
RTVSPropertyOp6
 70
     1
102
RTVSPropertyOp7
 70
     1
102
RTVSPropertyOp8
 70
     1
102
RTVSPropertyOp9
 70
     1
102
RTVSPropertyOp10
 70
     1
102
RTVSPropertyOp11
 70
     1
102
RTVSPropertyOp12
 70
     1
102
RTVSPropertyOp13
 70
     1
102
RTVSPropertyOp14
 70
     1
102
RTVSPropertyOp15
 70
     1
102
RTVSPropertyOp16
 70
     1
102
RTVSPropertyOp17
 70
     1
102
RTVSPropertyOp18
 70
     1
102
RTVSPropertyOp19
 70
     1
102
RTVSPropertyOp20
 70
     1
102
RTVSPropertyOp21
 70
     1
102
RTVSPropertyOp22
 70
     1
102
RTVSPropertyOp23
 70
     1
102
RTVSPropertyOp24
 70
     1
102
RTVSPropertyOp25
 70
     1
102
RTVSPropertyOp26
 70
     1
102
RTVSPropertyOp27
 70
     1
102
RTVSPropertyOp28
 70
     1
102
RTVSPropertyOp29
 70
     1
102
RTVSPropertyOp30
 70
     1
102
RTVSPropertyOp31
 70
     1
102
RTVSPropertyOp32
 70
     1
102
RTVSPropertyOp33
 70
     1
102
RTVSPropertyOp34
 70
     1
102
RTVSPropertyOp35
 70
     1
102
RTVSPropertyOp36
 70
     1
102
RTVSPropertyOp37
 70
     1
102
RTVSPropertyOp38
 70
     1
102
RTVSPropertyOp39
 70
     1
102
RTVSPropertyOp40
 70
     1
102
RTVSPropertyOp41
 70
     1
102
RTVSPropertyOp42
 70
     1
102
RTVSPropertyOp43
 70
     1
102
RTVSPropertyOp44
 70
     1
102
RTVSPropertyOp45
 70
     1
102
RTVSPropertyOp46
 70
     1
102
RTVSPropertyOp47
 70
     1
102
RTVSPropertyOp48
 70
     1
102
RTVSPropertyOp49
 70
     1
102
RTVSPropertyOp50
 70
     1
102
RTVSPropertyOp51
 70
     0
102
RTVSPropertyOp52
 70
     0
102
RTVSPropertyOp53
 70
     1
102
RTVSPropertyOp54
 70
     1
102
RTVSPropertyOp55
 70
     1
102
RTVSPropertyOp56
 70
     1
102
RTVSPropertyOp57
 70
     1
102
RTVSPropertyOp58
 70
     1
102
RTVSPropertyOp59
 70
     1
102
RTVSPropertyOp60
 70
     1
102
RTVSPropertyOp61
 70
     1
102
RTVSPropertyOp62
 70
     1
  0
ENDSEC
  0
EOF
