  0
SECTION
  2
HEADER
  9
$ACADVER
  1
AC1018
  9
$ACADMAINTVER
 70
   104
  9
$DWGCODEPAGE
  3
ANSI_1250
  9
$LASTSAVEDBY
  1
EVA
  9
$INSBASE
 10
0.0
 20
0.0
 30
0.0
  9
$EXTMIN
 10
-84.30791753239123
 20
181.3670592339247
 30
0.0
  9
$EXTMAX
 10
1004.613390738189
 20
1281.498043086641
 30
0.0
  9
$LIMMIN
 10
0.0
 20
0.0
  9
$LIMMAX
 10
271.6285070728513
 20
136.3429239280804
  9
$ORTHOMODE
 70
     1
  9
$REGENMODE
 70
     1
  9
$FILLMODE
 70
     1
  9
$QTEXTMODE
 70
     0
  9
$MIRRTEXT
 70
     0
  9
$LTSCALE
 40
15.0
  9
$ATTMODE
 70
     1
  9
$TEXTSIZE
 40
3.0
  9
$TRACEWID
 40
1.0
  9
$TEXTSTYLE
  7
Stil1
  9
$CLAYER
  8
TXT-D
  9
$CELTYPE
  6
BYLAYER
  9
$CECOLOR
 62
   256
  9
$CELTSCALE
 40
5.0
  9
$DISPSILH
 70
     0
  9
$DIMSCALE
 40
5.0
  9
$DIMASZ
 40
3.5
  9
$DIMEXO
 40
0.0
  9
$DIMDLI
 40
3.75
  9
$DIMRND
 40
0.0
  9
$DIMDLE
 40
0.0
  9
$DIMEXE
 40
1.25
  9
$DIMTP
 40
0.0
  9
$DIMTM
 40
0.0
  9
$DIMTXT
 40
3.5
  9
$DIMCEN
 40
3.5
  9
$DIMTSZ
 40
0.0
  9
$DIMTOL
 70
     0
  9
$DIMLIM
 70
     0
  9
$DIMTIH
 70
     0
  9
$DIMTOH
 70
     0
  9
$DIMSE1
 70
     0
  9
$DIMSE2
 70
     0
  9
$DIMTAD
 70
     1
  9
$DIMZIN
 70
     8
  9
$DIMBLK
  1

  9
$DIMASO
 70
     1
  9
$DIMSHO
 70
     1
  9
$DIMPOST
  1

  9
$DIMAPOST
  1

  9
$DIMALT
 70
     0
  9
$DIMALTD
 70
     4
  9
$DIMALTF
 40
0.0394
  9
$DIMLFAC
 40
1.0
  9
$DIMTOFL
 70
     0
  9
$DIMTVP
 40
0.0
  9
$DIMTIX
 70
     0
  9
$DIMSOXD
 70
     0
  9
$DIMSAH
 70
     0
  9
$DIMBLK1
  1

  9
$DIMBLK2
  1

  9
$DIMSTYLE
  2
18
  9
$DIMCLRD
 70
     0
  9
$DIMCLRE
 70
     0
  9
$DIMCLRT
 70
     2
  9
$DIMTFAC
 40
1.0
  9
$DIMGAP
 40
0.625
  9
$DIMJUST
 70
     0
  9
$DIMSD1
 70
     0
  9
$DIMSD2
 70
     0
  9
$DIMTOLJ
 70
     1
  9
$DIMTZIN
 70
     0
  9
$DIMALTZ
 70
     0
  9
$DIMALTTZ
 70
     0
  9
$DIMUPT
 70
     0
  9
$DIMDEC
 70
     0
  9
$DIMTDEC
 70
     4
  9
$DIMALTU
 70
     8
  9
$DIMALTTD
 70
     4
  9
$DIMTXSTY
  7
ROMANS
  9
$DIMAUNIT
 70
     0
  9
$DIMADEC
 70
     0
  9
$DIMALTRND
 40
0.0
  9
$DIMAZIN
 70
     0
  9
$DIMDSEP
 70
    46
  9
$DIMATFIT
 70
     3
  9
$DIMFRAC
 70
     0
  9
$DIMLDRBLK
  1

  9
$DIMLUNIT
 70
     6
  9
$DIMLWD
 70
    -2
  9
$DIMLWE
 70
    -2
  9
$DIMTMOVE
 70
     0
  9
$LUNITS
 70
     2
  9
$LUPREC
 70
     4
  9
$SKETCHINC
 40
1.0
  9
$FILLETRAD
 40
0.0
  9
$AUNITS
 70
     0
  9
$AUPREC
 70
     0
  9
$MENU
  1
.
  9
$ELEVATION
 40
0.0
  9
$PELEVATION
 40
0.0
  9
$THICKNESS
 40
0.0
  9
$LIMCHECK
 70
     0
  9
$CHAMFERA
 40
10.0
  9
$CHAMFERB
 40
10.0
  9
$CHAMFERC
 40
20.0
  9
$CHAMFERD
 40
0.0
  9
$SKPOLY
 70
     0
  9
$TDCREATE
 40
2451600.645418067
  9
$TDUCREATE
 40
2451600.562084734
  9
$TDUPDATE
 40
2457248.463389653
  9
$TDUUPDATE
 40
2457248.380056320
  9
$TDINDWG
 40
2.0336596065
  9
$TDUSRTIMER
 40
2.0336593750
  9
$USRTIMER
 70
     1
  9
$ANGBASE
 50
0.0
  9
$ANGDIR
 70
     0
  9
$PDMODE
 70
     0
  9
$PDSIZE
 40
0.0
  9
$PLINEWID
 40
0.0
  9
$SPLFRAME
 70
     0
  9
$SPLINETYPE
 70
     6
  9
$SPLINESEGS
 70
     8
  9
$HANDSEED
  5
4906
  9
$SURFTAB1
 70
     6
  9
$SURFTAB2
 70
     6
  9
$SURFTYPE
 70
     6
  9
$SURFU
 70
     6
  9
$SURFV
 70
     6
  9
$UCSBASE
  2

  9
$UCSNAME
  2

  9
$UCSORG
 10
0.0
 20
0.0
 30
0.0
  9
$UCSXDIR
 10
1.0
 20
0.0
 30
0.0
  9
$UCSYDIR
 10
0.0
 20
1.0
 30
0.0
  9
$UCSORTHOREF
  2

  9
$UCSORTHOVIEW
 70
     0
  9
$UCSORGTOP
 10
0.0
 20
0.0
 30
0.0
  9
$UCSORGBOTTOM
 10
0.0
 20
0.0
 30
0.0
  9
$UCSORGLEFT
 10
0.0
 20
0.0
 30
0.0
  9
$UCSORGRIGHT
 10
0.0
 20
0.0
 30
0.0
  9
$UCSORGFRONT
 10
0.0
 20
0.0
 30
0.0
  9
$UCSORGBACK
 10
0.0
 20
0.0
 30
0.0
  9
$PUCSBASE
  2

  9
$PUCSNAME
  2

  9
$PUCSORG
 10
0.0
 20
0.0
 30
0.0
  9
$PUCSXDIR
 10
1.0
 20
0.0
 30
0.0
  9
$PUCSYDIR
 10
0.0
 20
1.0
 30
0.0
  9
$PUCSORTHOREF
  2

  9
$PUCSORTHOVIEW
 70
     0
  9
$PUCSORGTOP
 10
0.0
 20
0.0
 30
0.0
  9
$PUCSORGBOTTOM
 10
0.0
 20
0.0
 30
0.0
  9
$PUCSORGLEFT
 10
0.0
 20
0.0
 30
0.0
  9
$PUCSORGRIGHT
 10
0.0
 20
0.0
 30
0.0
  9
$PUCSORGFRONT
 10
0.0
 20
0.0
 30
0.0
  9
$PUCSORGBACK
 10
0.0
 20
0.0
 30
0.0
  9
$USERI1
 70
     0
  9
$USERI2
 70
     0
  9
$USERI3
 70
     0
  9
$USERI4
 70
     0
  9
$USERI5
 70
     0
  9
$USERR1
 40
0.0
  9
$USERR2
 40
0.0
  9
$USERR3
 40
0.0
  9
$USERR4
 40
0.0
  9
$USERR5
 40
0.0
  9
$WORLDVIEW
 70
     1
  9
$SHADEDGE
 70
     3
  9
$SHADEDIF
 70
    70
  9
$TILEMODE
 70
     0
  9
$MAXACTVP
 70
    48
  9
$PINSBASE
 10
0.0
 20
0.0
 30
0.0
  9
$PLIMCHECK
 70
     0
  9
$PEXTMIN
 10
5.862626085583912
 20
3.452432288499369
 30
0.0
  9
$PEXTMAX
 10
944.9695665682407
 20
1043.892390491812
 30
0.0
  9
$PLIMMIN
 10
-6.043083190917968
 20
-6.762742042541503
  9
$PLIMMAX
 10
203.9302444458008
 20
290.2055807113647
  9
$UNITMODE
 70
     0
  9
$VISRETAIN
 70
     1
  9
$PLINEGEN
 70
     0
  9
$PSLTSCALE
 70
     0
  9
$TREEDEPTH
 70
  3020
  9
$CMLSTYLE
  2
STANDARD
  9
$CMLJUST
 70
     0
  9
$CMLSCALE
 40
20.0
  9
$PROXYGRAPHICS
 70
     1
  9
$MEASUREMENT
 70
     1
  9
$CELWEIGHT
370
    -1
  9
$ENDCAPS
280
     0
  9
$JOINSTYLE
280
     0
  9
$LWDISPLAY
290
     0
  9
$INSUNITS
 70
     0
  9
$HYPERLINKBASE
  1

  9
$STYLESHEET
  1

  9
$XEDIT
290
     1
  9
$CEPSNTYPE
380
     0
  9
$PSTYLEMODE
290
     1
  9
$FINGERPRINTGUID
  2
{9E2E0D10-E48E-11D3-BEBA-006008753510}
  9
$VERSIONGUID
  2
{BAA99673-B44F-4268-8D39-88626DC75D36}
  9
$EXTNAMES
290
     1
  9
$PSVPSCALE
 40
0.0
  9
$OLESTARTUP
290
     0
  9
$SORTENTS
280
    96
  9
$INDEXCTL
280
     0
  9
$HIDETEXT
280
     0
  9
$XCLIPFRAME
290
     0
  9
$HALOGAP
280
     0
  9
$OBSCOLOR
 70
   257
  9
$OBSLTYPE
280
     0
  9
$INTERSECTIONDISPLAY
280
     0
  9
$INTERSECTIONCOLOR
 70
   257
  9
$DIMASSOC
280
     1
  9
$PROJECTNAME
  1

  0
ENDSEC
  0
SECTION
  2
CLASSES
  0
CLASS
  1
ACDBDICTIONARYWDFLT
  2
AcDbDictionaryWithDefault
  3
ObjectDBX Classes
 90
        0
 91
        1
280
     0
281
     0
  0
CLASS
  1
RASTERVARIABLES
  2
AcDbRasterVariables
  3
ISM
 90
        0
 91
        1
280
     0
281
     0
  0
CLASS
  1
IMAGEDEF
  2
AcDbRasterImageDef
  3
ISM
 90
        0
 91
        1
280
     0
281
     0
  0
CLASS
  1
IMAGEDEF_REACTOR
  2
AcDbRasterImageDefReactor
  3
ISM
 90
        1
 91
        0
280
     0
281
     0
  0
CLASS
  1
IMAGE
  2
AcDbRasterImage
  3
ISM
 90
     2175
 91
        0
280
     0
281
     1
  0
CLASS
  1
DICTIONARYVAR
  2
AcDbDictionaryVar
  3
ObjectDBX Classes
 90
        0
 91
       13
280
     0
281
     0
  0
CLASS
  1
MATERIAL
  2
AcDbMaterial
  3
ObjectDBX Classes
 90
     1153
 91
        3
280
     0
281
     0
  0
CLASS
  1
VISUALSTYLE
  2
AcDbVisualStyle
  3
ObjectDBX Classes
 90
     4095
 91
       24
280
     0
281
     0
  0
CLASS
  1
TABLESTYLE
  2
AcDbTableStyle
  3
ObjectDBX Classes
 90
     4095
 91
        1
280
     0
281
     0
  0
CLASS
  1
SCALE
  2
AcDbScale
  3
ObjectDBX Classes
 90
     1153
 91
       17
280
     0
281
     0
  0
CLASS
  1
MLEADERSTYLE
  2
AcDbMLeaderStyle
  3
ACDB_MLEADERSTYLE_CLASS
 90
     4095
 91
        1
280
     0
281
     0
  0
CLASS
  1
ACDBSECTIONVIEWSTYLE
  2
AcDbSectionViewStyle
  3
ObjectDBX Classes
 90
     1025
 91
        1
280
     0
281
     0
  0
CLASS
  1
ACDBDETAILVIEWSTYLE
  2
AcDbDetailViewStyle
  3
ObjectDBX Classes
 90
     1025
 91
        1
280
     0
281
     0
  0
CLASS
  1
CELLSTYLEMAP
  2
AcDbCellStyleMap
  3
ObjectDBX Classes
 90
     1152
 91
        2
280
     0
281
     0
  0
ENDSEC
  0
SECTION
  2
TABLES
  0
TABLE
  2
VPORT
  5
8
330
0
100
AcDbSymbolTable
 70
     1
  0
VPORT
  5
46B1
330
8
100
AcDbSymbolTableRecord
100
AcDbViewportTableRecord
  2
*Active
 70
     0
 10
0.0
 20
0.0
 11
1.0
 21
1.0
 12
213.3201835003424
 22
529.8709527928695
 13
0.0
 23
0.0
 14
10.0
 24
10.0
 15
10.0
 25
10.0
 16
0.0
 26
0.0
 36
1.0
 17
0.0
 27
0.0
 37
0.0
 40
1643.264912849748
 41
1.581724581724581
 42
50.0
 43
0.0
 44
0.0
 50
0.0
 51
0.0
 71
     0
 72
 20000
 73
     1
 74
     0
 75
     0
 76
     0
 77
     0
 78
     0
281
     0
 65
     1
110
0.0
120
0.0
130
0.0
111
1.0
121
0.0
131
0.0
112
0.0
122
1.0
132
0.0
 79
     0
146
0.0
1001
ACAD_NAV_VCDISPLAY
1070
     3
  0
ENDTAB
  0
TABLE
  2
LTYPE
  5
5
330
0
100
AcDbSymbolTable
 70
     7
  0
LTYPE
  5
12
330
5
100
AcDbSymbolTableRecord
100
AcDbLinetypeTableRecord
  2
BYBLOCK
 70
     0
  3

 72
    65
 73
     0
 40
0.0
  0
LTYPE
  5
13
330
5
100
AcDbSymbolTableRecord
100
AcDbLinetypeTableRecord
  2
BYLAYER
 70
     0
  3

 72
    65
 73
     0
 40
0.0
  0
LTYPE
  5
14
330
5
100
AcDbSymbolTableRecord
100
AcDbLinetypeTableRecord
  2
CONTINUOUS
 70
     0
  3
Solid line
 72
    65
 73
     0
 40
0.0
  0
LTYPE
  5
113E
330
5
100
AcDbSymbolTableRecord
100
AcDbLinetypeTableRecord
  2
VERDECKTX2
 70
     0
  3
Verdeckt (2x) ____ ____ ____ ____ ____ ____ ___
 72
    65
 73
     2
 40
19.05
 49
12.7
 74
     0
 49
-6.349999999999999
 74
     0
  0
LTYPE
  5
1205
330
5
100
AcDbSymbolTableRecord
100
AcDbLinetypeTableRecord
  2
GESTRICHELT
 70
     0
  3
__ __ __ __ __ __ __ __ __ __ __ __ __ __ __
 72
    65
 73
     2
 40
0.75
 49
0.5
 74
     0
 49
-0.25
 74
     0
  0
LTYPE
  5
1206
330
5
100
AcDbSymbolTableRecord
100
AcDbLinetypeTableRecord
  2
STRICHPUNKT
 70
     0
  3
__ . __ . __ . __ . __ . __ . __ . __ . __ . __
 72
    65
 73
     4
 40
1.0
 49
0.5
 74
     0
 49
-0.25
 74
     0
 49
0.0
 74
     0
 49
-0.25
 74
     0
  0
LTYPE
  5
1207
330
5
100
AcDbSymbolTableRecord
100
AcDbLinetypeTableRecord
  2
VERDECKT
 70
     0
  3
_ _ _ _ _ _ _ _ _ _ _ _ _ _ _ _ _ _ _ _ _ _ _
 72
    65
 73
     2
 40
0.375
 49
0.25
 74
     0
 49
-0.125
 74
     0
  0
LTYPE
  5
1208
330
5
100
AcDbSymbolTableRecord
100
AcDbLinetypeTableRecord
  2
AUSGEZOGEN
 70
     0
  3
Ausgezogene Linie
 72
    65
 73
     0
 40
0.0
  0
LTYPE
  5
473C
330
5
100
AcDbSymbolTableRecord
100
AcDbLinetypeTableRecord
  2
PHANTOM2
 70
     0
  3
___ _ _ ___ _ _ ___ _ _ ___ _ _
 72
    65
 73
     6
 40
1.25
 49
0.625
 74
     0
 49
-0.125
 74
     0
 49
0.125
 74
     0
 49
-0.125
 74
     0
 49
0.125
 74
     0
 49
-0.125
 74
     0
  0
ENDTAB
  0
TABLE
  2
LAYER
  5
2
102
{ACAD_XDICTIONARY
360
4737
102
}
330
0
100
AcDbSymbolTable
 70
    18
  0
LAYER
  5
E
102
{ACAD_XDICTIONARY
360
4706
102
}
330
2
100
AcDbSymbolTableRecord
100
AcDbLayerTableRecord
  2
0
 70
     0
 62
     7
  6
CONTINUOUS
370
    -3
390
5E8
  0
LAYER
  5
B7
102
{ACAD_XDICTIONARY
360
4708
102
}
330
2
100
AcDbSymbolTableRecord
100
AcDbLayerTableRecord
  2
V5
 70
     0
 62
     7
  6
CONTINUOUS
370
    -3
390
5E8
  0
LAYER
  5
8F4
102
{ACAD_XDICTIONARY
360
470A
102
}
330
2
100
AcDbSymbolTableRecord
100
AcDbLayerTableRecord
  2
Mansfen
 70
     0
 62
     4
  6
CONTINUOUS
290
     0
370
    -3
390
5E8
  0
LAYER
  5
9AF
102
{ACAD_XDICTIONARY
360
470C
102
}
330
2
100
AcDbSymbolTableRecord
100
AcDbLayerTableRecord
  2
TXT-E
 70
     0
 62
     1
  6
CONTINUOUS
370
    -3
390
5E8
  0
LAYER
  5
1209
102
{ACAD_XDICTIONARY
360
470E
102
}
330
2
100
AcDbSymbolTableRecord
100
AcDbLayerTableRecord
  2
V7
 70
     0
 62
     5
  6
CONTINUOUS
370
    -3
390
5E8
  0
LAYER
  5
120A
102
{ACAD_XDICTIONARY
360
4710
102
}
330
2
100
AcDbSymbolTableRecord
100
AcDbLayerTableRecord
  2
V35
 70
     0
 62
     3
  6
CONTINUOUS
370
    -3
390
5E8
  0
LAYER
  5
120B
102
{ACAD_XDICTIONARY
360
4712
102
}
330
2
100
AcDbSymbolTableRecord
100
AcDbLayerTableRecord
  2
V25
 70
     0
 62
     4
  6
CONTINUOUS
370
    -3
390
5E8
  0
LAYER
  5
120C
102
{ACAD_XDICTIONARY
360
4714
102
}
330
2
100
AcDbSymbolTableRecord
100
AcDbLayerTableRecord
  2
SV35
 70
     0
 62
     6
  6
VERDECKT
370
    -3
390
5E8
  0
LAYER
  5
120D
102
{ACAD_XDICTIONARY
360
4716
102
}
330
2
100
AcDbSymbolTableRecord
100
AcDbLayerTableRecord
  2
ACHS
 70
     0
 62
     4
  6
STRICHPUNKT
370
    -3
390
5E8
  0
LAYER
  5
120E
102
{ACAD_XDICTIONARY
360
4718
102
}
330
2
100
AcDbSymbolTableRecord
100
AcDbLayerTableRecord
  2
TXT-D
 70
     0
 62
     7
  6
CONTINUOUS
370
    -3
390
5E8
  0
LAYER
  5
120F
102
{ACAD_XDICTIONARY
360
471A
102
}
330
2
100
AcDbSymbolTableRecord
100
AcDbLayerTableRecord
  2
ISOLIER
 70
     0
 62
     4
  6
CONTINUOUS
370
    -3
390
5E8
  0
LAYER
  5
1211
102
{ACAD_XDICTIONARY
360
471C
102
}
330
2
100
AcDbSymbolTableRecord
100
AcDbLayerTableRecord
  2
ISO
 70
     0
 62
     4
  6
AUSGEZOGEN
370
    -3
390
5E8
  0
LAYER
  5
1AE8
102
{ACAD_XDICTIONARY
360
471E
102
}
330
2
100
AcDbSymbolTableRecord
100
AcDbLayerTableRecord
  2
KLIPP
 70
     0
 62
     7
  6
CONTINUOUS
370
    -3
390
5E8
  0
LAYER
  5
1AE9
102
{ACAD_XDICTIONARY
360
4720
102
}
330
2
100
AcDbSymbolTableRecord
100
AcDbLayerTableRecord
  2
ISOTRI46
 70
     0
 62
     4
  6
AUSGEZOGEN
370
    -3
390
5E8
  0
LAYER
  5
25AB
102
{ACAD_XDICTIONARY
360
4722
102
}
330
2
100
AcDbSymbolTableRecord
100
AcDbLayerTableRecord
  2
_INSULATION
 70
     0
 62
     4
  6
CONTINUOUS
370
    -3
390
5E8
  0
LAYER
  5
25AC
102
{ACAD_XDICTIONARY
360
4724
102
}
330
2
100
AcDbSymbolTableRecord
100
AcDbLayerTableRecord
  2
INSULATION
 70
     0
 62
     4
  6
CONTINUOUS
370
    -3
390
5E8
  0
LAYER
  5
2DBF
102
{ACAD_XDICTIONARY
360
4726
102
}
330
2
100
AcDbSymbolTableRecord
100
AcDbLayerTableRecord
  2
BEM
 70
     0
 62
     1
  6
CONTINUOUS
370
    -3
390
5E8
  0
LAYER
  5
2DC0
102
{ACAD_XDICTIONARY
360
4728
102
}
330
2
100
AcDbSymbolTableRecord
100
AcDbLayerTableRecord
  2
TXT
 70
     0
 62
     2
  6
CONTINUOUS
370
    -3
390
5E8
  0
ENDTAB
  0
TABLE
  2
STYLE
  5
3
330
0
100
AcDbSymbolTable
 70
     4
  0
STYLE
  5
F
330
3
100
AcDbSymbolTableRecord
100
AcDbTextStyleTableRecord
  2
STANDARD
 70
     0
 40
0.0
 41
1.0
 50
0.0
 71
     0
 42
2.5
  3
txt
  4

  0
STYLE
  5
BF
330
3
100
AcDbSymbolTableRecord
100
AcDbTextStyleTableRecord
  2
ROMANS
 70
     0
 40
14.0
 41
1.0
 50
0.0
 71
     0
 42
2.5
  3
arial.ttf
  4

1001
ACAD
1000
Arial
1071
       34
  0
STYLE
  5
91F
330
3
100
AcDbSymbolTableRecord
100
AcDbTextStyleTableRecord
  2
Stil1
 70
     0
 40
3.0
 41
1.0
 50
0.0
 71
     0
 42
3.0
  3
arial.ttf
  4

1001
ACAD
1000
Arial
1071
       34
  0
STYLE
  5
2DC1
330
3
100
AcDbSymbolTableRecord
100
AcDbTextStyleTableRecord
  2
35
 70
     0
 40
0.0
 41
1.0
 50
0.0
 71
     0
 42
4.0
  3
ROMANS.shx
  4

  0
ENDTAB
  0
TABLE
  2
VIEW
  5
6
330
0
100
AcDbSymbolTable
 70
     0
  0
ENDTAB
  0
TABLE
  2
UCS
  5
7
330
0
100
AcDbSymbolTable
 70
     0
  0
ENDTAB
  0
TABLE
  2
APPID
  5
9
330
0
100
AcDbSymbolTable
 70
     7
  0
APPID
  5
10
330
9
100
AcDbSymbolTableRecord
100
AcDbRegAppTableRecord
  2
ACAD
 70
     0
  0
APPID
  5
16D4
330
9
100
AcDbSymbolTableRecord
100
AcDbRegAppTableRecord
  2
CONTENTBLOCKICON
 70
     0
  0
APPID
  5
2405
330
9
100
AcDbSymbolTableRecord
100
AcDbRegAppTableRecord
  2
DCO15
 70
     0
  0
APPID
  5
2DC2
330
9
100
AcDbSymbolTableRecord
100
AcDbRegAppTableRecord
  2
AME_SOL
 70
     0
  0
APPID
  5
473D
330
9
100
AcDbSymbolTableRecord
100
AcDbRegAppTableRecord
  2
ACAD_NAV_VCDISPLAY
 70
     0
  0
APPID
  5
4771
330
9
100
AcDbSymbolTableRecord
100
AcDbRegAppTableRecord
  2
ACAD_EXEMPT_FROM_CAD_STANDARDS
 70
     0
  0
APPID
  5
48F8
330
9
100
AcDbSymbolTableRecord
100
AcDbRegAppTableRecord
  2
ACAD_MLEADERVER
 70
     0
  0
ENDTAB
  0
TABLE
  2
DIMSTYLE
  5
A
330
0
100
AcDbSymbolTable
 70
     1
100
AcDbDimStyleTable
 71
     1
340
280
  0
DIMSTYLE
105
280
330
A
100
AcDbSymbolTableRecord
100
AcDbDimStyleTableRecord
  2
18
 70
     0
 40
5.0
 41
3.5
 42
0.0
 43
3.75
 44
1.25
 73
     0
 74
     0
 77
     1
 78
     8
140
3.5
141
3.5
143
0.0394
147
0.625
171
     4
178
     2
271
     0
273
     8
274
     4
277
     6
340
BF
  0
ENDTAB
  0
TABLE
  2
BLOCK_RECORD
  5
1
330
0
100
AcDbSymbolTable
 70
     9
  0
BLOCK_RECORD
  5
18
102
{ACAD_XDICTIONARY
360
81C
102
}
330
1
100
AcDbSymbolTableRecord
100
AcDbBlockTableRecord
  2
*MODEL_SPACE
340
5EB
  0
BLOCK_RECORD
  5
15
102
{ACAD_XDICTIONARY
360
81A
102
}
330
1
100
AcDbSymbolTableRecord
100
AcDbBlockTableRecord
  2
*PAPER_SPACE
340
5EC
  0
BLOCK_RECORD
  5
1194
330
1
100
AcDbSymbolTableRecord
100
AcDbBlockTableRecord
  2
Z45-6
340
0
102
{BLKREFS
331
149A
102
}
  0
BLOCK_RECORD
  5
11A2
330
1
100
AcDbSymbolTableRecord
100
AcDbBlockTableRecord
  2
*X1
340
0
102
{BLKREFS
331
1F2F
102
}
  0
BLOCK_RECORD
  5
2590
330
1
100
AcDbSymbolTableRecord
100
AcDbBlockTableRecord
  2
DAEMM
340
0
  0
BLOCK_RECORD
  5
2C90
330
1
100
AcDbSymbolTableRecord
100
AcDbBlockTableRecord
  2
L25
340
0
  0
BLOCK_RECORD
  5
2CB1
330
1
100
AcDbSymbolTableRecord
100
AcDbBlockTableRecord
  2
PA140 Quer
340
0
310
2800000020000000200000000100080000000000000400000000000000000000000000000000000000000000000080000080000000808000800000008000800080800000C0C0C000C0DCC000F0CAA6000020400000206000002080000020A0000020C0000020E00000400000004020000040400000406000004080000040A0
310
000040C0000040E00000600000006020000060400000606000006080000060A0000060C0000060E00000800000008020000080400000806000008080000080A0000080C0000080E00000A0000000A0200000A0400000A0600000A0800000A0A00000A0C00000A0E00000C0000000C0200000C0400000C0600000C0800000C0
310
A00000C0C00000C0E00000E0000000E0200000E0400000E0600000E0800000E0A00000E0C00000E0E00040000000400020004000400040006000400080004000A0004000C0004000E00040200000402020004020400040206000402080004020A0004020C0004020E000404000004040200040404000404060004040800040
310
40A0004040C0004040E00040600000406020004060400040606000406080004060A0004060C0004060E00040800000408020004080400040806000408080004080A0004080C0004080E00040A0000040A0200040A0400040A0600040A0800040A0A00040A0C00040A0E00040C0000040C0200040C0400040C0600040C08000
310
40C0A00040C0C00040C0E00040E0000040E0200040E0400040E0600040E0800040E0A00040E0C00040E0E00080000000800020008000400080006000800080008000A0008000C0008000E00080200000802020008020400080206000802080008020A0008020C0008020E00080400000804020008040400080406000804080
310
008040A0008040C0008040E00080600000806020008060400080606000806080008060A0008060C0008060E00080800000808020008080400080806000808080008080A0008080C0008080E00080A0000080A0200080A0400080A0600080A0800080A0A00080A0C00080A0E00080C0000080C0200080C0400080C0600080C0
310
800080C0A00080C0C00080C0E00080E0000080E0200080E0400080E0600080E0800080E0A00080E0C00080E0E000C0000000C0002000C0004000C0006000C0008000C000A000C000C000C000E000C0200000C0202000C0204000C0206000C0208000C020A000C020C000C020E000C0400000C0402000C0404000C0406000C0
310
408000C040A000C040C000C040E000C0600000C0602000C0604000C0606000C0608000C060A000C060C000C060E000C0800000C0802000C0804000C0806000C0808000C080A000C080C000C080E000C0A00000C0A02000C0A04000C0A06000C0A08000C0A0A000C0A0C000C0A0E000C0C00000C0C02000C0C04000C0C06000
310
C0C08000C0C0A000F0FBFF00A4A0A000808080000000FF0000FF000000FFFF00FF000000FF00FF00FFFF0000FFFFFF0000000000000000000000000000000000000000000000000000000000000000000000000000000000000000FFFFFFFFFFFFFFFFFF00000000000000000000000000000000000000000000FFFFFFFFFF
310
00FFFFFF00FF00000000000000000000000000000000000000000000FF0000FF00FF0000FF0000000000000000000000000000000000000000000000FF0000FF00FF0000FF000000000000000000000000000000000000000000000000FF0000000000FF00000000000000000000000000000000000000000000000000FF00
310
00FF0000FF00000000000000000000000000000000000000000000000000FF0000FF0000FF00000000000000000000000000000000000000000000000000FF0000FF0000FF00000000000000000000000000000000000000000000000000FF0000FF0000FF0000000000000000000000000000000000000000000000000000
310
FF00FF00FF000000000000000000000000000000000000000000000000000000FF00FF00FF000000000000000000000000000000000000000000000000000000FF00FF00FF000000000000000000000000000000000000000000000000000000FF00FF00FF0000000000000000000000000000000000000000000000000000
310
0000FFFFFF0000000000000000000000000000000000000000000000000000000000FFFFFF0000000000000000000000000000000000000000000000000000000000FFFFFF0000000000000000000000000000000000000000000000000000000000FFFFFF0000000000000000000000000000000000000000000000000000
310
000000FFFFFF000000000000000000000000000000000000000000000000000000000000FF00000000000000000000000000000000000000000000000000000000000000FF00000000000000000000000000000000000000000000000000000000000000FF0000000000000000000000000000000000000000000000000000
310
0000000000FF00000000000000000000000000000000000000000000000000000000000000FF00000000000000000000000000000000000000000000000000000000000000FF00000000000000000000000000000000000000000000000000000000000000FF00000000000000000000000000000000000000000000000000
310
000000000000FF00000000000000000000000000000000000000000000000000000000000000FF000000000000000000000000000000000000000000000000000000000000FFFFFF00000000000000000000000000000000000000000000000000000000000000000000000000000000000000000000000000000000000000
310
0000000000000000000000000000000000000000000000000000000000000000000000000000000000000000000000000000000000000000
  0
BLOCK_RECORD
  5
2CD5
330
1
100
AcDbSymbolTableRecord
100
AcDbBlockTableRecord
  2
AluPers
340
0
  0
BLOCK_RECORD
  5
2D16
330
1
100
AcDbSymbolTableRecord
100
AcDbBlockTableRecord
  2
E140s
340
0
  0
BLOCK_RECORD
  5
2D2F
330
1
100
AcDbSymbolTableRecord
100
AcDbBlockTableRecord
  2
e140
340
0
  0
BLOCK_RECORD
  5
47EE
102
{ACAD_XDICTIONARY
360
47F0
102
}
330
1
100
AcDbSymbolTableRecord
100
AcDbBlockTableRecord
  2
A$C2A982580
340
0
  0
ENDTAB
  0
ENDSEC
  0
SECTION
  2
BLOCKS
  0
BLOCK
  5
19
330
18
100
AcDbEntity
  8
0
100
AcDbBlockBegin
  2
*MODEL_SPACE
 70
     0
 10
0.0
 20
0.0
 30
0.0
  3
*MODEL_SPACE
  1

  0
ENDBLK
  5
1A
330
18
100
AcDbEntity
  8
0
100
AcDbBlockEnd
  0
BLOCK
  5
16
330
15
100
AcDbEntity
 67
     1
  8
0
100
AcDbBlockBegin
  2
*PAPER_SPACE
 70
     0
 10
0.0
 20
0.0
 30
0.0
  3
*PAPER_SPACE
  1

  0
ENDBLK
  5
17
330
15
100
AcDbEntity
 67
     1
  8
0
100
AcDbBlockEnd
  0
BLOCK
  5
119A
330
1194
100
AcDbEntity
  8
0
100
AcDbBlockBegin
  2
Z45-6
 70
     0
 10
0.0
 20
0.0
 30
0.0
  3
Z45-6
  1

  0
LWPOLYLINE
  5
1195
330
1194
100
AcDbEntity
  8
V5
100
AcDbPolyline
 90
        2
 70
     0
 43
2.0
 10
-41.4486353224944
 20
-3.402324215511953
 10
-41.18716809425143
 20
-6.390908309787164
  0
LWPOLYLINE
  5
1196
330
1194
100
AcDbEntity
  8
V5
100
AcDbPolyline
 90
        2
 70
     0
 43
1.5
 10
1.085739767587028
 20
-1.939643219442814
 10
-41.25253490131217
 20
-5.643762286218361
  0
LWPOLYLINE
  5
1197
330
1194
100
AcDbEntity
  8
V5
100
AcDbPolyline
 90
        2
 70
     0
 43
3.0
 10
0.6281721181618423
 20
3.290378945538805
 10
1.151106574647769
 20
-2.686789243011617
  0
LWPOLYLINE
  5
1198
330
1194
100
AcDbEntity
  8
V5
100
AcDbPolyline
 90
        2
 70
     0
 43
1.5
 10
44.02800829221348
 20
6.334507731492976
 10
0.6935389252225832
 20
2.543232921970002
  0
LWPOLYLINE
  5
1199
330
1194
100
AcDbEntity
  8
V5
100
AcDbPolyline
 90
        2
 70
     0
 43
2.0
 10
43.22791401530401
 20
4.005913918038913
 10
43.03181359412178
 20
6.247351988745322
  0
ENDBLK
  5
119B
330
1194
100
AcDbEntity
  8
0
100
AcDbBlockEnd
  0
BLOCK
  5
11B6
330
11A2
100
AcDbEntity
  8
0
100
AcDbBlockBegin
  2
*X1
 70
     1
 10
0.0
 20
0.0
 30
0.0
  3
*X1
  1

  0
LINE
  5
11A3
330
11A2
100
AcDbEntity
  8
0
 62
     0
380
     1
100
AcDbLine
 10
400.3929631487156
 20
418.0706326783792
 30
0.0
 11
423.9673170016094
 21
441.6449865312731
 31
0.0
  0
LINE
  5
11A4
330
11A2
100
AcDbEntity
  8
0
 62
     0
380
     1
100
AcDbLine
 10
400.3929631487156
 20
426.9094674432111
 30
0.0
 11
423.9673170016094
 21
450.483821296105
 31
0.0
  0
LINE
  5
11A5
330
11A2
100
AcDbEntity
  8
0
 62
     0
380
     1
100
AcDbLine
 10
400.3929631487156
 20
435.7483022080429
 30
0.0
 11
423.9673170016094
 21
459.3226560609368
 31
0.0
  0
LINE
  5
11A6
330
11A2
100
AcDbEntity
  8
0
 62
     0
380
     1
100
AcDbLine
 10
400.3929631487156
 20
444.5871369728748
 30
0.0
 11
419.7887208586543
 21
463.9828946828136
 31
0.0
  0
LINE
  5
11A7
330
11A2
100
AcDbEntity
  8
0
 62
     0
380
     1
100
AcDbLine
 10
400.3929631487156
 20
453.4259717377066
 30
0.0
 11
410.9498860938225
 21
463.9828946828136
 31
0.0
  0
LINE
  5
11A8
330
11A2
100
AcDbEntity
  8
0
 62
     0
380
     1
100
AcDbLine
 10
400.3929631487156
 20
462.2648065025385
 30
0.0
 11
402.1110513289906
 21
463.9828946828136
 31
0.0
  0
LINE
  5
11A9
330
11A2
100
AcDbEntity
  8
0
 62
     0
380
     1
100
AcDbLine
 10
400.3929631487156
 20
409.2317979135474
 30
0.0
 11
423.9673170016094
 21
432.8061517664413
 31
0.0
  0
LINE
  5
11AA
330
11A2
100
AcDbEntity
  8
0
 62
     0
380
     1
100
AcDbLine
 10
404.5301302529932
 20
404.5301302529932
 30
0.0
 11
423.9673170016094
 21
423.9673170016094
 31
0.0
  0
LINE
  5
11AB
330
11A2
100
AcDbEntity
  8
0
 62
     0
380
     1
100
AcDbLine
 10
413.3689650178251
 20
404.5301302529932
 30
0.0
 11
423.9673170016094
 21
415.1284822367776
 31
0.0
  0
LINE
  5
11AC
330
11A2
100
AcDbEntity
  8
0
 62
     0
380
     1
100
AcDbLine
 10
422.2077997826568
 20
404.5301302529932
 30
0.0
 11
423.9673170016094
 21
406.2896474719457
 31
0.0
  0
LINE
  5
11AD
330
11A2
100
AcDbEntity
  8
0
 62
     0
380
     1
100
AcDbLine
 10
423.9673170016094
 20
415.7219856574158
 30
0.0
 11
400.3929631487156
 21
439.2963395103097
 31
0.0
  0
LINE
  5
11AE
330
11A2
100
AcDbEntity
  8
0
 62
     0
380
     1
100
AcDbLine
 10
423.9673170016094
 20
406.883150892584
 30
0.0
 11
400.3929631487156
 21
430.4575047454779
 31
0.0
  0
LINE
  5
11AF
330
11A2
100
AcDbEntity
  8
0
 62
     0
380
     1
100
AcDbLine
 10
417.4815028763684
 20
404.5301302529932
 30
0.0
 11
400.3929631487156
 21
421.6186699806461
 31
0.0
  0
LINE
  5
11B0
330
11A2
100
AcDbEntity
  8
0
 62
     0
380
     1
100
AcDbLine
 10
408.6426681115366
 20
404.5301302529932
 30
0.0
 11
400.3929631487156
 21
412.7798352158142
 31
0.0
  0
LINE
  5
11B1
330
11A2
100
AcDbEntity
  8
0
 62
     0
380
     1
100
AcDbLine
 10
423.9673170016094
 20
424.5608204222476
 30
0.0
 11
400.3929631487156
 21
448.1351742751416
 31
0.0
  0
LINE
  5
11B2
330
11A2
100
AcDbEntity
  8
0
 62
     0
380
     1
100
AcDbLine
 10
423.9673170016094
 20
433.3996551870796
 30
0.0
 11
400.3929631487156
 21
456.9740090399734
 31
0.0
  0
LINE
  5
11B3
330
11A2
100
AcDbEntity
  8
0
 62
     0
380
     1
100
AcDbLine
 10
423.9673170016094
 20
442.2384899519114
 30
0.0
 11
402.2229122707072
 21
463.9828946828136
 31
0.0
  0
LINE
  5
11B4
330
11A2
100
AcDbEntity
  8
0
 62
     0
380
     1
100
AcDbLine
 10
423.9673170016094
 20
451.0773247167432
 30
0.0
 11
411.0617470355391
 21
463.9828946828136
 31
0.0
  0
LINE
  5
11B5
330
11A2
100
AcDbEntity
  8
0
 62
     0
380
     1
100
AcDbLine
 10
423.9673170016094
 20
459.916159481575
 30
0.0
 11
419.9005818003709
 21
463.9828946828136
 31
0.0
  0
ENDBLK
  5
11B7
330
11A2
100
AcDbEntity
  8
0
100
AcDbBlockEnd
  0
BLOCK
  5
2592
330
2590
100
AcDbEntity
  8
0
 48
5.0
100
AcDbBlockBegin
  2
DAEMM
 70
     0
 10
0.0
 20
0.0
 30
0.0
  3
DAEMM
  1

  0
LWPOLYLINE
  5
2591
330
2590
100
AcDbEntity
  8
INSULATION
100
AcDbPolyline
 90
        6
 70
     0
 43
0.0
 10
0.0
 20
0.0
 42
0.5249926553343702
 10
1.869693845669928
 20
2.710102051443413
 10
0.1303061543300714
 20
7.289897948556586
 42
-1.449489742783175
 10
3.869693845669928
 20
7.289897948556586
 10
2.130306154330071
 20
2.710102051443413
 42
0.5249926553343702
 10
4.0
 20
0.0
  0
ENDBLK
  5
2593
330
2590
100
AcDbEntity
  8
0
 48
5.0
100
AcDbBlockEnd
  0
BLOCK
  5
2CAF
330
2C90
100
AcDbEntity
  8
0
100
AcDbBlockBegin
  2
L25
 70
     0
 10
0.0
 20
0.0
 30
0.0
  3
L25
  1

  0
LINE
  5
2C91
330
2C90
100
AcDbEntity
  8
V5
 62
     7
100
AcDbLine
 10
29.79268579799634
 20
0.9181486771002482
 30
0.0
 11
29.79268579799634
 21
6.918148677100248
 31
0.0
  0
ARC
  5
2C92
330
2C90
100
AcDbEntity
  8
V5
 62
     7
100
AcDbCircle
 10
-0.2073042020036837
 20
78.91814867710002
 30
0.0
 40
3.0
100
AcDbArc
 50
0.0
 51
90.0
  0
ARC
  5
2C93
330
2C90
100
AcDbEntity
  8
V5
 62
     7
100
AcDbCircle
 10
-0.2073042020036837
 20
78.91814867710002
 30
0.0
 40
3.0
100
AcDbArc
 50
90.0
 51
180.0
  0
ARC
  5
2C94
330
2C90
100
AcDbEntity
  8
V5
 62
     7
100
AcDbCircle
 10
4.792687797996109
 20
74.50393867710011
 30
0.0
 40
1.0
100
AcDbArc
 50
359.9948
 51
43.71048
  0
ARC
  5
2C95
330
2C90
100
AcDbEntity
  8
V5
 62
     7
100
AcDbCircle
 10
4.792687797996109
 20
71.91815067710002
 30
0.0
 40
1.0
100
AcDbArc
 50
270.0
 51
0.000008651422
  0
LINE
  5
2C96
330
2C90
100
AcDbEntity
  8
V5
 62
     7
100
AcDbLine
 10
5.792691797996326
 20
71.91815067710002
 30
0.0
 11
5.792691797996326
 21
74.50393867710011
 31
0.0
  0
LINE
  5
2C97
330
2C90
100
AcDbEntity
  8
V5
 62
     7
100
AcDbLine
 10
2.042686797996225
 20
70.9181476770999
 30
0.0
 11
4.792687797996109
 21
70.9181476770999
 31
0.0
  0
ARC
  5
2C98
330
2C90
100
AcDbEntity
  8
V5
 62
     7
100
AcDbCircle
 10
2.042686797996225
 20
69.91814867710002
 30
0.0
 40
1.0
100
AcDbArc
 50
90.00002
 51
180.0
  0
ARC
  5
2C99
330
2C90
100
AcDbEntity
  8
V5
 62
     7
100
AcDbCircle
 10
4.792687797996109
 20
74.50393867710011
 30
0.0
 40
1.0
100
AcDbArc
 50
45.0
 51
45.0
  0
LINE
  5
2C9A
330
2C90
100
AcDbEntity
  8
V5
 62
     7
100
AcDbLine
 10
5.499798797996277
 20
75.21103867709996
 30
0.0
 11
2.792689797996104
 21
77.91814567710014
 31
0.0
  0
ARC
  5
2C9B
330
2C90
100
AcDbEntity
  8
V5
 62
     7
100
AcDbCircle
 10
-5.20731220200389
 20
74.50393867710011
 30
0.0
 40
1.0
100
AcDbArc
 50
136.2895
 51
180.0052
  0
ARC
  5
2C9C
330
2C90
100
AcDbEntity
  8
V5
 62
     7
100
AcDbCircle
 10
-5.20731220200389
 20
71.91815067710002
 30
0.0
 40
1.0
100
AcDbArc
 50
180.0
 51
270.0
  0
LINE
  5
2C9D
330
2C90
100
AcDbEntity
  8
V5
 62
     7
100
AcDbLine
 10
-6.207311202003779
 20
71.91815067710002
 30
0.0
 11
-6.207311202003779
 21
74.50393867710011
 31
0.0
  0
LINE
  5
2C9E
330
2C90
100
AcDbEntity
  8
V5
 62
     7
100
AcDbLine
 10
-2.457311202003779
 20
70.9181476770999
 30
0.0
 11
-5.20731220200389
 21
70.9181476770999
 31
0.0
  0
ARC
  5
2C9F
330
2C90
100
AcDbEntity
  8
V5
 62
     7
100
AcDbCircle
 10
-2.457311202003779
 20
69.91814867710002
 30
0.0
 40
1.0
100
AcDbArc
 50
0.000006830186
 51
89.99998000000001
  0
ARC
  5
2CA0
330
2C90
100
AcDbEntity
  8
V5
 62
     7
100
AcDbCircle
 10
-5.20731220200389
 20
74.50393867710011
 30
0.0
 40
1.0
100
AcDbArc
 50
135.0
 51
135.0
  0
LINE
  5
2CA1
330
2C90
100
AcDbEntity
  8
V5
 62
     7
100
AcDbLine
 10
-5.914423202003831
 20
75.21103867709996
 30
0.0
 11
-3.207309202003671
 21
77.91814567710014
 31
0.0
  0
LINE
  5
2CA2
330
2C90
100
AcDbEntity
  8
V5
 62
     7
100
AcDbLine
 10
2.792689797996104
 20
77.91814567710014
 30
0.0
 11
2.792689797996104
 21
78.91814867710002
 31
0.0
  0
LINE
  5
2CA3
330
2C90
100
AcDbEntity
  8
V5
 62
     7
100
AcDbLine
 10
-3.207309202003671
 20
77.91814567710014
 30
0.0
 11
-3.207309202003671
 21
78.91814867710002
 31
0.0
  0
ARC
  5
2CA4
330
2C90
100
AcDbEntity
  8
V5
 62
     7
100
AcDbCircle
 10
5.541646797996122
 20
9.91814867710002
 30
0.0
 40
2.999999
100
AcDbArc
 50
185.0006
 51
270.0
  0
ARC
  5
2CA5
330
2C90
100
AcDbEntity
  8
V5
 62
     7
100
AcDbCircle
 10
-5.956271202003676
 20
9.91814867710002
 30
0.0
 40
2.999999
100
AcDbArc
 50
270.0
 51
354.9994
  0
LINE
  5
2CA6
330
2C90
100
AcDbEntity
  8
V5
 62
     7
100
AcDbLine
 10
2.553069797996158
 20
9.656648677099951
 30
0.0
 11
1.042687797996109
 21
26.91814867710025
 31
0.0
  0
LINE
  5
2CA7
330
2C90
100
AcDbEntity
  8
V5
 62
     7
100
AcDbLine
 10
-2.967694202003713
 20
9.656648677099951
 30
0.0
 11
-1.45731220200389
 21
26.91814867710025
 31
0.0
  0
LINE
  5
2CA8
330
2C90
100
AcDbEntity
  8
V5
 62
     7
100
AcDbLine
 10
-30.20731420200366
 20
0.9181486771002482
 30
0.0
 11
-30.20731420200366
 21
6.918148677100248
 31
0.0
  0
LINE
  5
2CA9
330
2C90
100
AcDbEntity
  8
V5
 62
     7
100
AcDbLine
 10
-30.20731420200366
 20
6.918148677100248
 30
0.0
 11
-5.956271202003676
 21
6.918148677100248
 31
0.0
  0
LINE
  5
2CAA
330
2C90
100
AcDbEntity
  8
V5
 62
     7
100
AcDbLine
 10
-30.20731420200366
 20
0.9181486771002482
 30
0.0
 11
-0.2073042020036837
 21
0.9181486771002482
 31
0.0
  0
LINE
  5
2CAB
330
2C90
100
AcDbEntity
  8
V5
 62
     7
100
AcDbLine
 10
1.042687797996109
 20
69.91814867710002
 30
0.0
 11
1.042687797996109
 21
26.91814867710025
 31
0.0
  0
LINE
  5
2CAC
330
2C90
100
AcDbEntity
  8
V5
 62
     7
100
AcDbLine
 10
-1.45731220200389
 20
69.91814867710002
 30
0.0
 11
-1.45731220200389
 21
26.91814867710025
 31
0.0
  0
LINE
  5
2CAD
330
2C90
100
AcDbEntity
  8
V5
 62
     7
100
AcDbLine
 10
29.79268579799634
 20
6.918148677100248
 30
0.0
 11
5.541646797996122
 21
6.918148677100248
 31
0.0
  0
LINE
  5
2CAE
330
2C90
100
AcDbEntity
  8
V5
 62
     7
100
AcDbLine
 10
29.79268579799634
 20
0.9181486771002482
 30
0.0
 11
-0.2073042020036837
 21
0.9181486771002482
 31
0.0
  0
ENDBLK
  5
2CB0
330
2C90
100
AcDbEntity
  8
0
100
AcDbBlockEnd
  0
BLOCK
  5
2CD3
330
2CB1
100
AcDbEntity
  8
0
100
AcDbBlockBegin
  2
PA140 Quer
 70
     0
 10
0.0
 20
0.0
 30
0.0
  3
PA140 Quer
  1

  0
LINE
  5
2CB2
330
2CB1
100
AcDbEntity
  8
0
100
AcDbLine
 10
1.761882177942034
 20
146.0000000000004
 30
0.0
 11
2.0
 21
29.0
 31
0.0
  0
LINE
  5
2CB3
330
2CB1
100
AcDbEntity
  8
0
100
AcDbLine
 10
-1.761882177942048
 20
146.0000000000001
 30
0.0
 11
-2.0
 21
29.0
 31
0.0
  0
LINE
  5
2CB4
330
2CB1
100
AcDbEntity
  8
0
100
AcDbLine
 10
1.761882177942034
 20
146.0000000000004
 30
0.0
 11
25.4873318024891
 21
11.0
 31
0.0
  0
LINE
  5
2CB5
330
2CB1
100
AcDbEntity
  8
0
100
AcDbLine
 10
-1.761882177942048
 20
146.0000000000001
 30
0.0
 11
-25.48733180248819
 21
11.0
 31
0.0
  0
LINE
  5
2CB6
330
2CB1
100
AcDbEntity
  8
0
100
AcDbLine
 10
32.50000000000091
 20
10.5
 30
0.0
 11
32.50000000000091
 21
0.0
 31
0.0
  0
LINE
  5
2CB7
330
2CB1
100
AcDbEntity
  8
0
100
AcDbLine
 10
-32.5
 20
10.5
 30
0.0
 11
-32.5
 21
0.0
 31
0.0
  0
LINE
  5
2CB8
330
2CB1
100
AcDbEntity
  8
0
100
AcDbLine
 10
0.0
 20
0.0
 30
0.0
 11
-32.5
 21
0.0
 31
0.0
  0
LINE
  5
2CB9
330
2CB1
100
AcDbEntity
  8
0
100
AcDbLine
 10
0.0
 20
0.0
 30
0.0
 11
32.50000000000091
 21
0.0
 31
0.0
  0
LINE
  5
2CBA
330
2CB1
100
AcDbEntity
  8
0
100
AcDbLine
 10
-6.684068191505222
 20
10.99999999999997
 30
0.0
 11
-32.0
 21
11.0
 31
0.0
  0
ARC
  5
2CBB
330
2CB1
100
AcDbEntity
  8
0
100
AcDbCircle
 10
-32.0
 20
10.5
 30
0.0
 40
0.5
100
AcDbArc
 50
90.0
 51
180.0
  0
ARC
  5
2CBC
330
2CB1
100
AcDbEntity
  8
0
100
AcDbCircle
 10
-6.684068191505222
 20
12.99999999999997
 30
0.0
 40
2.0
100
AcDbArc
 50
270.0
 51
351.5866003291716
  0
LINE
  5
2CBD
330
2CB1
100
AcDbEntity
  8
0
100
AcDbLine
 10
-4.705591908087203
 20
12.70737123184409
 30
0.0
 11
-2.0
 21
29.0
 31
0.0
  0
LINE
  5
2CBE
330
2CB1
100
AcDbEntity
  8
0
100
AcDbLine
 10
6.684068191506096
 20
10.99999999999997
 30
0.0
 11
32.00000000000091
 21
11.0
 31
0.0
  0
ARC
  5
2CBF
330
2CB1
100
AcDbEntity
  8
0
100
AcDbCircle
 10
6.684068191506096
 20
12.99999999999997
 30
0.0
 40
2.0
100
AcDbArc
 50
188.4133996708317
 51
270.0
  0
LINE
  5
2CC0
330
2CB1
100
AcDbEntity
  8
0
100
AcDbLine
 10
4.705591908088091
 20
12.70737123184401
 30
0.0
 11
2.0
 21
29.0
 31
0.0
  0
ARC
  5
2CC1
330
2CB1
100
AcDbEntity
  8
0
100
AcDbCircle
 10
32.00000000000091
 20
10.5
 30
0.0
 40
0.5
100
AcDbArc
 50
0.0
 51
90.0
  0
LINE
  5
2CC2
330
2CB1
100
AcDbEntity
  8
0
100
AcDbLine
 10
1.749919344384228
 20
189.1996768554512
 30
0.0
 11
1.761882177942034
 21
146.0000000000004
 31
0.0
  0
LINE
  5
2CC3
330
2CB1
100
AcDbEntity
  8
0
100
AcDbLine
 10
-1.749919344384224
 20
189.1996768554512
 30
0.0
 11
-1.761882177942048
 21
146.0000000000001
 31
0.0
  0
ARC
  5
2CC4
330
2CB1
100
AcDbEntity
  8
0
100
AcDbCircle
 10
0.0
 20
198.0
 30
0.0
 40
3.0
100
AcDbArc
 50
0.0
 51
180.0
  0
ARC
  5
2CC5
330
2CB1
100
AcDbEntity
  8
0
100
AcDbCircle
 10
-2.549919279120221
 20
189.2
 30
0.0
 40
0.8
100
AcDbArc
 50
359.9768564758476
 51
90.0
  0
LINE
  5
2CC6
330
2CB1
100
AcDbEntity
  8
0
100
AcDbLine
 10
-3.0
 20
197.1484321246121
 30
0.0
 11
-3.0
 21
198.0
 31
0.0
  0
ARC
  5
2CC7
330
2CB1
100
AcDbEntity
  8
0
100
AcDbCircle
 10
-3.5
 20
197.1484321246121
 30
0.0
 40
0.5
100
AcDbArc
 50
322.9999999999953
 51
0.0000000000032569
  0
ARC
  5
2CC8
330
2CB1
100
AcDbEntity
  8
0
100
AcDbCircle
 10
-3.999999999999996
 20
192.330809360996
 30
0.0
 40
2.0
100
AcDbArc
 50
142.9999999999953
 51
180.0
  0
LINE
  5
2CC9
330
2CB1
100
AcDbEntity
  8
0
100
AcDbLine
 10
-6.0
 20
190.0
 30
0.0
 11
-5.999999999999996
 21
192.330809360996
 31
0.0
  0
LINE
  5
2CCA
330
2CB1
100
AcDbEntity
  8
0
100
AcDbLine
 10
-5.597271020094499
 20
193.5344394073002
 30
0.0
 11
-3.100682244976269
 21
196.847524613036
 31
0.0
  0
LINE
  5
2CCB
330
2CB1
100
AcDbEntity
  8
0
100
AcDbLine
 10
-2.549919279120221
 20
190.0
 30
0.0
 11
-6.0
 21
190.0
 31
0.0
  0
ARC
  5
2CCC
330
2CB1
100
AcDbEntity
  8
0
100
AcDbCircle
 10
3.5
 20
197.1484321246121
 30
0.0
 40
0.5
100
AcDbArc
 50
179.9999999999967
 51
217.0000000000047
  0
LINE
  5
2CCD
330
2CB1
100
AcDbEntity
  8
0
100
AcDbLine
 10
3.0
 20
197.1484321246121
 30
0.0
 11
3.0
 21
198.0
 31
0.0
  0
ARC
  5
2CCE
330
2CB1
100
AcDbEntity
  8
0
100
AcDbCircle
 10
4.0
 20
192.330809360996
 30
0.0
 40
2.0
100
AcDbArc
 50
0.0
 51
37.00000000000466
  0
LINE
  5
2CCF
330
2CB1
100
AcDbEntity
  8
0
100
AcDbLine
 10
6.0
 20
190.0
 30
0.0
 11
6.0
 21
192.330809360996
 31
0.0
  0
LINE
  5
2CD0
330
2CB1
100
AcDbEntity
  8
0
100
AcDbLine
 10
2.549919279120224
 20
190.0
 30
0.0
 11
6.0
 21
190.0
 31
0.0
  0
ARC
  5
2CD1
330
2CB1
100
AcDbEntity
  8
0
100
AcDbCircle
 10
2.549919279120224
 20
189.2
 30
0.0
 40
0.8
100
AcDbArc
 50
90.0
 51
180.0231435241524
  0
LINE
  5
2CD2
330
2CB1
100
AcDbEntity
  8
0
100
AcDbLine
 10
5.597271020094503
 20
193.5344394073003
 30
0.0
 11
3.100682244976269
 21
196.847524613036
 31
0.0
  0
ENDBLK
  5
2CD4
330
2CB1
100
AcDbEntity
  8
0
100
AcDbBlockEnd
  0
BLOCK
  5
2D14
330
2CD5
100
AcDbEntity
  8
0
 62
     6
 48
5.0
100
AcDbBlockBegin
  2
AluPers
 70
     0
 10
0.0
 20
0.0
 30
0.0
  3
AluPers
  1

  0
LINE
  5
2CD6
330
2CD5
100
AcDbEntity
  8
V35
100
AcDbLine
 10
-29.89554808916626
 20
25.04589002863531
 30
0.0
 11
-29.89554808916648
 21
95.39626789880129
 31
0.0
  0
LINE
  5
2CD7
330
2CD5
100
AcDbEntity
  8
V35
100
AcDbLine
 10
-33.18447226191722
 20
95.39626789881811
 30
0.0
 11
-33.18447226191722
 21
26.99863392913034
 31
0.0
  0
LINE
  5
2CD8
330
2CD5
100
AcDbEntity
  8
V35
100
AcDbLine
 10
31.38800736035182
 20
76.46889880355854
 30
0.0
 11
31.3880073603516
 21
146.8192766737187
 31
0.0
  0
LINE
  5
2CD9
330
2CD5
100
AcDbEntity
  8
V35
100
AcDbLine
 10
-29.89554808916626
 20
25.04589002863531
 30
0.0
 11
31.38800736035182
 21
76.46889880355854
 31
0.0
  0
LINE
  5
2CDA
330
2CD5
100
AcDbEntity
  8
V35
100
AcDbLine
 10
-27.92160851914321
 20
22.22681216627757
 30
0.0
 11
33.36194693037487
 21
73.64982094120074
 31
0.0
  0
LINE
  5
2CDB
330
2CD5
100
AcDbEntity
  8
V35
100
AcDbLine
 10
-0.9999999999998863
 20
12.42814800674205
 30
0.0
 11
60.28355544951842
 21
63.85115678166505
 31
0.0
  0
LINE
  5
2CDC
330
2CD5
100
AcDbEntity
  8
V35
100
AcDbLine
 10
-0.1464739196949267
 20
9.690403305361883
 30
0.0
 11
65.61652019934718
 21
64.87210741576387
 31
0.0
  0
LINE
  5
2CDD
330
2CD5
100
AcDbEntity
  8
V35
100
AcDbLine
 10
0.0
 20
-0.0000000000000568
 30
0.0
 11
65.61652019934718
 21
55.05879789840879
 31
0.0
  0
LINE
  5
2CDE
330
2CD5
100
AcDbEntity
  8
V35
100
AcDbLine
 10
-27.92160851914321
 20
22.22681216627757
 30
0.0
 11
-0.9999999999998863
 21
12.42814800674205
 31
0.0
  0
LINE
  5
2CDF
330
2CD5
100
AcDbEntity
  8
V35
100
AcDbLine
 10
-67.11484273953193
 20
34.06489619314334
 30
0.0
 11
-0.1464739196949267
 21
9.690403305361883
 31
0.0
  0
LINE
  5
2CE0
330
2CD5
100
AcDbEntity
  8
V35
100
AcDbLine
 10
-67.11484273953203
 20
24.42780503464684
 30
0.0
 11
0.0
 21
0.0
 31
0.0
  0
LINE
  5
2CE1
330
2CD5
100
AcDbEntity
  8
V35
100
AcDbLine
 10
-62.08002035108382
 20
34.65945732291044
 30
0.0
 11
-35.86851254856856
 21
25.11924868755853
 31
0.0
  0
LINE
  5
2CE2
330
2CD5
100
AcDbEntity
  8
V35
100
AcDbLine
 10
-67.11484273953193
 20
34.06489619314334
 30
0.0
 11
-67.11484273953203
 21
24.42780503464684
 31
0.0
  0
LINE
  5
2CE3
330
2CD5
100
AcDbEntity
  8
V35
100
AcDbLine
 10
-35.86851254856856
 20
25.11924868755853
 30
0.0
 11
-27.92160851914321
 21
22.22681216627757
 31
0.0
  0
ARC
  5
2CE4
330
2CD5
100
AcDbEntity
  8
V35
100
AcDbCircle
 10
-35.18447226191722
 20
26.99863392913034
 30
0.0
 40
2.0
100
AcDbArc
 50
250.0000000000035
 51
0.0
  0
ARC
  5
2CE5
330
2CD5
100
AcDbEntity
  8
V35
100
AcDbCircle
 10
-26.89554808916625
 20
25.04589002863531
 30
0.0
 40
3.0
100
AcDbArc
 50
180.0
 51
250.0000000000035
  0
LINE
  5
2CE6
330
2CD5
100
AcDbEntity
  8
V35
100
AcDbLine
 10
-62.08002035108382
 20
34.65945732291044
 30
0.0
 11
-34.20199861847334
 21
58.05189507669609
 31
0.0
  0
LINE
  5
2CE7
330
2CD5
100
AcDbEntity
  8
V35
100
AcDbLine
 10
-67.11484273953193
 20
34.06489619314334
 30
0.0
 11
-33.18447226191734
 21
62.53585754661816
 31
0.0
  0
ARC
  5
2CE8
330
2CD5
100
AcDbEntity
  8
V35
100
AcDbCircle
 10
-43.66265221110109
 20
34.94144441771295
 30
0.0
 40
5.587272100864986
100
AcDbArc
 50
66.91493608821812
 51
133.0850639117745
  0
ARC
  5
2CE9
330
2CD5
100
AcDbEntity
  8
V35
100
AcDbCircle
 10
-44.62229184647583
 20
40.38383123519821
 30
0.0
 40
5.32650415555179
100
AcDbArc
 50
245.0676949625394
 51
314.9323050374571
  0
ARC
  5
2CEA
330
2CD5
100
AcDbEntity
  8
V35
100
AcDbCircle
 10
-46.40075828556939
 20
37.42413426265926
 30
0.0
 40
1.927807214538352
100
AcDbArc
 50
124.0161584341247
 51
255.9838415658691
  0
ARC
  5
2CEB
330
2CD5
100
AcDbEntity
  8
V35
100
AcDbCircle
 10
-41.89968360636669
 20
38.21779517078648
 30
0.0
 40
1.911984123920333
100
AcDbArc
 50
302.9287501961396
 51
77.07124980385343
  0
LINE
  5
2CEC
330
2CD5
100
AcDbEntity
  8
V35
100
AcDbLine
 10
0.0000000000001137
 20
9.637091158496616
 30
0.0
 11
0.0
 21
0.0
 31
0.0
  0
ARC
  5
2CED
330
2CD5
100
AcDbEntity
  8
V35
100
AcDbCircle
 10
-3.275816531895884
 20
25.33494492886877
 30
0.0
 40
5.32650415555179
100
AcDbArc
 50
245.0676949625394
 51
314.9323050374571
  0
ARC
  5
2CEE
330
2CD5
100
AcDbEntity
  8
V35
100
AcDbCircle
 10
-2.316176896521142
 20
19.89255811138349
 30
0.0
 40
5.587272100864986
100
AcDbArc
 50
66.91493608821812
 51
133.0850639117745
  0
ARC
  5
2CEF
330
2CD5
100
AcDbEntity
  8
V35
100
AcDbCircle
 10
-5.054282970989447
 20
22.37524795632993
 30
0.0
 40
1.927807214538352
100
AcDbArc
 50
124.0161584341247
 51
255.9838415658691
  0
ARC
  5
2CF0
330
2CD5
100
AcDbEntity
  8
V35
100
AcDbCircle
 10
-0.5532082917867456
 20
23.16890886445702
 30
0.0
 40
1.911984123920333
100
AcDbArc
 50
302.9287501961396
 51
77.07124980385343
  0
ARC
  5
2CF1
330
2CD5
100
AcDbEntity
  8
V35
100
AcDbCircle
 10
14.14091640935157
 20
46.74176639261526
 30
0.0
 40
6.391804986662148
100
AcDbArc
 50
245.0676949625394
 51
314.9323050374571
  0
ARC
  5
2CF2
330
2CD5
100
AcDbEntity
  8
V35
100
AcDbCircle
 10
15.29248397180129
 20
40.21090221163291
 30
0.0
 40
6.704726521037983
100
AcDbArc
 50
66.91493608821812
 51
133.0850639117745
  0
ARC
  5
2CF3
330
2CD5
100
AcDbEntity
  8
V35
100
AcDbCircle
 10
12.00675668243934
 20
43.19013002556864
 30
0.0
 40
2.313368657446023
100
AcDbArc
 50
124.0161584341247
 51
255.9838415658691
  0
ARC
  5
2CF4
330
2CD5
100
AcDbEntity
  8
V35
100
AcDbCircle
 10
17.40804629748254
 20
44.14252311532112
 30
0.0
 40
2.294380948704399
100
AcDbArc
 50
302.9287501961396
 51
77.07124980385343
  0
LINE
  5
2CF5
330
2CD5
100
AcDbEntity
  8
V35
100
AcDbLine
 10
33.36194693037487
 20
73.64982094120074
 30
0.0
 11
60.28355544951842
 21
63.85115678166505
 31
0.0
  0
LINE
  5
2CF6
330
2CD5
100
AcDbEntity
  8
V35
100
AcDbLine
 10
32.46440736352543
 20
76.93848969103743
 30
0.0
 11
65.61652019934718
 21
64.87210741576387
 31
0.0
  0
ARC
  5
2CF7
330
2CD5
100
AcDbEntity
  8
V35
100
AcDbCircle
 10
40.14233917303033
 20
60.29971692783573
 30
0.0
 40
1.927807214538352
100
AcDbArc
 50
124.0161584341247
 51
255.9838415658691
  0
ARC
  5
2CF8
330
2CD5
100
AcDbEntity
  8
V35
100
AcDbCircle
 10
41.9208056121239
 20
63.25941390037456
 30
0.0
 40
5.32650415555179
100
AcDbArc
 50
245.0676949625394
 51
314.9323050374571
  0
ARC
  5
2CF9
330
2CD5
100
AcDbEntity
  8
V35
100
AcDbCircle
 10
42.88044524749864
 20
57.81702708288929
 30
0.0
 40
5.587272100864986
100
AcDbArc
 50
66.91493608821812
 51
133.0850639117745
  0
ARC
  5
2CFA
330
2CD5
100
AcDbEntity
  8
V35
100
AcDbCircle
 10
34.38800736035182
 20
76.46889880355849
 30
0.0
 40
3.0
100
AcDbArc
 50
180.0
 51
250.0000000000035
  0
ARC
  5
2CFB
330
2CD5
100
AcDbEntity
  8
V35
100
AcDbCircle
 10
44.64341385223304
 20
61.09337783596282
 30
0.0
 40
1.911984123920333
100
AcDbArc
 50
302.9287501961396
 51
77.07124980385343
  0
LINE
  5
2CFC
330
2CD5
100
AcDbEntity
  8
V35
100
AcDbLine
 10
65.61652019934718
 20
64.87210741576382
 30
0.0
 11
65.61652019934718
 21
55.05879789840879
 31
0.0
  0
ARC
  5
2CFD
330
2CD5
100
AcDbEntity
  8
V35
100
AcDbCircle
 10
29.57621969208992
 20
230.2859305362722
 30
0.0
 40
2.661261520716134
100
AcDbArc
 50
86.39517671061895
 51
130.0000000000047
  0
LINE
  5
2CFE
330
2CD5
100
AcDbEntity
  8
V35
100
AcDbLine
 10
35.38170099869183
 20
222.8898057288926
 30
0.0
 11
-25.90185445082636
 21
171.4667969539694
 31
0.0
  0
LINE
  5
2CFF
330
2CD5
100
AcDbEntity
  8
V35
100
AcDbLine
 10
-25.90185445082636
 20
168.4667969539694
 30
0.0
 11
35.38170099869183
 21
219.8898057288925
 31
0.0
  0
LINE
  5
2D00
330
2CD5
100
AcDbEntity
  8
V35
100
AcDbLine
 10
-28.72093231318411
 20
176.5860282948338
 30
0.0
 11
32.56262313633409
 21
228.0090370697569
 31
0.0
  0
LINE
  5
2D01
330
2CD5
100
AcDbEntity
  8
V35
100
AcDbLine
 10
-33.41796168908024
 20
180.9015663609801
 30
0.0
 11
27.86559376043795
 21
232.3245751359032
 31
0.0
  0
LINE
  5
2D02
330
2CD5
100
AcDbEntity
  8
V35
100
AcDbLine
 10
-30.22331497154198
 20
120.596676658276
 30
0.0
 11
-30.22331497154198
 21
170.0396799520664
 31
0.0
  0
LINE
  5
2D03
330
2CD5
100
AcDbEntity
  8
V35
100
AcDbLine
 10
-32.85670537954172
 20
120.596676658276
 30
0.0
 11
-32.85670537954184
 21
170.9981556757805
 31
0.0
  0
LINE
  5
2D04
330
2CD5
100
AcDbEntity
  8
V35
100
AcDbLine
 10
-29.89554808916648
 20
95.39626789880129
 30
0.0
 11
-30.22331497154198
 21
120.596676658276
 31
0.0
  0
LINE
  5
2D05
330
2CD5
100
AcDbEntity
  8
V35
100
AcDbLine
 10
-33.18447226191722
 20
95.39626789881811
 30
0.0
 11
-32.85670537954172
 21
120.596676658276
 31
0.0
  0
LINE
  5
2D06
330
2CD5
100
AcDbEntity
  8
V35
100
AcDbLine
 10
-37.17816590025734
 20
172.5710386738774
 30
0.0
 11
-37.17816590025734
 21
175.5710386738774
 31
0.0
  0
LINE
  5
2D07
330
2CD5
100
AcDbEntity
  8
V35
100
AcDbLine
 10
-28.72093231318411
 20
176.5860282948338
 30
0.0
 11
-25.90185445082636
 21
171.4667969539694
 31
0.0
  0
LINE
  5
2D08
330
2CD5
100
AcDbEntity
  8
V35
100
AcDbLine
 10
-37.17816590025734
 20
172.5710386738774
 30
0.0
 11
-32.85670537954184
 21
170.9981556757805
 31
0.0
  0
LINE
  5
2D09
330
2CD5
100
AcDbEntity
  8
V35
100
AcDbLine
 10
-30.22331497154198
 20
170.0396799520664
 30
0.0
 11
-25.90185445082636
 21
168.4667969539694
 31
0.0
  0
LINE
  5
2D0A
330
2CD5
100
AcDbEntity
  8
V35
100
AcDbLine
 10
-25.90185445082636
 20
168.4667969539694
 30
0.0
 11
-25.90185445082636
 21
171.4667969539694
 31
0.0
  0
ARC
  5
2D0B
330
2CD5
100
AcDbEntity
  8
V35
100
AcDbCircle
 10
-31.7073357574285
 20
178.8629217613491
 30
0.0
 40
2.661261520716134
100
AcDbArc
 50
86.39517671061895
 51
184.8450266065807
  0
LINE
  5
2D0C
330
2CD5
100
AcDbEntity
  8
V35
100
AcDbLine
 10
-37.17816590025734
 20
175.5710386738774
 30
0.0
 11
-34.3590880378996
 21
178.6381491547877
 31
0.0
  0
ARC
  5
2D0D
330
2CD5
100
AcDbEntity
  8
V35
100
AcDbCircle
 10
-31.54001017554276
 20
181.5189178139233
 30
0.0
 40
0.0000000000008962
100
AcDbArc
 50
3.632950739488309
 51
14.70830632344464
  0
ARC
  5
2D0E
330
2CD5
100
AcDbEntity
  8
V35
100
AcDbCircle
 10
-32.79909271064673
 20
177.527392942712
 30
0.0
 40
4.185398383392873
100
AcDbArc
 50
347.0020390188705
 51
72.49269423793923
  0
LINE
  5
2D0F
330
2CD5
100
AcDbEntity
  8
V35
100
AcDbLine
 10
31.06024047797609
 20
172.0196854331993
 30
0.0
 11
31.06024047797609
 21
216.2636697998127
 31
0.0
  0
LINE
  5
2D10
330
2CD5
100
AcDbEntity
  8
V35
100
AcDbLine
 10
31.3880073603516
 20
146.8192766737187
 30
0.0
 11
31.06024047797609
 21
172.0196854331993
 31
0.0
  0
LINE
  5
2D11
330
2CD5
100
AcDbEntity
  8
V35
100
AcDbLine
 10
32.56262313633409
 20
228.009037069757
 30
0.0
 11
35.38170099869183
 21
222.8898057288926
 31
0.0
  0
LINE
  5
2D12
330
2CD5
100
AcDbEntity
  8
V35
100
AcDbLine
 10
35.38170099869183
 20
219.8898057288925
 30
0.0
 11
35.38170099869183
 21
222.8898057288926
 31
0.0
  0
ARC
  5
2D13
330
2CD5
100
AcDbEntity
  8
V35
100
AcDbCircle
 10
28.48446273887146
 20
228.9504017176351
 30
0.0
 40
4.185398383392873
100
AcDbArc
 50
347.0020390188705
 51
72.49269423793923
  0
ENDBLK
  5
2D15
330
2CD5
100
AcDbEntity
  8
0
 62
     6
 48
5.0
100
AcDbBlockEnd
  0
BLOCK
  5
2D2D
330
2D16
100
AcDbEntity
  8
0
 62
     6
 48
5.0
100
AcDbBlockBegin
  2
E140s
 70
     0
 10
0.0
 20
0.0
 30
0.0
  3
E140s
  1

  0
LINE
  5
2D17
330
2D16
100
AcDbEntity
  8
0
 62
     3
100
AcDbLine
 10
9.0
 20
11.0
 30
0.0
 11
9.0
 21
141.8479032521526
 31
0.0
  0
LINE
  5
2D18
330
2D16
100
AcDbEntity
  8
0
 62
     3
100
AcDbLine
 10
12.0
 20
11.0
 30
0.0
 11
12.0
 21
141.8479032521526
 31
0.0
  0
LINE
  5
2D19
330
2D16
100
AcDbEntity
  8
0
 62
     3
100
AcDbLine
 10
-12.0
 20
11.0
 30
0.0
 11
-12.0
 21
141.8479032521526
 31
0.0
  0
LINE
  5
2D1A
330
2D16
100
AcDbEntity
  8
0
 62
     3
100
AcDbLine
 10
-9.0
 20
11.0
 30
0.0
 11
-9.0
 21
141.8479032521526
 31
0.0
  0
LINE
  5
2D1B
330
2D16
100
AcDbEntity
  8
0
 62
     3
100
AcDbLine
 10
-40.0
 20
0.0
 30
0.0
 11
-40.0
 21
141.8479032521526
 31
0.0
  0
LINE
  5
2D1C
330
2D16
100
AcDbEntity
  8
0
 62
     3
100
AcDbLine
 10
40.0
 20
0.0
 30
0.0
 11
40.00000000000002
 21
141.8479032521526
 31
0.0
  0
LINE
  5
2D1D
330
2D16
100
AcDbEntity
  8
0
 62
     4
100
AcDbLine
 10
29.49999654473504
 20
18.7027298060523
 30
0.0
 11
29.49999654473504
 21
-27.55512269151402
 31
0.0
  0
LINE
  5
2D1E
330
2D16
100
AcDbEntity
  8
0
 62
     4
100
AcDbLine
 10
-29.50000345526496
 20
18.7027298060523
 30
0.0
 11
-29.50000345526495
 21
-27.55512269151402
 31
0.0
  0
LINE
  5
2D1F
330
2D16
100
AcDbEntity
  8
0
 62
     3
100
AcDbLine
 10
-40.0
 20
0.0
 30
0.0
 11
40.0
 21
0.0
 31
0.0
  0
LINE
  5
2D20
330
2D16
100
AcDbEntity
  8
0
 62
     3
100
AcDbLine
 10
-40.0
 20
11.0
 30
0.0
 11
40.0
 21
11.0
 31
0.0
  0
LINE
  5
2D21
330
2D16
100
AcDbEntity
  8
0
 62
     3
100
AcDbLine
 10
-9.0
 20
29.00000000000003
 30
0.0
 11
9.0
 21
29.00000000000003
 31
0.0
  0
LINE
  5
2D22
330
2D16
100
AcDbEntity
  8
0
 62
     3
100
AcDbLine
 10
-40.0
 20
29.0
 30
0.0
 11
-12.0
 21
29.0
 31
0.0
  0
LINE
  5
2D23
330
2D16
100
AcDbEntity
  8
0
 62
     3
100
AcDbLine
 10
12.0
 20
29.0
 30
0.0
 11
40.0
 21
29.0
 31
0.0
  0
LINE
  5
2D24
330
2D16
100
AcDbEntity
  8
0
  6
VERDECKT
 62
     6
100
AcDbLine
 10
-40.0
 20
146.0000000000004
 30
0.0
 11
40.0
 21
146.0000000000009
 31
0.0
  0
LINE
  5
2D25
330
2D16
100
AcDbEntity
  8
0
  6
VERDECKT
 62
     6
100
AcDbLine
 10
-40.0
 20
190.0
 30
0.0
 11
40.0
 21
190.0
 31
0.0
  0
LINE
  5
2D26
330
2D16
100
AcDbEntity
  8
0
  6
VERDECKT
 62
     6
100
AcDbLine
 10
-39.99999999999999
 20
201.0
 30
0.0
 11
40.00000000000002
 21
201.0
 31
0.0
  0
LINE
  5
2D27
330
2D16
100
AcDbEntity
  8
0
  6
VERDECKT
 62
     6
100
AcDbLine
 10
-40.0
 20
141.8479032521527
 30
0.0
 11
-39.99999999999999
 21
201.0
 31
0.0
  0
LINE
  5
2D28
330
2D16
100
AcDbEntity
  8
0
  6
VERDECKT
 62
     6
100
AcDbLine
 10
-12.0
 20
141.8479032521527
 30
0.0
 11
-12.0
 21
146.0000000000004
 31
0.0
  0
LINE
  5
2D29
330
2D16
100
AcDbEntity
  8
0
  6
VERDECKT
 62
     6
100
AcDbLine
 10
-9.0
 20
141.8479032521527
 30
0.0
 11
-9.0
 21
146.0000000000004
 31
0.0
  0
LINE
  5
2D2A
330
2D16
100
AcDbEntity
  8
0
  6
VERDECKT
 62
     6
100
AcDbLine
 10
40.00000000000002
 20
141.8479032521527
 30
0.0
 11
40.00000000000002
 21
201.0
 31
0.0
  0
LINE
  5
2D2B
330
2D16
100
AcDbEntity
  8
0
  6
VERDECKT
 62
     6
100
AcDbLine
 10
12.0
 20
141.8479032521527
 30
0.0
 11
12.0
 21
146.0000000000004
 31
0.0
  0
LINE
  5
2D2C
330
2D16
100
AcDbEntity
  8
0
  6
VERDECKT
 62
     6
100
AcDbLine
 10
9.0
 20
141.8479032521527
 30
0.0
 11
9.0
 21
146.0000000000004
 31
0.0
  0
ENDBLK
  5
2D2E
330
2D16
100
AcDbEntity
  8
0
 62
     6
 48
5.0
100
AcDbBlockEnd
  0
BLOCK
  5
2D52
330
2D2F
100
AcDbEntity
  8
0
 62
     6
 48
10.0
100
AcDbBlockBegin
  2
e140
 70
     0
 10
0.0
 20
0.0
 30
0.0
  3
e140
  1

  0
LINE
  5
2D30
330
2D2F
100
AcDbEntity
  8
0
 62
     3
100
AcDbLine
 10
1.761882177941579
 20
146.0000000000004
 30
0.0
 11
25.48733180248865
 21
11.0
 31
0.0
  0
LINE
  5
2D31
330
2D2F
100
AcDbEntity
  8
0
 62
     3
100
AcDbLine
 10
-1.761882177942503
 20
146.0000000000001
 30
0.0
 11
-25.48733180248864
 21
11.0
 31
0.0
  0
LINE
  5
2D32
330
2D2F
100
AcDbEntity
  8
0
 62
     3
100
AcDbLine
 10
-4.705591908087658
 20
12.70737123184409
 30
0.0
 11
-2.000000000000454
 21
29.0
 31
0.0
  0
LINE
  5
2D33
330
2D2F
100
AcDbEntity
  8
0
 62
     3
100
AcDbLine
 10
4.705591908087637
 20
12.70737123184401
 30
0.0
 11
1.999999999999545
 21
29.0
 31
0.0
  0
LINE
  5
2D34
330
2D2F
100
AcDbEntity
  8
0
 62
     4
100
AcDbLine
 10
-21.99999999999864
 20
18.45272980605568
 30
0.0
 11
-21.99999999999973
 21
-19.91791965098093
 31
0.0
  0
LINE
  5
2D35
330
2D2F
100
AcDbEntity
  8
0
 62
     4
100
AcDbLine
 10
21.99999999999954
 20
18.45272980605341
 30
0.0
 11
21.99999999999954
 21
-19.91791965098093
 31
0.0
  0
LINE
  5
2D36
330
2D2F
100
AcDbEntity
  8
0
 62
     3
100
AcDbLine
 10
-32.50000000000046
 20
0.0
 30
0.0
 11
32.50000000000046
 21
0.0
 31
0.0
  0
LINE
  5
2D37
330
2D2F
100
AcDbEntity
  8
0
 62
     3
100
AcDbLine
 10
-6.684068191505676
 20
10.99999999999997
 30
0.0
 11
-32.00000000000045
 21
11.0
 31
0.0
  0
LINE
  5
2D38
330
2D2F
100
AcDbEntity
  8
0
 62
     3
100
AcDbLine
 10
-32.50000000000046
 20
10.5
 30
0.0
 11
-32.50000000000046
 21
0.0
 31
0.0
  0
ARC
  5
2D39
330
2D2F
100
AcDbEntity
  8
0
 62
     3
100
AcDbCircle
 10
-32.00000000000045
 20
10.5
 30
0.0
 40
0.5
100
AcDbArc
 50
90.0
 51
180.0
  0
LINE
  5
2D3A
330
2D2F
100
AcDbEntity
  8
0
 62
     3
100
AcDbLine
 10
6.684068191505641
 20
10.99999999999997
 30
0.0
 11
32.00000000000045
 21
11.0
 31
0.0
  0
ARC
  5
2D3B
330
2D2F
100
AcDbEntity
  8
0
 62
     3
100
AcDbCircle
 10
-6.684068191505676
 20
12.99999999999997
 30
0.0
 40
2.0
100
AcDbArc
 50
270.0
 51
351.5866003291716
  0
ARC
  5
2D3C
330
2D2F
100
AcDbEntity
  8
0
 62
     3
100
AcDbCircle
 10
6.684068191505641
 20
12.99999999999997
 30
0.0
 40
2.0
100
AcDbArc
 50
188.4133996708317
 51
270.0
  0
LINE
  5
2D3D
330
2D2F
100
AcDbEntity
  8
0
 62
     3
100
AcDbLine
 10
32.50000000000046
 20
10.5
 30
0.0
 11
32.50000000000046
 21
0.0
 31
0.0
  0
ARC
  5
2D3E
330
2D2F
100
AcDbEntity
  8
0
 62
     3
100
AcDbCircle
 10
32.00000000000045
 20
10.5
 30
0.0
 40
0.5
100
AcDbArc
 50
0.0
 51
90.0
  0
LINE
  5
2D3F
330
2D2F
100
AcDbEntity
  8
0
 62
     3
100
AcDbLine
 10
1.761882177941579
 20
146.0000000000004
 30
0.0
 11
1.999999999999545
 21
29.0
 31
0.0
  0
LINE
  5
2D40
330
2D2F
100
AcDbEntity
  8
0
 62
     3
100
AcDbLine
 10
-1.761882177942503
 20
146.0000000000001
 30
0.0
 11
-2.000000000000454
 21
29.0
 31
0.0
  0
ARC
  5
2D41
330
2D2F
100
AcDbEntity
  8
0
 62
     3
100
AcDbCircle
 10
-2.549919279120675
 20
189.2
 30
0.0
 40
0.8
100
AcDbArc
 50
359.9768564758476
 51
90.0
  0
ARC
  5
2D42
330
2D2F
100
AcDbEntity
  8
0
 62
     3
100
AcDbCircle
 10
2.54991927911977
 20
189.2
 30
0.0
 40
0.8
100
AcDbArc
 50
90.0
 51
180.0231435241524
  0
LINE
  5
2D43
330
2D2F
100
AcDbEntity
  8
0
 62
     3
100
AcDbLine
 10
1.749919344383773
 20
189.1996768554512
 30
0.0
 11
1.761882177941579
 21
146.0000000000004
 31
0.0
  0
LINE
  5
2D44
330
2D2F
100
AcDbEntity
  8
0
 62
     3
100
AcDbLine
 10
-1.749919344384679
 20
189.1996768554512
 30
0.0
 11
-1.761882177942503
 21
146.0000000000001
 31
0.0
  0
ARC
  5
2D45
330
2D2F
100
AcDbEntity
  8
0
 62
     3
100
AcDbCircle
 10
-0.0000000000004547
 20
198.0
 30
0.0
 40
3.0
100
AcDbArc
 50
0.0
 51
180.0
  0
LINE
  5
2D46
330
2D2F
100
AcDbEntity
  8
0
 62
     3
100
AcDbLine
 10
-2.549919279120675
 20
190.0
 30
0.0
 11
-6.000000000000454
 21
190.0
 31
0.0
  0
LINE
  5
2D47
330
2D2F
100
AcDbEntity
  8
0
 62
     3
100
AcDbLine
 10
-5.597271020094954
 20
193.5344394073002
 30
0.0
 11
-3.100682244976724
 21
196.847524613036
 31
0.0
  0
ARC
  5
2D48
330
2D2F
100
AcDbEntity
  8
0
 62
     3
100
AcDbCircle
 10
-4.000000000000451
 20
192.330809360996
 30
0.0
 40
2.0
100
AcDbArc
 50
142.9999999999953
 51
180.0
  0
LINE
  5
2D49
330
2D2F
100
AcDbEntity
  8
0
 62
     3
100
AcDbLine
 10
-6.000000000000454
 20
190.0
 30
0.0
 11
-6.000000000000451
 21
192.330809360996
 31
0.0
  0
LINE
  5
2D4A
330
2D2F
100
AcDbEntity
  8
0
 62
     3
100
AcDbLine
 10
-3.000000000000454
 20
197.1484321246121
 30
0.0
 11
-3.000000000000454
 21
198.0
 31
0.0
  0
ARC
  5
2D4B
330
2D2F
100
AcDbEntity
  8
0
 62
     3
100
AcDbCircle
 10
-3.500000000000454
 20
197.1484321246121
 30
0.0
 40
0.5
100
AcDbArc
 50
322.9999999999953
 51
0.0000000000032569
  0
ARC
  5
2D4C
330
2D2F
100
AcDbEntity
  8
0
 62
     3
100
AcDbCircle
 10
3.999999999999545
 20
192.330809360996
 30
0.0
 40
2.0
100
AcDbArc
 50
0.0
 51
37.00000000000466
  0
LINE
  5
2D4D
330
2D2F
100
AcDbEntity
  8
0
 62
     3
100
AcDbLine
 10
2.54991927911977
 20
190.0
 30
0.0
 11
5.999999999999545
 21
190.0
 31
0.0
  0
LINE
  5
2D4E
330
2D2F
100
AcDbEntity
  8
0
 62
     3
100
AcDbLine
 10
5.597271020094048
 20
193.5344394073003
 30
0.0
 11
3.100682244975814
 21
196.847524613036
 31
0.0
  0
ARC
  5
2D4F
330
2D2F
100
AcDbEntity
  8
0
 62
     3
100
AcDbCircle
 10
3.499999999999545
 20
197.1484321246121
 30
0.0
 40
0.5
100
AcDbArc
 50
179.9999999999967
 51
217.0000000000047
  0
LINE
  5
2D50
330
2D2F
100
AcDbEntity
  8
0
 62
     3
100
AcDbLine
 10
2.999999999999545
 20
197.1484321246121
 30
0.0
 11
2.999999999999545
 21
198.0
 31
0.0
  0
LINE
  5
2D51
330
2D2F
100
AcDbEntity
  8
0
 62
     3
100
AcDbLine
 10
5.999999999999545
 20
190.0
 30
0.0
 11
5.999999999999545
 21
192.330809360996
 31
0.0
  0
ENDBLK
  5
2D53
330
2D2F
100
AcDbEntity
  8
0
 62
     6
 48
10.0
100
AcDbBlockEnd
  0
BLOCK
  5
47F1
330
47EE
100
AcDbEntity
  8
0
 48
5.0
100
AcDbBlockBegin
  2
A$C2A982580
 70
     0
 10
0.0
 20
0.0
 30
0.0
  3
A$C2A982580
  1

  0
MTEXT
  5
47EF
102
{ACAD_XDICTIONARY
360
4904
102
}
330
47EE
100
AcDbEntity
  8
TXT-D
100
AcDbMText
 10
2.018523547789167
 20
-2.342959022199124
 30
0.0
 40
2.8
 41
106.1716
 71
     1
 72
     5
  1
{\C7;* Poplastovan\U+00E9 klipsy nejsou vyr\U+00E1b\U+011Bny ve v\U+0161ech rozm\U+011Brech}
  7
ROMANS
 73
     1
 44
1.0
  0
ENDBLK
  5
47F2
330
47EE
100
AcDbEntity
  8
0
 48
5.0
100
AcDbBlockEnd
  0
ENDSEC
  0
SECTION
  2
ENTITIES
  0
LINE
  5
144E
330
18
100
AcDbEntity
  8
V5
100
AcDbLine
 10
103.4856115598993
 20
907.5541497709156
 30
0.0
 11
507.1256660807221
 21
942.8680786864736
 31
0.0
  0
LINE
  5
144F
330
18
100
AcDbEntity
  8
V5
100
AcDbLine
 10
103.4856115598993
 20
887.4777530200487
 30
0.0
 11
508.8687809356752
 21
922.9441847246388
 31
0.0
  0
LINE
  5
1450
330
18
100
AcDbEntity
  8
V5
100
AcDbLine
 10
661.2942047218685
 20
956.3560780899322
 30
0.0
 11
663.9867436052274
 21
926.5705743788057
 31
0.0
  0
LINE
  5
1451
330
18
100
AcDbEntity
  8
V5
100
AcDbLine
 10
103.4856115598993
 20
848.3287793558584
 30
0.0
 11
512.2678549028339
 21
884.0925914990604
 31
0.0
  0
LINE
  5
1458
330
18
100
AcDbEntity
  8
V5
100
AcDbLine
 10
519.0533558720992
 20
884.6862459102151
 30
0.0
 11
540.4609161166231
 21
886.5591647453596
 31
0.0
  0
LINE
  5
1459
330
18
100
AcDbEntity
  8
V5
100
AcDbLine
 10
515.6542819049405
 20
923.5378391357933
 30
0.0
 11
536.9575989014711
 21
925.4016378684889
 31
0.0
  0
LINE
  5
145A
330
18
100
AcDbEntity
  8
V5
100
AcDbLine
 10
535.214484046518
 20
945.3255318303238
 30
0.0
 11
513.9111670499874
 21
943.4617330976282
 31
0.0
  0
LINE
  5
145C
330
18
100
AcDbEntity
  8
V5
100
AcDbLine
 10
540.1063568383137
 20
945.7535152430166
 30
0.0
 11
661.2942047218685
 21
956.3560780899322
 31
0.0
  0
LINE
  5
145D
330
18
100
AcDbEntity
  8
V5
100
AcDbLine
 10
570.2538943553077
 20
928.3146862581094
 30
0.0
 11
663.0373195768215
 21
936.4321841280974
 31
0.0
  0
LINE
  5
145E
330
18
100
AcDbEntity
  8
V5
100
AcDbLine
 10
573.495165974344
 20
889.4492871159929
 30
0.0
 11
624.6026889375941
 21
894.9109725489588
 31
0.0
  0
LINE
  5
1462
330
18
100
AcDbEntity
  8
SV35
 48
3.0
100
AcDbLine
 10
334.4194937636603
 20
912.4968450327889
 30
0.0
 11
392.1954279022574
 21
917.5515842945371
 31
0.0
  0
LINE
  5
1463
330
18
100
AcDbEntity
  8
SV35
 48
3.0
100
AcDbLine
 10
333.460780593436
 20
923.4549867117982
 30
0.0
 11
391.2367147320331
 21
928.5097259735463
 31
0.0
  0
LINE
  5
1466
330
18
100
AcDbEntity
  8
SV35
 48
3.0
100
AcDbLine
 10
338.7595597666071
 20
862.8896636216703
 30
0.0
 11
333.460780593436
 21
923.4549867117982
 31
0.0
  0
LINE
  5
1467
330
18
100
AcDbEntity
  8
SV35
 48
3.0
100
AcDbLine
 10
396.4734754605547
 20
868.6532769494975
 30
0.0
 11
391.1746962873836
 21
929.2186000396263
 31
0.0
  0
LWPOLYLINE
  5
1473
330
18
100
AcDbEntity
  8
V5
100
AcDbPolyline
 90
       28
 70
     0
 43
2.2
 10
548.610261483669
 20
659.9278955749658
 10
546.3254301733472
 20
650.7537728034214
 10
529.4650939582224
 20
649.2786845213624
 10
512.6047577430973
 20
647.8035962393033
 10
501.8576758307268
 20
671.9588443445701
 10
493.12493683616
 20
679.2864824140784
 10
471.2270535263335
 20
728.5043825512489
 10
462.4943145317667
 20
735.8320206207572
 10
455.2124626227641
 20
752.1987833347647
 10
390.3245006664095
 20
746.5218222642822
 10
383.6301772898353
 20
738.5438383302625
 10
375.6521933558156
 20
745.2381617068367
 10
310.764231399461
 20
739.5612006363543
 10
306.435065702783
 20
722.1786055098498
 10
299.1074276332745
 20
713.445866515283
 10
286.0888210426132
 20
661.1731693417026
 10
278.7611829731047
 20
652.4404303471359
 10
272.3718881981172
 20
626.7859435478153
 10
255.5115519829923
 20
625.3108552657562
 10
238.6512157678674
 20
623.8357669836971
 10
227.9041338554969
 20
647.9910150889639
 10
219.1713948609299
 20
655.3186531584725
 10
197.2735115511035
 20
704.5365532956427
 10
188.5407725565365
 20
711.8641913651513
 10
181.2589206475339
 20
728.2309540791587
 10
116.3709586911794
 20
722.5539930086763
 10
109.6766353146052
 20
714.5760090746566
 10
103.6867714825276
 20
719.6021016069551
  0
LINE
  5
1475
330
18
100
AcDbEntity
  8
V5
 62
     5
100
AcDbLine
 10
703.4671208510729
 20
181.3670592339247
 30
0.0
 11
703.4671208510728
 21
955.8496823340361
 31
0.0
  0
LINE
  5
1476
330
18
100
AcDbEntity
  8
V5
100
AcDbLine
 10
738.467120851073
 20
181.3670592339247
 30
0.0
 11
738.4671208510727
 21
955.8496823340361
 31
0.0
  0
LINE
  5
147A
330
18
100
AcDbEntity
  8
V25
100
AcDbLine
 10
684.9120121805908
 20
256.6716411782987
 30
0.0
 11
712.1892295182661
 21
256.6716411782987
 31
0.0
  0
LINE
  5
147B
330
18
100
AcDbEntity
  8
V5
100
AcDbLine
 10
703.4671208510728
 20
955.8496823340361
 30
0.0
 11
738.4671208510727
 21
955.8496823340361
 31
0.0
  0
LINE
  5
147D
330
18
100
AcDbEntity
  8
V35
100
AcDbLine
 10
754.0735747423822
 20
927.3327592871819
 30
0.0
 11
730.5338427902715
 21
927.3327592871819
 31
0.0
  0
LINE
  5
147E
330
18
100
AcDbEntity
  8
V25
100
AcDbLine
 10
588.4585364559109
 20
181.3670592339247
 30
0.0
 11
588.458536455911
 21
638.9020817873956
 31
0.0
  0
LINE
  5
147F
330
18
100
AcDbEntity
  8
V25
100
AcDbLine
 10
583.6935802500424
 20
648.5234005126182
 30
0.0
 11
323.3988731765209
 21
625.750564467884
 31
0.0
  0
LINE
  5
1480
330
18
100
AcDbEntity
  8
V25
100
AcDbLine
 10
318.458536455911
 20
181.3670592339247
 30
0.0
 11
318.458536455911
 21
619.3663535577313
 31
0.0
  0
LINE
  5
1481
330
18
100
AcDbEntity
  8
V25
100
AcDbLine
 10
578.458536455911
 20
181.3670592339247
 30
0.0
 11
578.458536455911
 21
638.0271951521364
 31
0.0
  0
LINE
  5
1482
330
18
100
AcDbEntity
  8
V25
100
AcDbLine
 10
328.4585364559111
 20
181.3670592339247
 30
0.0
 11
328.458536455911
 21
616.1550292706555
 31
0.0
  0
LINE
  5
1483
330
18
100
AcDbEntity
  8
V25
100
AcDbLine
 10
588.458536455911
 20
638.9020817873956
 30
0.0
 11
318.458536455911
 21
615.2801426353962
 31
0.0
  0
LINE
  5
1484
330
18
100
AcDbEntity
  8
V25
100
AcDbLine
 10
298.458536455911
 20
352.5372116036075
 30
0.0
 11
298.458536455911
 21
623.5685677403113
 31
0.0
  0
LINE
  5
1485
330
18
100
AcDbEntity
  8
V25
100
AcDbLine
 10
584.565137677519
 20
638.5614535317006
 30
0.0
 11
583.6935802500424
 21
648.5234005126182
 31
0.0
  0
LINE
  5
1486
330
18
100
AcDbEntity
  8
V25
100
AcDbLine
 10
298.458536455911
 20
623.5685677403113
 30
0.0
 11
104.1815420104533
 21
606.5715331424449
 31
0.0
  0
LINE
  5
1487
330
18
100
AcDbEntity
  8
V25
100
AcDbLine
 10
324.2704306039974
 20
615.7886174869664
 30
0.0
 11
323.3988731765209
 21
625.750564467884
 31
0.0
  0
LINE
  5
1488
330
18
100
AcDbEntity
  8
V25
100
AcDbLine
 10
298.458536455911
 20
619.3663535577314
 30
0.0
 11
318.458536455911
 21
619.3663535577314
 31
0.0
  0
LINE
  5
1489
330
18
100
AcDbEntity
  8
V25
100
AcDbLine
 10
298.458536455911
 20
613.5303693648777
 30
0.0
 11
104.1815420104533
 21
596.5333347670114
 31
0.0
  0
LINE
  5
148A
330
18
100
AcDbEntity
  8
V25
100
AcDbLine
 10
298.458536455911
 20
352.5372116036075
 30
0.0
 11
104.1815420104534
 21
335.5401770057412
 31
0.0
  0
LINE
  5
148B
330
18
100
AcDbEntity
  8
V25
100
AcDbLine
 10
298.458536455911
 20
362.5754099790411
 30
0.0
 11
104.1815420104534
 21
345.5783753811747
 31
0.0
  0
LINE
  5
148C
330
18
100
AcDbEntity
  8
V25
100
AcDbLine
 10
298.458536455911
 20
356.9854150089049
 30
0.0
 11
318.458536455911
 21
356.9854150089047
 31
0.0
  0
LINE
  5
148D
330
18
100
AcDbEntity
  8
V25
100
AcDbLine
 10
282.3826527498015
 20
583.8255952955903
 30
0.0
 11
344.2791308063235
 21
583.8255952955903
 31
0.0
  0
LINE
  5
148E
330
18
100
AcDbEntity
  8
V25
100
AcDbLine
 10
282.3826527498015
 20
388.6629361725352
 30
0.0
 11
344.2791308063235
 21
388.6629361725352
 31
0.0
  0
LINE
  5
148F
330
18
100
AcDbEntity
  8
V25
100
AcDbLine
 10
596.4914850759933
 20
615.5768539367362
 30
0.0
 11
567.6950846260496
 21
615.5768539367362
 31
0.0
  0
LINE
  5
1490
330
18
100
AcDbEntity
  8
V25
100
AcDbLine
 10
596.4914850759933
 20
330.7816692153375
 30
0.0
 11
567.6950846260496
 21
330.7816692153375
 31
0.0
  0
LINE
  5
1491
330
18
100
AcDbEntity
  8
ACHS
 62
     3
 48
4.0
100
AcDbLine
 10
103.4856115598992
 20
924.7175077277718
 30
0.0
 11
103.4856115598993
 21
318.0556930388402
 31
0.0
  0
LINE
  5
1492
330
18
100
AcDbEntity
  8
ACHS
 62
     3
 48
4.0
100
AcDbLine
 10
305.5837183729523
 20
181.3670592339247
 30
0.0
 11
769.0741075220139
 21
181.3670592339247
 31
0.0
  0
LWPOLYLINE
  5
1494
330
18
100
AcDbEntity
  8
V5
100
AcDbPolyline
 90
       18
 70
     0
 43
2.2
 10
598.0819911089788
 20
760.3171348362375
 10
598.0819911089787
 20
678.3445228695066
 10
592.0819911089788
 20
672.3445228695068
 10
592.0819911089787
 20
593.3445228695068
 10
598.0819911089788
 20
587.3445228695068
 10
592.0819911089788
 20
581.3445228695067
 10
592.0819911089788
 20
502.3445228695067
 10
598.0819911089788
 20
496.3445228695067
 10
598.0819911089788
 20
378.3445228695068
 10
592.0819911089788
 20
372.3445228695068
 10
592.0819911089788
 20
291.5561380608768
 10
611.1017589868311
 20
291.5561380608768
 10
617.1590794334629
 20
285.498817614245
 10
664.0444385401996
 20
285.498817614245
 10
670.1017589868313
 20
291.5561380608768
 10
695.3337427638853
 20
291.5561380608768
 10
695.3337427638853
 20
231.5561380608768
 10
692.483426552645
 20
222.8958840230323
  0
LINE
  5
1495
330
18
100
AcDbEntity
  8
V25
100
AcDbLine
 10
596.4914850759933
 20
239.1428336899939
 30
0.0
 11
567.6950846260496
 21
239.1428336899939
 31
0.0
  0
LINE
  5
1496
330
18
100
AcDbEntity
  8
V25
100
AcDbLine
 10
328.458536455911
 20
362.5873390140633
 30
0.0
 11
578.4116374988009
 21
362.5873390140633
 31
0.0
  0
LINE
  5
1497
330
18
100
AcDbEntity
  8
V25
100
AcDbLine
 10
328.458536455911
 20
352.5873390140633
 30
0.0
 11
578.4116374988009
 21
352.5873390140633
 31
0.0
  0
LINE
  5
1499
330
18
100
AcDbEntity
  8
V25
100
AcDbLine
 10
258.174730725457
 20
599.0412596514732
 30
0.0
 11
254.7387318938145
 21
638.3149060093747
 31
0.0
  0
INSERT
  5
149A
330
18
100
AcDbEntity
  8
V25
100
AcDbBlockReference
  2
Z45-6
 10
658.0231250163494
 20
961.3210459067497
 30
0.0
  0
TEXT
  5
14A0
330
18
100
AcDbEntity
  8
TXT-D
100
AcDbText
 10
371.8584597562667
 20
958.5903315009314
 30
0.0
 40
14.0
  1
uzávěra hř.
  7
ROMANS
100
AcDbText
  0
TEXT
  5
14A1
330
18
100
AcDbEntity
  8
TXT-D
100
AcDbText
 10
46.52146364525333
 20
1046.755311366419
 30
0.0
 40
14.0
  1
Kalzip
  7
ROMANS
100
AcDbText
  0
TEXT
  5
14A6
330
18
100
AcDbEntity
  8
TXT-D
100
AcDbText
 10
334.250593492713
 20
501.9114787490165
 30
0.0
 40
14.0
  1
trapézový plech
  7
ROMANS
100
AcDbText
  0
LINE
  5
14AA
330
18
100
AcDbEntity
  8
TXT-D
100
AcDbLine
 10
651.0388568103589
 20
1138.001842234167
 30
0.0
 11
794.4629004559628
 21
1138.001842234167
 31
0.0
  0
LINE
  5
14AB
330
18
100
AcDbEntity
  8
TXT-D
100
AcDbLine
 10
624.5588574675025
 20
1178.001842234167
 30
0.0
 11
794.4629004559628
 21
1178.001842234166
 31
0.0
  0
LINE
  5
14AE
330
18
100
AcDbEntity
  8
TXT-D
100
AcDbLine
 10
712.4120094142698
 20
973.3015567467951
 30
0.0
 11
712.4120094142698
 21
1097.747667562968
 31
0.0
  0
LINE
  5
14AF
330
18
100
AcDbEntity
  8
TXT-D
100
AcDbLine
 10
624.5588574675023
 20
956.3586687223812
 30
0.0
 11
624.5588574675025
 21
1178.001842234167
 31
0.0
  0
LINE
  5
14B0
330
18
100
AcDbEntity
  8
TXT-D
100
AcDbLine
 10
651.0388568103588
 20
919.0600100833066
 30
0.0
 11
651.0388568103589
 21
1138.001842234167
 31
0.0
  0
LINE
  5
14B2
330
18
100
AcDbEntity
  8
TXT-D
100
AcDbLine
 10
712.4120094142698
 20
1097.747667562968
 30
0.0
 11
794.4629004559628
 21
1097.747667562968
 31
0.0
  0
LINE
  5
14B3
330
18
100
AcDbEntity
  8
TXT-D
100
AcDbLine
 10
351.0213369026641
 20
889.3661106920207
 30
0.0
 11
351.0213369026641
 21
1178.001842234167
 31
0.0
  0
LINE
  5
14B4
330
18
100
AcDbEntity
  8
TXT-D
100
AcDbLine
 10
554.5428300881614
 20
923.3485834404721
 30
0.0
 11
554.5428300881614
 21
1178.001842234167
 31
0.0
  0
LINE
  5
14B5
330
18
100
AcDbEntity
  8
TXT-D
100
AcDbLine
 10
510.4622509008053
 20
964.5030595393832
 30
0.0
 11
493.2613540171341
 21
964.5030595393832
 31
0.0
  0
LINE
  5
14B6
330
18
100
AcDbEntity
  8
TXT-D
100
AcDbLine
 10
351.0213369026641
 20
1178.001842234167
 30
0.0
 11
220.1786389551389
 21
1178.001842234167
 31
0.0
  0
LINE
  5
14B7
330
18
100
AcDbEntity
  8
TXT-D
100
AcDbLine
 10
510.4622509008053
 20
950.3704864680456
 30
0.0
 11
510.4622509008054
 21
964.5030595393832
 31
0.0
  0
LINE
  5
14C0
330
18
100
AcDbEntity
  8
TXT-D
100
AcDbLine
 10
321.803533678878
 20
916.4029661163915
 30
0.0
 11
321.8035336788779
 21
1052.028591261692
 31
0.0
  0
LINE
  5
14C1
330
18
100
AcDbEntity
  8
TXT-D
100
AcDbLine
 10
321.8035336788779
 20
1052.028591261692
 30
0.0
 11
105.6724603917973
 21
1052.028591261692
 31
0.0
  0
LINE
  5
14C3
330
18
100
AcDbEntity
  8
TXT-D
100
AcDbLine
 10
554.5428300881614
 20
1178.001842234167
 30
0.0
 11
478.0485479657826
 21
1178.001842234167
 31
0.0
  0
CIRCLE
  5
14C6
330
18
100
AcDbEntity
  8
V5
100
AcDbCircle
 10
364.4216897112621
 20
920.8060609548804
 30
0.0
 40
2.752526753345601
  0
LWPOLYLINE
  5
14C9
330
18
100
AcDbEntity
  8
V5
  6
GESTRICHELT
 48
5.0
100
AcDbPolyline
 90
        2
 70
   128
 43
4.0
 10
103.4856115598992
 20
735.1241858923462
 10
693.2900183102137
 20
786.7253851806319
  0
LINE
  5
14CA
330
18
100
AcDbEntity
  8
ISOLIER
100
AcDbLine
 10
685.1447203938735
 20
732.2604565334001
 30
0.0
 11
712.1892295182661
 21
732.2604565334001
 31
0.0
  0
ARC
  5
14CB
330
18
100
AcDbEntity
  8
ISO
100
AcDbCircle
 10
683.0994936277
 20
222.3770761548877
 30
0.0
 40
11.76
100
AcDbArc
 50
270.0
 51
360.0
  0
LINE
  5
14CC
330
18
100
AcDbEntity
  8
ISO
100
AcDbLine
 10
612.5394936276998
 20
222.3770761548877
 30
0.0
 11
683.0994960254177
 21
210.6170761548877
 31
0.0
  0
ARC
  5
14CD
330
18
100
AcDbEntity
  8
ISO
100
AcDbCircle
 10
612.5394936276998
 20
210.6170761548877
 30
0.0
 40
11.76
100
AcDbArc
 50
90.0
 51
180.0
  0
LINE
  5
14CE
330
18
100
AcDbEntity
  8
ISO
100
AcDbLine
 10
612.5394936276998
 20
198.857076154888
 30
0.0
 11
683.0994960254177
 21
210.6170761548877
 31
0.0
  0
ARC
  5
14CF
330
18
100
AcDbEntity
  8
ISO
100
AcDbCircle
 10
683.0994936277
 20
198.8570761548878
 30
0.0
 40
11.76
100
AcDbArc
 50
0.0000000000000509
 51
90.0
  0
ARC
  5
14D0
330
18
100
AcDbEntity
  8
ISO
100
AcDbCircle
 10
612.5394936276998
 20
210.6170761548877
 30
0.0
 40
11.76
100
AcDbArc
 50
180.0
 51
270.0
  0
ARC
  5
14D1
330
18
100
AcDbEntity
  8
ISO
100
AcDbCircle
 10
612.5394936276998
 20
234.1370761548875
 30
0.0
 40
11.76
100
AcDbArc
 50
180.0
 51
270.0
  0
LINE
  5
14D3
330
18
100
AcDbEntity
  8
ISO
100
AcDbLine
 10
612.5394936276998
 20
222.3770761548877
 30
0.0
 11
683.0994960254177
 21
234.1370761548875
 31
0.0
  0
ARC
  5
14D4
330
18
100
AcDbEntity
  8
ISO
100
AcDbCircle
 10
612.5394936276998
 20
234.1370761548875
 30
0.0
 40
11.76
100
AcDbArc
 50
90.0
 51
180.0
  0
LINE
  5
14D5
330
18
100
AcDbEntity
  8
ISO
100
AcDbLine
 10
612.5394936276998
 20
245.8970761548875
 30
0.0
 11
683.0994960254177
 21
234.1370761548875
 31
0.0
  0
ARC
  5
14D6
330
18
100
AcDbEntity
  8
ISO
100
AcDbCircle
 10
683.0994936277
 20
245.8970761548875
 30
0.0
 40
11.76
100
AcDbArc
 50
270.0
 51
312.3120664341293
  0
ARC
  5
14D7
330
18
100
AcDbEntity
  8
ISO
100
AcDbCircle
 10
612.5394936276998
 20
257.6570761548873
 30
0.0
 40
11.76
100
AcDbArc
 50
180.0
 51
270.0
  0
LINE
  5
14D8
330
18
100
AcDbEntity
  8
ISO
100
AcDbLine
 10
612.5394936276998
 20
245.8970761548875
 30
0.0
 11
683.0994960254177
 21
257.6570761548873
 31
0.0
  0
ARC
  5
14D9
330
18
100
AcDbEntity
  8
ISO
100
AcDbCircle
 10
612.5394936276998
 20
257.6570761548873
 30
0.0
 40
11.76
100
AcDbArc
 50
90.0
 51
180.0
  0
LINE
  5
14DA
330
18
100
AcDbEntity
  8
ISO
100
AcDbLine
 10
612.5394936276998
 20
269.4170761548873
 30
0.0
 11
683.0994960254177
 21
257.6570761548873
 31
0.0
  0
ARC
  5
14DB
330
18
100
AcDbEntity
  8
ISO
100
AcDbCircle
 10
683.0994936277
 20
269.4170761548873
 30
0.0
 40
11.76
100
AcDbArc
 50
270.0
 51
312.4731071333001
  0
ARC
  5
14DC
330
18
100
AcDbEntity
  8
ISO
100
AcDbCircle
 10
612.5394936276998
 20
281.177076154887
 30
0.0
 40
11.76
100
AcDbArc
 50
180.0
 51
270.0
  0
LINE
  5
14DD
330
18
100
AcDbEntity
  8
ISO
100
AcDbLine
 10
612.5394936276998
 20
269.4170761548873
 30
0.0
 11
683.0994960254177
 21
281.177076154887
 31
0.0
  0
ARC
  5
14DE
330
18
100
AcDbEntity
  8
ISO
100
AcDbCircle
 10
612.5394936276998
 20
281.177076154887
 30
0.0
 40
11.76
100
AcDbArc
 50
152.3937198940469
 51
180.0
  0
ARC
  5
14DF
330
18
100
AcDbEntity
  8
ISO
100
AcDbCircle
 10
612.5394936276998
 20
283.3586395578464
 30
0.0
 40
11.76
100
AcDbArc
 50
90.0
 51
135.8079038861171
  0
LINE
  5
14E0
330
18
100
AcDbEntity
  8
ISO
100
AcDbLine
 10
612.5394936276998
 20
295.1186395578464
 30
0.0
 11
664.9321511872678
 21
286.3865302613132
 31
0.0
  0
ARC
  5
14E1
330
18
100
AcDbEntity
  8
ISO
100
AcDbCircle
 10
612.5394936276998
 20
306.8786395578463
 30
0.0
 40
11.76
100
AcDbArc
 50
180.0
 51
270.0
  0
ARC
  5
14E2
330
18
100
AcDbEntity
  8
ISO
100
AcDbCircle
 10
683.0994936277
 20
295.1186395578464
 30
0.0
 40
11.76
100
AcDbArc
 50
0.0000000000000509
 51
90.0
  0
LINE
  5
14E3
330
18
100
AcDbEntity
  8
ISO
100
AcDbLine
 10
612.5394936276998
 20
295.1186395578464
 30
0.0
 11
683.0994960254177
 21
306.8786395578462
 31
0.0
  0
ARC
  5
14E4
330
18
100
AcDbEntity
  8
ISO
100
AcDbCircle
 10
612.5394936276998
 20
306.8786395578463
 30
0.0
 40
11.76
100
AcDbArc
 50
90.0
 51
180.0
  0
LINE
  5
14E5
330
18
100
AcDbEntity
  8
ISO
100
AcDbLine
 10
612.5394936276998
 20
318.6386395578463
 30
0.0
 11
683.0994960254177
 21
306.8786395578462
 31
0.0
  0
ARC
  5
14E6
330
18
100
AcDbEntity
  8
ISO
100
AcDbCircle
 10
683.0994936277
 20
318.6386395578463
 30
0.0
 40
11.76
100
AcDbArc
 50
270.0
 51
360.0
  0
ARC
  5
14E7
330
18
100
AcDbEntity
  8
ISO
100
AcDbCircle
 10
612.5394936276998
 20
330.3986395578461
 30
0.0
 40
11.76
100
AcDbArc
 50
180.0
 51
270.0
  0
ARC
  5
14E8
330
18
100
AcDbEntity
  8
ISO
100
AcDbCircle
 10
683.0994936277
 20
318.6386395578463
 30
0.0
 40
11.76
100
AcDbArc
 50
0.0000000000000509
 51
90.0
  0
LINE
  5
14E9
330
18
100
AcDbEntity
  8
ISO
100
AcDbLine
 10
612.5394936276998
 20
318.6386395578463
 30
0.0
 11
683.0994960254177
 21
330.3986395578461
 31
0.0
  0
ARC
  5
14EA
330
18
100
AcDbEntity
  8
ISO
100
AcDbCircle
 10
612.5394936276998
 20
330.3986395578461
 30
0.0
 40
11.76
100
AcDbArc
 50
90.0
 51
180.0
  0
LINE
  5
14EB
330
18
100
AcDbEntity
  8
ISO
100
AcDbLine
 10
612.5394936276998
 20
342.1586395578461
 30
0.0
 11
683.0994960254177
 21
330.3986395578461
 31
0.0
  0
ARC
  5
14EC
330
18
100
AcDbEntity
  8
ISO
100
AcDbCircle
 10
683.0994936277
 20
342.1586395578461
 30
0.0
 40
11.76
100
AcDbArc
 50
270.0
 51
360.0
  0
ARC
  5
14ED
330
18
100
AcDbEntity
  8
ISO
100
AcDbCircle
 10
612.5394936276998
 20
353.9186395578458
 30
0.0
 40
11.76
100
AcDbArc
 50
180.0
 51
270.0
  0
ARC
  5
14EE
330
18
100
AcDbEntity
  8
ISO
100
AcDbCircle
 10
683.0994936277
 20
342.1586395578461
 30
0.0
 40
11.76
100
AcDbArc
 50
0.0000000000000509
 51
90.0
  0
LINE
  5
14EF
330
18
100
AcDbEntity
  8
ISO
100
AcDbLine
 10
612.5394936276998
 20
342.1586395578461
 30
0.0
 11
683.0994960254177
 21
353.9186395578458
 31
0.0
  0
ARC
  5
14F0
330
18
100
AcDbEntity
  8
ISO
100
AcDbCircle
 10
612.5394936276998
 20
353.9186395578458
 30
0.0
 40
11.76
100
AcDbArc
 50
90.0
 51
180.0
  0
LINE
  5
14F1
330
18
100
AcDbEntity
  8
ISO
100
AcDbLine
 10
612.5394936276998
 20
365.6786395578458
 30
0.0
 11
683.0994960254177
 21
353.9186395578458
 31
0.0
  0
ARC
  5
14F2
330
18
100
AcDbEntity
  8
ISO
100
AcDbCircle
 10
683.0994936277
 20
365.6786395578458
 30
0.0
 40
11.76
100
AcDbArc
 50
270.0
 51
360.0
  0
ARC
  5
14F3
330
18
100
AcDbEntity
  8
ISO
100
AcDbCircle
 10
612.5394936276998
 20
377.4386395578456
 30
0.0
 40
11.76
100
AcDbArc
 50
180.0
 51
270.0
  0
ARC
  5
14F4
330
18
100
AcDbEntity
  8
ISO
100
AcDbCircle
 10
683.0994936277
 20
365.6786395578458
 30
0.0
 40
11.76
100
AcDbArc
 50
0.0000000000000509
 51
90.0
  0
LINE
  5
14F5
330
18
100
AcDbEntity
  8
ISO
100
AcDbLine
 10
612.5394936276998
 20
365.6786395578458
 30
0.0
 11
683.0994960254177
 21
377.4386395578456
 31
0.0
  0
ARC
  5
14F6
330
18
100
AcDbEntity
  8
ISO
100
AcDbCircle
 10
612.5394936276998
 20
377.4386395578456
 30
0.0
 40
11.76
100
AcDbArc
 50
90.0
 51
180.0
  0
LINE
  5
14F7
330
18
100
AcDbEntity
  8
ISO
100
AcDbLine
 10
612.5394936276998
 20
389.1986395578456
 30
0.0
 11
683.0994960254177
 21
377.4386395578456
 31
0.0
  0
ARC
  5
14F8
330
18
100
AcDbEntity
  8
ISO
100
AcDbCircle
 10
683.0994936277
 20
389.1986395578456
 30
0.0
 40
11.76
100
AcDbArc
 50
270.0
 51
360.0
  0
ARC
  5
14F9
330
18
100
AcDbEntity
  8
ISO
100
AcDbCircle
 10
612.5394936276998
 20
400.9586395578453
 30
0.0
 40
11.76
100
AcDbArc
 50
180.0
 51
270.0
  0
ARC
  5
14FA
330
18
100
AcDbEntity
  8
ISO
100
AcDbCircle
 10
683.0994936277
 20
389.1986395578456
 30
0.0
 40
11.76
100
AcDbArc
 50
0.0000000000000509
 51
90.0
  0
LINE
  5
14FB
330
18
100
AcDbEntity
  8
ISO
100
AcDbLine
 10
612.5394936276998
 20
389.1986395578456
 30
0.0
 11
683.0994960254177
 21
400.9586395578453
 31
0.0
  0
ARC
  5
14FC
330
18
100
AcDbEntity
  8
ISO
100
AcDbCircle
 10
612.5394936276998
 20
400.9586395578453
 30
0.0
 40
11.76
100
AcDbArc
 50
90.0
 51
180.0
  0
LINE
  5
14FD
330
18
100
AcDbEntity
  8
ISO
100
AcDbLine
 10
612.5394936276998
 20
412.7186395578453
 30
0.0
 11
683.0994960254177
 21
400.9586395578453
 31
0.0
  0
ARC
  5
14FE
330
18
100
AcDbEntity
  8
ISO
100
AcDbCircle
 10
683.0994936277
 20
412.7186395578453
 30
0.0
 40
11.76
100
AcDbArc
 50
270.0
 51
360.0
  0
ARC
  5
14FF
330
18
100
AcDbEntity
  8
ISO
100
AcDbCircle
 10
612.5394936276998
 20
424.4786395578452
 30
0.0
 40
11.76
100
AcDbArc
 50
180.0
 51
270.0
  0
ARC
  5
1500
330
18
100
AcDbEntity
  8
ISO
100
AcDbCircle
 10
683.0994936277
 20
412.7186395578453
 30
0.0
 40
11.76
100
AcDbArc
 50
0.0000000000000509
 51
90.0
  0
LINE
  5
1501
330
18
100
AcDbEntity
  8
ISO
100
AcDbLine
 10
612.5394936276998
 20
412.7186395578453
 30
0.0
 11
683.0994960254177
 21
424.4786395578452
 31
0.0
  0
ARC
  5
1502
330
18
100
AcDbEntity
  8
ISO
100
AcDbCircle
 10
612.5394936276998
 20
424.4786395578452
 30
0.0
 40
11.76
100
AcDbArc
 50
90.0
 51
180.0
  0
LINE
  5
1503
330
18
100
AcDbEntity
  8
ISO
100
AcDbLine
 10
612.5394936276998
 20
436.2386395578452
 30
0.0
 11
683.0994960254177
 21
424.4786395578452
 31
0.0
  0
ARC
  5
1504
330
18
100
AcDbEntity
  8
ISO
100
AcDbCircle
 10
683.0994936277
 20
436.2386395578452
 30
0.0
 40
11.76
100
AcDbArc
 50
270.0
 51
360.0
  0
ARC
  5
1505
330
18
100
AcDbEntity
  8
ISO
100
AcDbCircle
 10
612.5394936276998
 20
447.9986395578449
 30
0.0
 40
11.76
100
AcDbArc
 50
180.0
 51
270.0
  0
ARC
  5
1506
330
18
100
AcDbEntity
  8
ISO
100
AcDbCircle
 10
683.0994936277
 20
436.2386395578452
 30
0.0
 40
11.76
100
AcDbArc
 50
0.0000000000000509
 51
90.0
  0
LINE
  5
1507
330
18
100
AcDbEntity
  8
ISO
100
AcDbLine
 10
612.5394936276998
 20
436.2386395578452
 30
0.0
 11
683.0994960254177
 21
447.9986395578449
 31
0.0
  0
ARC
  5
1508
330
18
100
AcDbEntity
  8
ISO
100
AcDbCircle
 10
612.5394936276998
 20
447.9986395578449
 30
0.0
 40
11.76
100
AcDbArc
 50
90.0
 51
180.0
  0
LINE
  5
1509
330
18
100
AcDbEntity
  8
ISO
100
AcDbLine
 10
612.5394936276998
 20
459.7586395578449
 30
0.0
 11
683.0994960254177
 21
447.9986395578449
 31
0.0
  0
ARC
  5
150A
330
18
100
AcDbEntity
  8
ISO
100
AcDbCircle
 10
683.0994936277
 20
459.7586395578449
 30
0.0
 40
11.76
100
AcDbArc
 50
270.0
 51
360.0
  0
ARC
  5
150B
330
18
100
AcDbEntity
  8
ISO
100
AcDbCircle
 10
612.5394936276998
 20
471.5186395578447
 30
0.0
 40
11.76
100
AcDbArc
 50
180.0
 51
270.0
  0
ARC
  5
150C
330
18
100
AcDbEntity
  8
ISO
100
AcDbCircle
 10
683.0994936277
 20
459.7586395578449
 30
0.0
 40
11.76
100
AcDbArc
 50
0.0000000000000509
 51
90.0
  0
LINE
  5
150D
330
18
100
AcDbEntity
  8
ISO
100
AcDbLine
 10
612.5394936276998
 20
459.7586395578449
 30
0.0
 11
683.0994960254177
 21
471.5186395578447
 31
0.0
  0
ARC
  5
150E
330
18
100
AcDbEntity
  8
ISO
100
AcDbCircle
 10
612.5394936276998
 20
471.5186395578447
 30
0.0
 40
11.76
100
AcDbArc
 50
90.0
 51
180.0
  0
LINE
  5
150F
330
18
100
AcDbEntity
  8
ISO
100
AcDbLine
 10
612.5394936276998
 20
483.2786395578446
 30
0.0
 11
683.0994960254177
 21
471.5186395578447
 31
0.0
  0
ARC
  5
1510
330
18
100
AcDbEntity
  8
ISO
100
AcDbCircle
 10
683.0994936277
 20
483.2786395578446
 30
0.0
 40
11.76
100
AcDbArc
 50
270.0
 51
360.0
  0
ARC
  5
1511
330
18
100
AcDbEntity
  8
ISO
100
AcDbCircle
 10
612.5394936276998
 20
495.0386395578444
 30
0.0
 40
11.76
100
AcDbArc
 50
180.0
 51
270.0
  0
ARC
  5
1512
330
18
100
AcDbEntity
  8
ISO
100
AcDbCircle
 10
683.0994936277
 20
483.2786395578446
 30
0.0
 40
11.76
100
AcDbArc
 50
0.0000000000000509
 51
90.0
  0
LINE
  5
1513
330
18
100
AcDbEntity
  8
ISO
100
AcDbLine
 10
612.5394936276998
 20
483.2786395578446
 30
0.0
 11
683.0994960254177
 21
495.0386395578444
 31
0.0
  0
ARC
  5
1514
330
18
100
AcDbEntity
  8
ISO
100
AcDbCircle
 10
612.5394936276998
 20
495.0386395578444
 30
0.0
 40
11.76
100
AcDbArc
 50
90.0
 51
180.0
  0
LINE
  5
1515
330
18
100
AcDbEntity
  8
ISO
100
AcDbLine
 10
612.5394936276998
 20
506.7986395578444
 30
0.0
 11
683.0994960254177
 21
495.0386395578444
 31
0.0
  0
ARC
  5
1516
330
18
100
AcDbEntity
  8
ISO
100
AcDbCircle
 10
683.0994936277
 20
506.7986395578444
 30
0.0
 40
11.76
100
AcDbArc
 50
270.0
 51
360.0
  0
ARC
  5
1517
330
18
100
AcDbEntity
  8
ISO
100
AcDbCircle
 10
612.5394936276998
 20
518.5586395578442
 30
0.0
 40
11.76
100
AcDbArc
 50
180.0
 51
270.0
  0
ARC
  5
1518
330
18
100
AcDbEntity
  8
ISO
100
AcDbCircle
 10
683.0994936277
 20
506.7986395578444
 30
0.0
 40
11.76
100
AcDbArc
 50
0.0000000000000509
 51
90.0
  0
LINE
  5
1519
330
18
100
AcDbEntity
  8
ISO
100
AcDbLine
 10
612.5394936276998
 20
506.7986395578444
 30
0.0
 11
683.0994960254177
 21
518.5586395578442
 31
0.0
  0
ARC
  5
151A
330
18
100
AcDbEntity
  8
ISO
100
AcDbCircle
 10
612.5394936276998
 20
518.5586395578442
 30
0.0
 40
11.76
100
AcDbArc
 50
90.0
 51
180.0
  0
LINE
  5
151B
330
18
100
AcDbEntity
  8
ISO
100
AcDbLine
 10
612.5394936276998
 20
530.3186395578442
 30
0.0
 11
683.0994960254177
 21
518.5586395578442
 31
0.0
  0
ARC
  5
151C
330
18
100
AcDbEntity
  8
ISO
100
AcDbCircle
 10
683.0994936277
 20
530.3186395578442
 30
0.0
 40
11.76
100
AcDbArc
 50
270.0
 51
360.0
  0
ARC
  5
151D
330
18
100
AcDbEntity
  8
ISO
100
AcDbCircle
 10
612.5394936276998
 20
542.078639557844
 30
0.0
 40
11.76
100
AcDbArc
 50
180.0
 51
270.0
  0
ARC
  5
151E
330
18
100
AcDbEntity
  8
ISO
100
AcDbCircle
 10
683.0994936277
 20
530.3186395578442
 30
0.0
 40
11.76
100
AcDbArc
 50
0.0000000000000509
 51
90.0
  0
LINE
  5
151F
330
18
100
AcDbEntity
  8
ISO
100
AcDbLine
 10
612.5394936276998
 20
530.3186395578442
 30
0.0
 11
683.0994960254177
 21
542.0786395578439
 31
0.0
  0
ARC
  5
1520
330
18
100
AcDbEntity
  8
ISO
100
AcDbCircle
 10
612.5394936276998
 20
542.078639557844
 30
0.0
 40
11.76
100
AcDbArc
 50
90.0
 51
180.0
  0
LINE
  5
1521
330
18
100
AcDbEntity
  8
ISO
100
AcDbLine
 10
612.5394936276998
 20
553.838639557844
 30
0.0
 11
683.0994960254177
 21
542.0786395578439
 31
0.0
  0
ARC
  5
1522
330
18
100
AcDbEntity
  8
ISO
100
AcDbCircle
 10
683.0994936277
 20
553.838639557844
 30
0.0
 40
11.76
100
AcDbArc
 50
270.0
 51
360.0
  0
ARC
  5
1523
330
18
100
AcDbEntity
  8
ISO
100
AcDbCircle
 10
612.5394936276998
 20
565.5986395578437
 30
0.0
 40
11.76
100
AcDbArc
 50
180.0
 51
270.0
  0
ARC
  5
1524
330
18
100
AcDbEntity
  8
ISO
100
AcDbCircle
 10
683.0994936277
 20
553.838639557844
 30
0.0
 40
11.76
100
AcDbArc
 50
0.0000000000000509
 51
90.0
  0
LINE
  5
1525
330
18
100
AcDbEntity
  8
ISO
100
AcDbLine
 10
612.5394936276998
 20
553.838639557844
 30
0.0
 11
683.0994960254177
 21
565.5986395578437
 31
0.0
  0
ARC
  5
1526
330
18
100
AcDbEntity
  8
ISO
100
AcDbCircle
 10
612.5394936276998
 20
565.5986395578437
 30
0.0
 40
11.76
100
AcDbArc
 50
90.0
 51
180.0
  0
LINE
  5
1527
330
18
100
AcDbEntity
  8
ISO
100
AcDbLine
 10
612.5394936276998
 20
577.3586395578437
 30
0.0
 11
683.0994960254177
 21
565.5986395578437
 31
0.0
  0
ARC
  5
1528
330
18
100
AcDbEntity
  8
ISO
100
AcDbCircle
 10
683.0994936277
 20
577.3586395578437
 30
0.0
 40
11.76
100
AcDbArc
 50
270.0
 51
360.0
  0
ARC
  5
1529
330
18
100
AcDbEntity
  8
ISO
100
AcDbCircle
 10
612.5394936276998
 20
589.1186395578435
 30
0.0
 40
11.76
100
AcDbArc
 50
180.0
 51
270.0
  0
ARC
  5
152A
330
18
100
AcDbEntity
  8
ISO
100
AcDbCircle
 10
683.0994936277
 20
577.3586395578437
 30
0.0
 40
11.76
100
AcDbArc
 50
0.0000000000000509
 51
90.0
  0
LINE
  5
152B
330
18
100
AcDbEntity
  8
ISO
100
AcDbLine
 10
612.5394936276998
 20
577.3586395578437
 30
0.0
 11
683.0994960254177
 21
589.1186395578435
 31
0.0
  0
ARC
  5
152C
330
18
100
AcDbEntity
  8
ISO
100
AcDbCircle
 10
612.5394936276998
 20
589.1186395578435
 30
0.0
 40
11.76
100
AcDbArc
 50
90.0
 51
180.0
  0
LINE
  5
152D
330
18
100
AcDbEntity
  8
ISO
100
AcDbLine
 10
612.5394936276998
 20
600.8786395578437
 30
0.0
 11
683.0994960254177
 21
589.1186395578435
 31
0.0
  0
ARC
  5
152E
330
18
100
AcDbEntity
  8
ISO
100
AcDbCircle
 10
683.0994936277
 20
600.8786395578437
 30
0.0
 40
11.76
100
AcDbArc
 50
270.0
 51
360.0
  0
ARC
  5
152F
330
18
100
AcDbEntity
  8
ISO
100
AcDbCircle
 10
612.5394936276998
 20
612.6386395578435
 30
0.0
 40
11.76
100
AcDbArc
 50
180.0
 51
270.0
  0
ARC
  5
1530
330
18
100
AcDbEntity
  8
ISO
100
AcDbCircle
 10
683.0994936277
 20
600.8786395578437
 30
0.0
 40
11.76
100
AcDbArc
 50
0.0000000000000509
 51
90.0
  0
LINE
  5
1531
330
18
100
AcDbEntity
  8
ISO
100
AcDbLine
 10
612.5394936276998
 20
600.8786395578437
 30
0.0
 11
683.0994960254177
 21
612.6386395578435
 31
0.0
  0
ARC
  5
1532
330
18
100
AcDbEntity
  8
ISO
100
AcDbCircle
 10
612.5394936276998
 20
612.6386395578435
 30
0.0
 40
11.76
100
AcDbArc
 50
90.0
 51
180.0
  0
LINE
  5
1533
330
18
100
AcDbEntity
  8
ISO
100
AcDbLine
 10
612.5394936276998
 20
624.3986395578434
 30
0.0
 11
683.0994960254177
 21
612.6386395578435
 31
0.0
  0
ARC
  5
1534
330
18
100
AcDbEntity
  8
ISO
100
AcDbCircle
 10
683.0994936277
 20
624.3986395578434
 30
0.0
 40
11.76
100
AcDbArc
 50
270.0
 51
360.0
  0
ARC
  5
1535
330
18
100
AcDbEntity
  8
ISO
100
AcDbCircle
 10
612.5394936276998
 20
636.1586395578432
 30
0.0
 40
11.76
100
AcDbArc
 50
180.0
 51
270.0
  0
ARC
  5
1536
330
18
100
AcDbEntity
  8
ISO
100
AcDbCircle
 10
683.0994936277
 20
624.3986395578434
 30
0.0
 40
11.76
100
AcDbArc
 50
0.0000000000000509
 51
90.0
  0
LINE
  5
1537
330
18
100
AcDbEntity
  8
ISO
100
AcDbLine
 10
612.5394936276998
 20
624.3986395578434
 30
0.0
 11
683.0994960254177
 21
636.1586395578432
 31
0.0
  0
ARC
  5
1538
330
18
100
AcDbEntity
  8
ISO
100
AcDbCircle
 10
612.5394936276998
 20
636.1586395578432
 30
0.0
 40
11.76
100
AcDbArc
 50
90.0
 51
180.0
  0
LINE
  5
1539
330
18
100
AcDbEntity
  8
ISO
100
AcDbLine
 10
612.5394936276998
 20
647.9186395578432
 30
0.0
 11
683.0994960254177
 21
636.1586395578432
 31
0.0
  0
ARC
  5
153A
330
18
100
AcDbEntity
  8
ISO
100
AcDbCircle
 10
683.0994936277
 20
647.9186395578432
 30
0.0
 40
11.76
100
AcDbArc
 50
270.0
 51
360.0
  0
ARC
  5
153B
330
18
100
AcDbEntity
  8
ISO
100
AcDbCircle
 10
612.5394936276998
 20
659.678639557843
 30
0.0
 40
11.76
100
AcDbArc
 50
180.0
 51
270.0
  0
ARC
  5
153C
330
18
100
AcDbEntity
  8
ISO
100
AcDbCircle
 10
683.0994936277
 20
647.9186395578432
 30
0.0
 40
11.76
100
AcDbArc
 50
0.0000000000000509
 51
90.0
  0
LINE
  5
153D
330
18
100
AcDbEntity
  8
ISO
100
AcDbLine
 10
612.5394936276998
 20
647.9186395578432
 30
0.0
 11
683.0994960254177
 21
659.678639557843
 31
0.0
  0
ARC
  5
153E
330
18
100
AcDbEntity
  8
ISO
100
AcDbCircle
 10
612.5394936276998
 20
659.678639557843
 30
0.0
 40
11.76
100
AcDbArc
 50
90.0
 51
180.0
  0
LINE
  5
153F
330
18
100
AcDbEntity
  8
ISO
100
AcDbLine
 10
612.5394936276998
 20
671.4386395578429
 30
0.0
 11
683.0994960254177
 21
659.678639557843
 31
0.0
  0
ARC
  5
1540
330
18
100
AcDbEntity
  8
ISO
100
AcDbCircle
 10
683.0994936277
 20
671.4386395578429
 30
0.0
 40
11.76
100
AcDbArc
 50
270.0
 51
360.0
  0
ARC
  5
1541
330
18
100
AcDbEntity
  8
ISO
100
AcDbCircle
 10
612.5394936276998
 20
683.1986395578427
 30
0.0
 40
11.76
100
AcDbArc
 50
180.0
 51
270.0
  0
ARC
  5
1542
330
18
100
AcDbEntity
  8
ISO
100
AcDbCircle
 10
683.0994936277
 20
671.4386395578429
 30
0.0
 40
11.76
100
AcDbArc
 50
0.0000000000000509
 51
90.0
  0
LINE
  5
1543
330
18
100
AcDbEntity
  8
ISO
100
AcDbLine
 10
612.5394936276998
 20
671.4386395578429
 30
0.0
 11
683.0994960254177
 21
683.1986395578427
 31
0.0
  0
ARC
  5
1544
330
18
100
AcDbEntity
  8
ISO
100
AcDbCircle
 10
612.5394936276998
 20
683.1986395578427
 30
0.0
 40
11.76
100
AcDbArc
 50
90.0
 51
180.0
  0
LINE
  5
1545
330
18
100
AcDbEntity
  8
ISO
100
AcDbLine
 10
612.5394936276998
 20
694.9586395578427
 30
0.0
 11
683.0994960254177
 21
683.1986395578427
 31
0.0
  0
ARC
  5
1546
330
18
100
AcDbEntity
  8
ISO
100
AcDbCircle
 10
683.0994936277
 20
694.9586395578427
 30
0.0
 40
11.76
100
AcDbArc
 50
270.0
 51
360.0
  0
ARC
  5
1547
330
18
100
AcDbEntity
  8
ISO
100
AcDbCircle
 10
612.5394936276998
 20
706.7186395578424
 30
0.0
 40
11.76
100
AcDbArc
 50
180.0
 51
270.0
  0
LINE
  5
1549
330
18
100
AcDbEntity
  8
ISO
100
AcDbLine
 10
612.5394936276998
 20
694.9586395578427
 30
0.0
 11
683.0994960254177
 21
706.7186395578424
 31
0.0
  0
ARC
  5
154A
330
18
100
AcDbEntity
  8
ISO
100
AcDbCircle
 10
612.5394936276998
 20
706.7186395578424
 30
0.0
 40
11.76
100
AcDbArc
 50
90.0
 51
180.0
  0
LINE
  5
154B
330
18
100
AcDbEntity
  8
ISO
100
AcDbLine
 10
612.5394936276998
 20
718.4786395578425
 30
0.0
 11
683.0994960254177
 21
706.7186395578424
 31
0.0
  0
ARC
  5
154D
330
18
100
AcDbEntity
  8
ISO
100
AcDbCircle
 10
612.5394936276998
 20
730.2386395578422
 30
0.0
 40
11.76
100
AcDbArc
 50
180.0
 51
270.0
  0
LINE
  5
154F
330
18
100
AcDbEntity
  8
ISO
100
AcDbLine
 10
612.5394936276998
 20
718.4786395578425
 30
0.0
 11
683.0994960254177
 21
730.2386395578422
 31
0.0
  0
ARC
  5
1550
330
18
100
AcDbEntity
  8
ISO
100
AcDbCircle
 10
612.5394936276998
 20
730.2386395578422
 30
0.0
 40
11.76
100
AcDbArc
 50
90.0
 51
180.0
  0
LINE
  5
1551
330
18
100
AcDbEntity
  8
ISO
100
AcDbLine
 10
612.5394936276998
 20
741.9986395578422
 30
0.0
 11
683.0994960254177
 21
730.2386395578422
 31
0.0
  0
ARC
  5
1553
330
18
100
AcDbEntity
  8
ISO
100
AcDbCircle
 10
612.5394936276998
 20
753.7586395578419
 30
0.0
 40
11.76
100
AcDbArc
 50
180.0
 51
270.0
  0
LINE
  5
1555
330
18
100
AcDbEntity
  8
ISO
100
AcDbLine
 10
612.5394936276998
 20
741.9986395578422
 30
0.0
 11
683.0994960254177
 21
753.7586395578419
 31
0.0
  0
ARC
  5
1556
330
18
100
AcDbEntity
  8
ISO
100
AcDbCircle
 10
612.5394936276998
 20
753.7586395578419
 30
0.0
 40
11.76
100
AcDbArc
 50
90.0
 51
180.0
  0
LINE
  5
1557
330
18
100
AcDbEntity
  8
ISO
100
AcDbLine
 10
612.5394936276998
 20
765.518639557842
 30
0.0
 11
683.0994960254177
 21
753.7586395578419
 31
0.0
  0
ARC
  5
1574
330
18
100
AcDbEntity
  8
ISO
100
AcDbCircle
 10
94.43560795173358
 20
824.587493839688
 30
0.0
 40
12.0
100
AcDbArc
 50
4.999999999999998
 51
41.04736563929296
  0
LINE
  5
1575
330
18
100
AcDbEntity
  8
ISO
100
AcDbLine
 10
106.3899443288346
 20
825.6333627526599
 30
0.0
 11
103.4856115598993
 21
788.4174413252075
 31
0.0
  0
ARC
  5
1576
330
18
100
AcDbEntity
  8
ISO
100
AcDbCircle
 10
112.665157806666
 20
753.9073444900542
 30
0.0
 40
12.0
100
AcDbArc
 50
220.0963718588949
 51
275.0
  0
ARC
  5
1577
330
18
100
AcDbEntity
  8
ISO
100
AcDbCircle
 10
118.3442807059352
 20
826.6792316656317
 30
0.0
 40
12.0
100
AcDbArc
 50
94.99999999999998
 51
185.0
  0
ARC
  5
1578
330
18
100
AcDbEntity
  8
ISO
100
AcDbCircle
 10
112.665157806666
 20
753.9073444900542
 30
0.0
 40
12.0
100
AcDbArc
 50
275.0
 51
4.999999999999998
  0
LINE
  5
1579
330
18
100
AcDbEntity
  8
ISO
100
AcDbLine
 10
106.3899443288346
 20
825.6333627526599
 30
0.0
 11
124.6194943970063
 21
754.9532109656856
 31
0.0
  0
ARC
  5
157A
330
18
100
AcDbEntity
  8
ISO
100
AcDbCircle
 10
118.3442807059352
 20
826.6792316656317
 30
0.0
 40
12.0
100
AcDbArc
 50
4.999999999999998
 51
94.99999999999996
  0
LINE
  5
157B
330
18
100
AcDbEntity
  8
ISO
100
AcDbLine
 10
130.2986170830363
 20
827.7251005786036
 30
0.0
 11
124.6194943970063
 21
754.9532109656856
 31
0.0
  0
ARC
  5
157C
330
18
100
AcDbEntity
  8
ISO
100
AcDbCircle
 10
136.5738305608677
 20
755.9990823159981
 30
0.0
 40
12.0
100
AcDbArc
 50
185.0
 51
275.0
  0
ARC
  5
157D
330
18
100
AcDbEntity
  8
ISO
100
AcDbCircle
 10
142.2529534601369
 20
828.7709694915756
 30
0.0
 40
12.0
100
AcDbArc
 50
94.99999999999998
 51
185.0
  0
ARC
  5
157E
330
18
100
AcDbEntity
  8
ISO
100
AcDbCircle
 10
136.5738305608677
 20
755.9990823159981
 30
0.0
 40
12.0
100
AcDbArc
 50
275.0
 51
4.999999999999998
  0
LINE
  5
157F
330
18
100
AcDbEntity
  8
ISO
100
AcDbLine
 10
130.2986170830363
 20
827.7251005786036
 30
0.0
 11
148.528167151208
 21
757.0449487916293
 31
0.0
  0
ARC
  5
1580
330
18
100
AcDbEntity
  8
ISO
100
AcDbCircle
 10
142.2529534601369
 20
828.7709694915756
 30
0.0
 40
12.0
100
AcDbArc
 50
4.999999999999998
 51
94.99999999999996
  0
LINE
  5
1581
330
18
100
AcDbEntity
  8
ISO
100
AcDbLine
 10
154.207289837238
 20
829.8168384045474
 30
0.0
 11
148.528167151208
 21
757.0449487916293
 31
0.0
  0
ARC
  5
1582
330
18
100
AcDbEntity
  8
ISO
100
AcDbCircle
 10
160.4825033150694
 20
758.0908201419418
 30
0.0
 40
12.0
100
AcDbArc
 50
185.0
 51
275.0
  0
ARC
  5
1583
330
18
100
AcDbEntity
  8
ISO
100
AcDbCircle
 10
166.1616262143386
 20
830.8627073175193
 30
0.0
 40
12.0
100
AcDbArc
 50
94.99999999999998
 51
185.0
  0
ARC
  5
1584
330
18
100
AcDbEntity
  8
ISO
100
AcDbCircle
 10
160.4825033150694
 20
758.0908201419418
 30
0.0
 40
12.0
100
AcDbArc
 50
275.0
 51
4.999999999999998
  0
LINE
  5
1585
330
18
100
AcDbEntity
  8
ISO
100
AcDbLine
 10
154.207289837238
 20
829.8168384045474
 30
0.0
 11
172.4368399054097
 21
759.136686617573
 31
0.0
  0
ARC
  5
1586
330
18
100
AcDbEntity
  8
ISO
100
AcDbCircle
 10
166.1616262143386
 20
830.8627073175193
 30
0.0
 40
12.0
100
AcDbArc
 50
4.999999999999998
 51
94.99999999999996
  0
LINE
  5
1587
330
18
100
AcDbEntity
  8
ISO
100
AcDbLine
 10
178.1159625914397
 20
831.9085762304911
 30
0.0
 11
172.4368399054097
 21
759.136686617573
 31
0.0
  0
ARC
  5
1588
330
18
100
AcDbEntity
  8
ISO
100
AcDbCircle
 10
184.3911760692708
 20
760.1825579678855
 30
0.0
 40
12.0
100
AcDbArc
 50
185.0
 51
275.0
  0
ARC
  5
1589
330
18
100
AcDbEntity
  8
ISO
100
AcDbCircle
 10
190.0702989685403
 20
832.954445143463
 30
0.0
 40
12.0
100
AcDbArc
 50
94.99999999999998
 51
185.0
  0
ARC
  5
158A
330
18
100
AcDbEntity
  8
ISO
100
AcDbCircle
 10
184.3911760692708
 20
760.1825579678855
 30
0.0
 40
12.0
100
AcDbArc
 50
275.0
 51
4.999999999999998
  0
LINE
  5
158B
330
18
100
AcDbEntity
  8
ISO
100
AcDbLine
 10
178.1159625914397
 20
831.9085762304911
 30
0.0
 11
196.3455126596113
 21
761.2284244435169
 31
0.0
  0
ARC
  5
158C
330
18
100
AcDbEntity
  8
ISO
100
AcDbCircle
 10
190.0702989685403
 20
832.954445143463
 30
0.0
 40
12.0
100
AcDbArc
 50
4.999999999999998
 51
94.99999999999996
  0
LINE
  5
158D
330
18
100
AcDbEntity
  8
ISO
100
AcDbLine
 10
202.0246353456414
 20
834.0003140564348
 30
0.0
 11
196.3455126596113
 21
761.2284244435169
 31
0.0
  0
ARC
  5
158E
330
18
100
AcDbEntity
  8
ISO
100
AcDbCircle
 10
208.2998488234725
 20
762.2742957938292
 30
0.0
 40
12.0
100
AcDbArc
 50
185.0
 51
275.0
  0
ARC
  5
158F
330
18
100
AcDbEntity
  8
ISO
100
AcDbCircle
 10
213.978971722742
 20
835.0461829694069
 30
0.0
 40
12.0
100
AcDbArc
 50
94.99999999999998
 51
185.0
  0
ARC
  5
1590
330
18
100
AcDbEntity
  8
ISO
100
AcDbCircle
 10
208.2998488234725
 20
762.2742957938292
 30
0.0
 40
12.0
100
AcDbArc
 50
275.0
 51
4.999999999999998
  0
LINE
  5
1591
330
18
100
AcDbEntity
  8
ISO
100
AcDbLine
 10
202.0246353456414
 20
834.0003140564348
 30
0.0
 11
220.254185413813
 21
763.3201622694606
 31
0.0
  0
ARC
  5
1592
330
18
100
AcDbEntity
  8
ISO
100
AcDbCircle
 10
213.978971722742
 20
835.0461829694069
 30
0.0
 40
12.0
100
AcDbArc
 50
4.999999999999998
 51
94.99999999999996
  0
LINE
  5
1593
330
18
100
AcDbEntity
  8
ISO
100
AcDbLine
 10
225.9333080998429
 20
836.0920518823789
 30
0.0
 11
220.254185413813
 21
763.3201622694606
 31
0.0
  0
ARC
  5
1594
330
18
100
AcDbEntity
  8
ISO
100
AcDbCircle
 10
232.2085215776742
 20
764.3660336197731
 30
0.0
 40
12.0
100
AcDbArc
 50
185.0
 51
275.0
  0
ARC
  5
1595
330
18
100
AcDbEntity
  8
ISO
100
AcDbCircle
 10
237.8876444769437
 20
837.1379207953506
 30
0.0
 40
12.0
100
AcDbArc
 50
94.99999999999998
 51
185.0
  0
ARC
  5
1596
330
18
100
AcDbEntity
  8
ISO
100
AcDbCircle
 10
232.2085215776742
 20
764.3660336197731
 30
0.0
 40
12.0
100
AcDbArc
 50
275.0
 51
4.999999999999998
  0
LINE
  5
1597
330
18
100
AcDbEntity
  8
ISO
100
AcDbLine
 10
225.9333080998429
 20
836.0920518823789
 30
0.0
 11
244.1628581680147
 21
765.4119000954044
 31
0.0
  0
ARC
  5
1598
330
18
100
AcDbEntity
  8
ISO
100
AcDbCircle
 10
237.8876444769437
 20
837.1379207953506
 30
0.0
 40
12.0
100
AcDbArc
 50
4.999999999999998
 51
94.99999999999996
  0
LINE
  5
1599
330
18
100
AcDbEntity
  8
ISO
100
AcDbLine
 10
249.8419808540445
 20
838.1837897083226
 30
0.0
 11
244.1628581680147
 21
765.4119000954044
 31
0.0
  0
ARC
  5
159A
330
18
100
AcDbEntity
  8
ISO
100
AcDbCircle
 10
256.1171943318759
 20
766.4577714457168
 30
0.0
 40
12.0
100
AcDbArc
 50
185.0
 51
275.0
  0
ARC
  5
159B
330
18
100
AcDbEntity
  8
ISO
100
AcDbCircle
 10
261.7963172311452
 20
839.2296586212944
 30
0.0
 40
12.0
100
AcDbArc
 50
94.99999999999998
 51
185.0
  0
ARC
  5
159C
330
18
100
AcDbEntity
  8
ISO
100
AcDbCircle
 10
256.1171943318759
 20
766.4577714457168
 30
0.0
 40
12.0
100
AcDbArc
 50
275.0
 51
4.999999999999998
  0
LINE
  5
159D
330
18
100
AcDbEntity
  8
ISO
100
AcDbLine
 10
249.8419808540445
 20
838.1837897083226
 30
0.0
 11
268.0715309222164
 21
767.5036379213481
 31
0.0
  0
ARC
  5
159E
330
18
100
AcDbEntity
  8
ISO
100
AcDbCircle
 10
261.7963172311452
 20
839.2296586212944
 30
0.0
 40
12.0
100
AcDbArc
 50
4.999999999999998
 51
94.99999999999996
  0
LINE
  5
159F
330
18
100
AcDbEntity
  8
ISO
100
AcDbLine
 10
273.7506536082463
 20
840.2755275342663
 30
0.0
 11
268.0715309222164
 21
767.5036379213481
 31
0.0
  0
ARC
  5
15A0
330
18
100
AcDbEntity
  8
ISO
100
AcDbCircle
 10
280.0258670860776
 20
768.5495092716607
 30
0.0
 40
12.0
100
AcDbArc
 50
185.0
 51
275.0
  0
ARC
  5
15A1
330
18
100
AcDbEntity
  8
ISO
100
AcDbCircle
 10
285.7049899853469
 20
841.3213964472383
 30
0.0
 40
12.0
100
AcDbArc
 50
94.99999999999998
 51
185.0
  0
ARC
  5
15A2
330
18
100
AcDbEntity
  8
ISO
100
AcDbCircle
 10
280.0258670860776
 20
768.5495092716607
 30
0.0
 40
12.0
100
AcDbArc
 50
275.0
 51
4.999999999999998
  0
LINE
  5
15A3
330
18
100
AcDbEntity
  8
ISO
100
AcDbLine
 10
273.7506536082463
 20
840.2755275342663
 30
0.0
 11
291.9802036764181
 21
769.595375747292
 31
0.0
  0
ARC
  5
15A4
330
18
100
AcDbEntity
  8
ISO
100
AcDbCircle
 10
285.7049899853469
 20
841.3213964472383
 30
0.0
 40
12.0
100
AcDbArc
 50
4.999999999999998
 51
94.99999999999996
  0
LINE
  5
15A5
330
18
100
AcDbEntity
  8
ISO
100
AcDbLine
 10
297.6593263624479
 20
842.36726536021
 30
0.0
 11
291.9802036764181
 21
769.595375747292
 31
0.0
  0
ARC
  5
15A6
330
18
100
AcDbEntity
  8
ISO
100
AcDbCircle
 10
303.9345398402793
 20
770.6412470976045
 30
0.0
 40
12.0
100
AcDbArc
 50
185.0
 51
275.0
  0
ARC
  5
15A7
330
18
100
AcDbEntity
  8
ISO
100
AcDbCircle
 10
309.6136627395485
 20
843.413134273182
 30
0.0
 40
12.0
100
AcDbArc
 50
94.99999999999998
 51
185.0
  0
ARC
  5
15A8
330
18
100
AcDbEntity
  8
ISO
100
AcDbCircle
 10
303.9345398402793
 20
770.6412470976045
 30
0.0
 40
12.0
100
AcDbArc
 50
275.0
 51
4.999999999999998
  0
LINE
  5
15A9
330
18
100
AcDbEntity
  8
ISO
100
AcDbLine
 10
297.6593263624479
 20
842.36726536021
 30
0.0
 11
315.8888764306198
 21
771.6871135732357
 31
0.0
  0
ARC
  5
15AA
330
18
100
AcDbEntity
  8
ISO
100
AcDbCircle
 10
309.6136627395485
 20
843.413134273182
 30
0.0
 40
12.0
100
AcDbArc
 50
4.999999999999998
 51
94.99999999999996
  0
LINE
  5
15AB
330
18
100
AcDbEntity
  8
ISO
100
AcDbLine
 10
321.5679991166496
 20
844.4590031861539
 30
0.0
 11
315.8888764306198
 21
771.6871135732357
 31
0.0
  0
ARC
  5
15AC
330
18
100
AcDbEntity
  8
ISO
100
AcDbCircle
 10
327.843212594481
 20
772.7329849235482
 30
0.0
 40
12.0
100
AcDbArc
 50
185.0
 51
275.0
  0
ARC
  5
15AD
330
18
100
AcDbEntity
  8
ISO
100
AcDbCircle
 10
333.5223354937502
 20
845.5048720991257
 30
0.0
 40
12.0
100
AcDbArc
 50
94.99999999999998
 51
185.0
  0
ARC
  5
15AE
330
18
100
AcDbEntity
  8
ISO
100
AcDbCircle
 10
327.843212594481
 20
772.7329849235482
 30
0.0
 40
12.0
100
AcDbArc
 50
275.0
 51
4.999999999999998
  0
LINE
  5
15AF
330
18
100
AcDbEntity
  8
ISO
100
AcDbLine
 10
321.5679991166496
 20
844.4590031861539
 30
0.0
 11
339.7975491848215
 21
773.7788513991795
 31
0.0
  0
ARC
  5
15E6
330
18
100
AcDbEntity
  8
ISO
100
AcDbCircle
 10
620.4264085441702
 20
870.6057260104509
 30
0.0
 40
12.0
100
AcDbArc
 50
94.99999999999998
 51
185.0
  0
ARC
  5
15E7
330
18
100
AcDbEntity
  8
ISO
100
AcDbCircle
 10
614.7472856449009
 20
797.8338388348735
 30
0.0
 40
12.0
100
AcDbArc
 50
275.0
 51
4.999999999999998
  0
LINE
  5
15E8
330
18
100
AcDbEntity
  8
ISO
100
AcDbLine
 10
608.4720721670696
 20
869.5598570974791
 30
0.0
 11
626.7016222352412
 21
798.8797053105047
 31
0.0
  0
ARC
  5
15E9
330
18
100
AcDbEntity
  8
ISO
100
AcDbCircle
 10
620.4264085441702
 20
870.6057260104509
 30
0.0
 40
12.0
100
AcDbArc
 50
4.999999999999998
 51
94.99999999999996
  0
LINE
  5
15EA
330
18
100
AcDbEntity
  8
ISO
100
AcDbLine
 10
632.3807449212713
 20
871.6515949234228
 30
0.0
 11
626.7016222352412
 21
798.8797053105047
 31
0.0
  0
ARC
  5
15EB
330
18
100
AcDbEntity
  8
ISO
100
AcDbCircle
 10
638.6559583991027
 20
799.9255766608173
 30
0.0
 40
12.0
100
AcDbArc
 50
185.0
 51
275.0
  0
ARC
  5
15EC
330
18
100
AcDbEntity
  8
ISO
100
AcDbCircle
 10
644.335081298372
 20
872.6974638363946
 30
0.0
 40
12.0
100
AcDbArc
 50
94.99999999999998
 51
185.0
  0
ARC
  5
15ED
330
18
100
AcDbEntity
  8
ISO
100
AcDbCircle
 10
638.6559583991027
 20
799.9255766608173
 30
0.0
 40
12.0
100
AcDbArc
 50
275.0
 51
4.999999999999998
  0
LINE
  5
15EE
330
18
100
AcDbEntity
  8
ISO
100
AcDbLine
 10
632.3807449212713
 20
871.6515949234228
 30
0.0
 11
650.610294989443
 21
800.9714431364486
 31
0.0
  0
ARC
  5
15EF
330
18
100
AcDbEntity
  8
ISO
100
AcDbCircle
 10
644.335081298372
 20
872.6974638363946
 30
0.0
 40
12.0
100
AcDbArc
 50
4.999999999999998
 51
94.99999999999996
  0
LINE
  5
15F0
330
18
100
AcDbEntity
  8
ISO
100
AcDbLine
 10
656.289417675473
 20
873.7433327493668
 30
0.0
 11
650.610294989443
 21
800.9714431364486
 31
0.0
  0
ARC
  5
15F1
330
18
100
AcDbEntity
  8
ISO
100
AcDbCircle
 10
662.5646311533041
 20
802.0173144867611
 30
0.0
 40
12.0
100
AcDbArc
 50
185.0
 51
275.0
  0
ARC
  5
15F2
330
18
100
AcDbEntity
  8
ISO
100
AcDbCircle
 10
668.2437540525736
 20
874.7892016623387
 30
0.0
 40
12.0
100
AcDbArc
 50
94.99999999999998
 51
185.0
  0
ARC
  5
15F3
330
18
100
AcDbEntity
  8
ISO
100
AcDbCircle
 10
662.5646311533041
 20
802.0173144867611
 30
0.0
 40
12.0
100
AcDbArc
 50
275.0
 51
4.999999999999998
  0
LINE
  5
15F4
330
18
100
AcDbEntity
  8
ISO
100
AcDbLine
 10
656.289417675473
 20
873.7433327493668
 30
0.0
 11
674.5189677436447
 21
803.0631809623923
 31
0.0
  0
ARC
  5
15F5
330
18
100
AcDbEntity
  8
ISO
100
AcDbCircle
 10
668.2437540525736
 20
874.7892016623387
 30
0.0
 40
12.0
100
AcDbArc
 50
4.999999999999998
 51
94.99999999999996
  0
LINE
  5
15F6
330
18
100
AcDbEntity
  8
ISO
100
AcDbLine
 10
680.1980904296747
 20
875.8350705753105
 30
0.0
 11
674.5189677436447
 21
803.0631809623923
 31
0.0
  0
ARC
  5
15F7
330
18
100
AcDbEntity
  8
ISO
100
AcDbCircle
 10
686.4733039075058
 20
804.1090523127049
 30
0.0
 40
12.0
100
AcDbArc
 50
185.0
 51
275.0
  0
ARC
  5
15F8
330
18
100
AcDbEntity
  8
ISO
100
AcDbCircle
 10
692.1524268067753
 20
876.8809394882824
 30
0.0
 40
12.0
100
AcDbArc
 50
94.99999999999998
 51
185.0
  0
ARC
  5
15F9
330
18
100
AcDbEntity
  8
ISO
100
AcDbCircle
 10
686.4733039075058
 20
804.1090523127049
 30
0.0
 40
12.0
100
AcDbArc
 50
275.0
 51
4.999999999999998
  0
LINE
  5
15FA
330
18
100
AcDbEntity
  8
ISO
100
AcDbLine
 10
680.1980904296747
 20
875.8350705753105
 30
0.0
 11
698.4276404978463
 21
805.1549187883361
 31
0.0
  0
ARC
  5
15FB
330
18
100
AcDbEntity
  8
ISO
100
AcDbCircle
 10
692.1524268067753
 20
876.8809394882824
 30
0.0
 40
12.0
100
AcDbArc
 50
52.4424614339119
 51
94.99999999999996
  0
ARC
  5
1602
330
18
100
AcDbEntity
  8
ISO
100
AcDbCircle
 10
612.5394936276998
 20
187.0970761548879
 30
0.0
 40
11.76
100
AcDbArc
 50
90.0
 51
180.0
  0
LINE
  5
1603
330
18
100
AcDbEntity
  8
ISO
100
AcDbLine
 10
612.5394936276998
 20
198.8570761548878
 30
0.0
 11
683.0994960254177
 21
187.0970761548879
 31
0.0
  0
ARC
  5
1604
330
18
100
AcDbEntity
  8
ISO
100
AcDbCircle
 10
683.0994936277
 20
198.8570761548878
 30
0.0
 40
11.76
100
AcDbArc
 50
270.0
 51
360.0
  0
ARC
  5
1606
330
18
100
AcDbEntity
  8
ISO
100
AcDbCircle
 10
683.0994936277
 20
269.4170761548873
 30
0.0
 40
11.76
100
AcDbArc
 50
47.89340529737699
 51
90.0
  0
ARC
  5
1607
330
18
100
AcDbEntity
  8
ISO
100
AcDbCircle
 10
683.0994936277
 20
245.8970761548875
 30
0.0
 40
11.76
100
AcDbArc
 50
44.99388315988064
 51
90.0
  0
ARC
  5
1609
330
18
100
AcDbEntity
  8
ISO
100
AcDbCircle
 10
683.0994936277
 20
222.3770761548877
 30
0.0
 40
11.76
100
AcDbArc
 50
55.17082286008808
 51
90.0
  0
LINE
  5
160C
330
18
100
AcDbEntity
  8
TXT-D
100
AcDbLine
 10
588.2716570743022
 20
825.6554041321116
 30
0.0
 11
794.4629004559628
 21
825.6554041321116
 31
0.0
  0
ARC
  5
160F
330
18
100
AcDbEntity
  8
ISO
100
AcDbCircle
 10
634.0727513176085
 20
895.0001923982972
 30
0.0
 40
8.550610605435199
100
AcDbArc
 50
220.928822421874
 51
275.0
  0
ARC
  5
1610
330
18
100
AcDbEntity
  8
ISO
100
AcDbCircle
 10
634.0727513176085
 20
895.000192398297
 30
0.0
 40
8.550610605435199
100
AcDbArc
 50
275.0
 51
5.000000000000002
  0
LINE
  5
1611
330
18
100
AcDbEntity
  8
ISO
100
AcDbLine
 10
641.2796043054243
 20
900.8293269687454
 30
0.0
 11
642.5908244201342
 21
895.7454254798307
 31
0.0
  0
LINE
  5
1612
330
18
100
AcDbEntity
  8
ISO
100
AcDbLine
 10
643.1326152481259
 20
902.6878960879914
 30
0.0
 11
642.5908244201342
 21
895.7454254798307
 31
0.0
  0
ARC
  5
1613
330
18
100
AcDbEntity
  8
ISO
100
AcDbCircle
 10
651.1088972187716
 20
896.4906620348225
 30
0.0
 40
8.550610605435199
100
AcDbArc
 50
185.0
 51
275.0
  0
ARC
  5
1614
330
18
100
AcDbEntity
  8
ISO
100
AcDbCircle
 10
651.1088972187716
 20
896.4906620348225
 30
0.0
 40
8.550610605435199
100
AcDbArc
 50
275.0
 51
5.000000000000002
  0
LINE
  5
1615
330
18
100
AcDbEntity
  8
ISO
100
AcDbLine
 10
655.1198394671405
 20
914.7110764403183
 30
0.0
 11
659.6269703212973
 21
897.2358951163561
 31
0.0
  0
LINE
  5
1616
330
18
100
AcDbEntity
  8
ISO
100
AcDbLine
 10
663.6736342103587
 20
949.0895693748376
 30
0.0
 11
662.8515541894379
 21
938.5554922219357
 31
0.0
  0
ARC
  5
1617
330
18
100
AcDbEntity
  8
ISO
100
AcDbCircle
 10
668.1450431199348
 20
897.981131671348
 30
0.0
 40
8.550610605435199
100
AcDbArc
 50
185.0
 51
275.0
  0
ARC
  5
1618
330
18
100
AcDbEntity
  8
ISO
100
AcDbCircle
 10
672.1917071609401
 20
949.8348041931004
 30
0.0
 40
8.550610605435199
100
AcDbArc
 50
94.99999999999998
 51
185.0
  0
ARC
  5
1619
330
18
100
AcDbEntity
  8
ISO
100
AcDbCircle
 10
668.1450431199348
 20
897.9811316713478
 30
0.0
 40
8.550610605435199
100
AcDbArc
 50
275.0
 51
5.000000000000002
  0
LINE
  5
161A
330
18
100
AcDbEntity
  8
ISO
100
AcDbLine
 10
663.6736342103587
 20
949.0895693748376
 30
0.0
 11
676.6631162224605
 21
898.7263647528815
 31
0.0
  0
ARC
  5
161B
330
18
100
AcDbEntity
  8
ISO
100
AcDbCircle
 10
672.1917071609401
 20
949.8348041931004
 30
0.0
 40
8.550610605435199
100
AcDbArc
 50
5.000000000000002
 51
94.99999999999996
  0
LINE
  5
161C
330
18
100
AcDbEntity
  8
ISO
100
AcDbLine
 10
680.7097801115218
 20
950.5800390113627
 30
0.0
 11
676.6631162224605
 21
898.7263647528815
 31
0.0
  0
ARC
  5
161D
330
18
100
AcDbEntity
  8
ISO
100
AcDbCircle
 10
685.1811890210979
 20
899.4716013078733
 30
0.0
 40
8.550610605435199
100
AcDbArc
 50
185.0
 51
275.0
  0
ARC
  5
161E
330
18
100
AcDbEntity
  8
ISO
100
AcDbCircle
 10
689.2278530621032
 20
951.3252738296255
 30
0.0
 40
8.550610605435199
100
AcDbArc
 50
94.99999999999998
 51
185.0
  0
ARC
  5
161F
330
18
100
AcDbEntity
  8
ISO
100
AcDbCircle
 10
685.1811890210979
 20
899.4716013078733
 30
0.0
 40
8.550610605435199
100
AcDbArc
 50
275.0
 51
5.000000000000002
  0
LINE
  5
1620
330
18
100
AcDbEntity
  8
ISO
100
AcDbLine
 10
680.7097801115218
 20
950.5800390113627
 30
0.0
 11
693.6992621236235
 21
900.2168343894069
 31
0.0
  0
ARC
  5
1621
330
18
100
AcDbEntity
  8
ISO
100
AcDbCircle
 10
689.2278530621032
 20
951.3252738296255
 30
0.0
 40
8.550610605435199
100
AcDbArc
 50
5.000000000000002
 51
94.99999999999996
  0
LINE
  5
1622
330
18
100
AcDbEntity
  8
ISO
100
AcDbLine
 10
697.7459260126849
 20
952.0705086478884
 30
0.0
 11
693.6992621236235
 21
900.2168343894069
 31
0.0
  0
ARC
  5
1623
330
18
100
AcDbEntity
  8
ISO
100
AcDbCircle
 10
702.2173349222611
 20
900.9620709443987
 30
0.0
 40
8.550610605435199
100
AcDbArc
 50
185.0
 51
251.2378964364734
  0
LINE
  5
1624
330
18
100
AcDbEntity
  8
ISO
100
AcDbLine
 10
661.4892984917897
 20
921.0996408986892
 30
0.0
 11
659.6269703212973
 21
897.2358951163561
 31
0.0
  0
ARC
  5
1625
330
18
100
AcDbEntity
  8
ISO
100
AcDbCircle
 10
655.1555612597764
 20
948.3443345565651
 30
0.0
 40
8.550610605435199
100
AcDbArc
 50
5.000000000000002
 51
42.16966224650671
  0
ARC
  5
1626
330
18
100
AcDbEntity
  8
ISO
100
AcDbCircle
 10
333.5223354937502
 20
845.5048720991257
 30
0.0
 40
12.0
100
AcDbArc
 50
60.84186279715873
 51
94.99999999999996
  0
LINE
  5
1627
330
18
100
AcDbEntity
  8
ISO
100
AcDbLine
 10
343.0011144849362
 20
814.8291180118729
 30
0.0
 11
339.7975491848215
 21
773.7788513991795
 31
0.0
  0
LWPOLYLINE
  5
167F
330
18
100
AcDbEntity
  8
V25
  6
Continuous
100
AcDbPolyline
 90
        2
 70
     0
 43
0.0
 10
103.4856115598992
 20
737.1318255674329
 10
693.1157068247183
 20
788.7177745768155
  0
LWPOLYLINE
  5
1680
330
18
100
AcDbEntity
  8
V25
  6
Continuous
100
AcDbPolyline
 90
        2
 70
     0
 43
0.0
 10
103.4856115598992
 20
733.1165462172594
 10
693.4643297957089
 20
784.7329957844484
  0
LWPOLYLINE
  5
1F23
330
18
100
AcDbEntity
  8
V5
100
AcDbPolyline
 90
        2
 70
     0
 43
15.0
 10
344.4985599672671
 20
770.1116071409093
 10
407.756923296093
 20
775.6459968053856
  0
LWPOLYLINE
  5
1F24
330
18
100
AcDbEntity
  8
V5
100
AcDbPolyline
 90
        2
 70
     0
 43
2.75
 10
405.3412866732449
 20
787.4804940362085
 10
405.7334875156096
 20
782.9976178947957
  0
LINE
  5
1F25
330
18
100
AcDbEntity
  8
V25
 62
     4
100
AcDbLine
 10
398.3885384486076
 20
735.8036239920298
 30
0.0
 11
393.4184309803932
 21
793.8526719308858
 31
0.0
  0
LINE
  5
1F26
330
18
100
AcDbEntity
  8
V5
100
AcDbLine
 10
346.5844273164121
 20
777.8227456691536
 30
0.0
 11
404.3637198057333
 21
782.8777787485178
 31
0.0
  0
LINE
  5
1F27
330
18
100
AcDbEntity
  8
V5
100
AcDbLine
 10
346.1486486026738
 20
782.8037191596122
 30
0.0
 11
403.9279410919951
 21
787.8587522389764
 31
0.0
  0
LINE
  5
1F28
330
18
100
AcDbEntity
  8
V5
100
AcDbLine
 10
396.4734754605547
 20
868.6532769494975
 30
0.0
 11
403.9277185419634
 21
787.8612959974746
 31
0.0
  0
LINE
  5
1F29
330
18
100
AcDbEntity
  8
V5
100
AcDbLine
 10
404.3637198057333
 20
782.8777787485178
 30
0.0
 11
403.9279410919951
 21
787.8587522389764
 31
0.0
  0
LINE
  5
1F2A
330
18
100
AcDbEntity
  8
V5
100
AcDbLine
 10
338.6941829712337
 20
863.5982438701333
 30
0.0
 11
346.1486486026738
 21
782.8037191596122
 31
0.0
  0
LWPOLYLINE
  5
1F2B
330
18
100
AcDbEntity
  8
V5
100
AcDbPolyline
 90
        2
 70
     0
 43
2.75
 10
344.8224587641714
 20
782.1857826642883
 10
345.2146596065359
 20
777.7029065228755
  0
LINE
  5
1F2C
330
18
100
AcDbEntity
  8
V5
100
AcDbLine
 10
346.5844273164121
 20
777.8227456691536
 30
0.0
 11
346.1486486026738
 21
782.8037191596122
 31
0.0
  0
LINE
  5
1F2D
330
18
100
AcDbEntity
  8
V25
 62
     4
100
AcDbLine
 10
360.7055215624242
 20
732.5067872070329
 30
0.0
 11
355.7320760444491
 21
790.5948223532694
 31
0.0
  0
LWPOLYLINE
  5
1F2E
330
18
100
AcDbEntity
  8
V5
  6
Continuous
 62
     7
100
AcDbPolyline
 90
        4
 70
     1
 43
0.8
 10
541.7139660828629
 20
943.1219849589936
 10
546.8956159251456
 20
883.8954562471089
 10
570.3802622443372
 20
885.9500965669543
 10
565.1986124020545
 20
945.1766252788386
  0
INSERT
  5
1F2F
330
18
100
AcDbEntity
  8
V25
100
AcDbBlockReference
  2
*X1
 10
183.2833928491582
 20
446.008139176552
 30
0.0
 50
5.000000000000026
  0
LWPOLYLINE
  5
1F31
330
18
100
AcDbEntity
  8
V5
  6
Continuous
100
AcDbPolyline
 90
        6
 70
     0
 43
1.5
 10
515.6630175262367
 20
881.8730563035099
 10
510.2157836045079
 20
944.135224934244
 10
509.692849148022
 20
950.1123931227944
 10
530.1148404589027
 20
951.8990858491212
 10
537.4473914631833
 20
948.4196252131733
 10
564.8427456607062
 20
950.816408138734
  0
LWPOLYLINE
  5
1F32
330
18
100
AcDbEntity
  8
V5
  6
Continuous
 62
     7
100
AcDbPolyline
 90
        2
 70
     0
 43
1.5
 10
537.4474374562756
 20
948.4196292370475
 10
543.0582377929376
 20
884.2698275116417
  0
LINE
  5
1F34
330
18
100
AcDbEntity
  8
V35
100
AcDbLine
 10
549.837488759113
 20
955.942449142149
 30
0.0
 11
551.5321193075333
 21
936.5727333398476
 31
0.0
  0
LINE
  5
1F35
330
18
100
AcDbEntity
  8
V35
100
AcDbLine
 10
519.7766594805659
 20
961.463757031329
 30
0.0
 11
521.0059249452374
 21
947.4131884761536
 31
0.0
  0
LINE
  5
1F36
330
18
100
AcDbEntity
  8
V35
100
AcDbLine
 10
637.7702848377929
 20
963.058136749362
 30
0.0
 11
639.2641874238847
 21
945.9827520551037
 31
0.0
  0
LINE
  5
1F3B
330
18
100
AcDbEntity
  8
TXT-E
  6
VERDECKTX2
 48
5.0
100
AcDbLine
 10
498.6471382879471
 20
1155.400732619086
 30
0.0
 11
519.2457286101115
 21
1155.400732619086
 31
0.0
  0
LINE
  5
1F3C
330
18
100
AcDbEntity
  8
TXT-E
  6
VERDECKTX2
 48
5.0
100
AcDbLine
 10
519.2457286101115
 20
1155.400732619086
 30
0.0
 11
519.2457286101115
 21
962.0283253715664
 31
0.0
  0
LINE
  5
1F3F
330
18
100
AcDbEntity
  8
V25
100
AcDbLine
 10
532.1282727006871
 20
623.0090889070795
 30
0.0
 11
528.6922738690446
 21
662.2827352649809
 31
0.0
  0
LINE
  5
1F40
330
18
100
AcDbEntity
  8
V25
100
AcDbLine
 10
428.5815343139438
 20
740.5829601121027
 30
0.0
 11
426.8635348981224
 21
760.2197832910531
 31
0.0
  0
LINE
  5
1F41
330
18
100
AcDbEntity
  8
V25
100
AcDbLine
 10
149.6033254761075
 20
716.1755294680242
 30
0.0
 11
147.8853260602861
 21
735.8123526469747
 31
0.0
  0
LWPOLYLINE
  5
1F42
330
18
100
AcDbEntity
  8
V5
100
AcDbPolyline
 90
       11
 70
     0
 43
2.2
 10
685.9948275858145
 20
225.8582214505479
 10
690.9948275858145
 20
234.5184754883923
 10
690.9948275858145
 20
284.5184754883923
 10
670.9948275858145
 20
284.5184754883923
 10
664.9375071391829
 20
278.4611550417607
 10
616.1393115556104
 20
278.1205314271603
 10
610.0819911089787
 20
284.1778518737919
 10
592.0819911089788
 20
284.1778518737919
 10
592.0819911089788
 20
199.1778518737919
 10
598.0819911089788
 20
193.1778518737919
 10
598.0819911089788
 20
181.3670592339247
  0
LINE
  5
1F45
330
18
100
AcDbEntity
  8
ISO
100
AcDbLine
 10
648.7193933313551
 20
181.3670592339247
 30
0.0
 11
683.0994960254177
 21
187.0970761548884
 31
0.0
  0
ARC
  5
1F46
330
18
100
AcDbEntity
  8
ISO
100
AcDbCircle
 10
683.0994936277
 20
175.3370761548885
 30
0.0
 40
11.76
100
AcDbArc
 50
30.84742456320918
 51
90.0
  0
ARC
  5
1F47
330
18
100
AcDbEntity
  8
ISO
100
AcDbCircle
 10
612.5394936276998
 20
187.0970761548884
 30
0.0
 40
11.76
100
AcDbArc
 50
180.0
 51
209.1597514055337
  0
LINE
  5
1F68
330
18
100
AcDbEntity
  8
TXT-D
 48
5.0
100
AcDbLine
 10
479.5250016645622
 20
446.3531079212282
 30
0.0
 11
519.7960154814272
 21
446.353107921228
 31
0.0
  0
LINE
  5
1F69
330
18
100
AcDbEntity
  8
TXT-D
 48
5.0
100
AcDbLine
 10
519.7960154814272
 20
446.353107921228
 30
0.0
 11
519.7960154814272
 21
764.0900200314548
 31
0.0
  0
LINE
  5
1F6B
330
18
100
AcDbEntity
  8
TXT-D
 48
5.0
100
AcDbLine
 10
491.2505471670693
 20
508.0168273225181
 30
0.0
 11
491.2505471670693
 21
683.4993792610561
 31
0.0
  0
LWPOLYLINE
  5
1F7F
102
{ACAD_REACTORS
330
1F80
102
}
330
18
100
AcDbEntity
  8
V25
  6
AUSGEZOGEN
 48
5.0
100
AcDbPolyline
 90
        4
 70
     1
 43
0.0
 10
592.0819911089788
 20
285.475175372417
 10
612.2843780696721
 20
285.475175372417
 10
612.2843780696721
 20
290.475175372417
 10
592.0819911089788
 20
290.475175372417
  0
HATCH
  5
1F80
330
18
100
AcDbEntity
  8
V25
 48
5.0
100
AcDbHatch
 10
0.0
 20
0.0
 30
0.0
210
0.0
220
0.0
230
1.0
  2
ANSI37
 70
     0
 71
     1
 91
        1
 92
        7
 72
     0
 73
     1
 93
        4
 10
592.0819911089788
 20
290.475175372417
 10
592.0819911089788
 20
285.475175372417
 10
612.2843780696721
 20
285.475175372417
 10
612.2843780696721
 20
290.475175372417
 97
        1
330
1F7F
 75
     0
 76
     1
 52
0.0
 41
1.0
 77
     0
 78
     2
 53
45.0
 43
107.7659671409848
 44
-366.7075896144459
 45
-2.245064030267287
 46
2.245064030267288
 79
     0
 53
135.0
 43
107.7659671409848
 44
-366.7075896144459
 45
-2.245064030267288
 46
-2.245064030267287
 79
     0
 47
0.1149827854136383
 98
        1
 10
610.3577547633396
 20
288.8056873548023
  0
LWPOLYLINE
  5
1F81
102
{ACAD_REACTORS
330
1F82
102
}
330
18
100
AcDbEntity
  8
V25
  6
AUSGEZOGEN
 48
5.0
100
AcDbPolyline
 90
        4
 70
     1
 43
0.0
 10
702.0853125159492
 20
238.3378411943704
 10
702.0853125159492
 20
283.3378411943704
 10
697.0853125159492
 20
283.3378411943704
 10
697.0853125159492
 20
238.3378411943704
  0
HATCH
  5
1F82
330
18
100
AcDbEntity
  8
V25
 48
5.0
100
AcDbHatch
 10
0.0
 20
0.0
 30
0.0
210
0.0
220
0.0
230
1.0
  2
ANSI37
 70
     0
 71
     1
 91
        1
 92
        7
 72
     0
 73
     1
 93
        4
 10
697.0853125159492
 20
238.3378411943704
 10
702.0853125159491
 20
238.3378411943704
 10
702.0853125159493
 20
283.3378411943704
 10
697.0853125159492
 20
283.3378411943704
 97
        1
330
1F81
 75
     0
 76
     1
 52
90.0
 41
1.0
 77
     0
 78
     2
 53
135.0
 43
1354.268077502812
 44
-245.9781827736236
 45
-2.245064030267288
 46
-2.245064030267287
 79
     0
 53
225.0
 43
1354.268077502812
 44
-245.9781827736236
 45
2.245064030267287
 46
-2.245064030267288
 79
     0
 47
0.1149827854136383
 98
        1
 10
698.754800533564
 20
256.6136048487313
  0
LINE
  5
1F84
330
18
100
AcDbEntity
  8
V25
100
AcDbLine
 10
639.9312522497975
 20
295.5294694639379
 30
0.0
 11
639.9312522497975
 21
267.9846285604044
 31
0.0
  0
LINE
  5
1F85
330
18
100
AcDbEntity
  8
TXT-D
100
AcDbLine
 10
726.3604449083185
 20
327.6756691186483
 30
0.0
 11
794.4629004559625
 21
327.6756691186483
 31
0.0
  0
TEXT
  5
1F86
330
18
100
AcDbEntity
  8
TXT-D
100
AcDbText
 10
799.3487940377423
 20
320.9853247629944
 30
0.0
 40
14.0
  1
těsnící pásek
  7
ROMANS
100
AcDbText
  0
LINE
  5
1F87
330
18
100
AcDbEntity
  8
TXT-D
100
AcDbLine
 10
700.0509862103414
 20
267.5619497173584
 30
0.0
 11
794.4629004559625
 21
267.5619497173584
 31
0.0
  0
LINE
  5
1F8A
330
18
100
AcDbEntity
  8
TXT-D
 48
5.0
100
AcDbLine
 10
726.3604449083186
 20
327.6756691186483
 30
0.0
 11
601.6800537997881
 21
288.8511072236022
 31
0.0
  0
LINE
  5
1F8F
330
18
100
AcDbEntity
  8
TXT-D
100
AcDbLine
 10
598.0819911089788
 20
447.9031079212282
 30
0.0
 11
794.4629004559625
 21
447.9031079212282
 31
0.0
  0
TEXT
  5
1F90
330
18
100
AcDbEntity
  8
TXT-D
100
AcDbText
 10
799.3487940377423
 20
441.2127635655743
 30
0.0
 40
14.0
  1
C profil
  7
ROMANS
100
AcDbText
  0
HATCH
  5
1F97
330
18
100
AcDbEntity
  8
V25
 48
5.0
100
AcDbHatch
 10
0.0
 20
0.0
 30
0.0
210
0.0
220
0.0
230
1.0
  2
ANSI37
 70
     0
 71
     1
 91
        1
 92
        7
 72
     0
 73
     1
 93
        4
 10
697.5435255169159
 20
709.7604565334003
 10
702.5435255169157
 20
709.7604565334003
 10
702.5435255169159
 20
754.7604565334003
 10
697.5435255169157
 20
754.7604565334002
 97
        1
330
1F98
 75
     0
 76
     1
 52
90.0
 41
1.0
 77
     0
 78
     2
 53
135.0
 43
1354.726290503779
 44
225.4444325654062
 45
-2.245064030267288
 46
-2.245064030267287
 79
     0
 53
225.0
 43
1354.726290503779
 44
225.4444325654062
 45
2.245064030267287
 46
-2.245064030267288
 79
     0
 47
0.1149827854136383
 98
        1
 10
699.2130135345307
 20
728.036220187761
  0
LWPOLYLINE
  5
1F98
102
{ACAD_REACTORS
330
1F97
102
}
330
18
100
AcDbEntity
  8
V25
  6
AUSGEZOGEN
 48
5.0
100
AcDbPolyline
 90
        4
 70
     1
 43
0.0
 10
702.5435255169159
 20
709.7604565334002
 10
702.5435255169159
 20
754.7604565334002
 10
697.5435255169159
 20
754.7604565334002
 10
697.5435255169159
 20
709.7604565334002
  0
LINE
  5
1F99
330
18
100
AcDbEntity
  8
TXT-D
100
AcDbLine
 10
720.1544855393324
 20
508.0168273225182
 30
0.0
 11
794.4629004559625
 21
508.0168273225181
 31
0.0
  0
TEXT
  5
1F9A
330
18
100
AcDbEntity
  8
TXT-D
100
AcDbText
 10
799.3487940377423
 20
501.3264829668641
 30
0.0
 40
14.0
  1
trapézový plech
  7
ROMANS
100
AcDbText
  0
TEXT
  5
1F9C
330
18
100
AcDbEntity
  8
TXT-D
100
AcDbText
 10
799.3487940377423
 20
381.0990441642843
 30
0.0
 40
14.0
  1
tepelná izolace
  7
ROMANS
100
AcDbText
  0
LINE
  5
1F9D
330
18
100
AcDbEntity
  8
TXT-D
100
AcDbLine
 10
647.2170866720298
 20
387.7893885199382
 30
0.0
 11
794.4629004559625
 21
387.7893885199382
 31
0.0
  0
MTEXT
  5
1FA1
102
{ACAD_XDICTIONARY
360
48BC
102
}
330
18
100
AcDbEntity
  8
TXT-D
100
AcDbMText
 10
799.3487940377423
 20
275.2537098146995
 30
0.0
 40
14.0
 41
147.3781
 71
     1
 72
     5
  1
p\U+00E1s tepeln\U+00E9 izolace
  7
ROMANS
 73
     1
 44
1.0
  0
LWPOLYLINE
  5
21B1
102
{ACAD_REACTORS
330
21B2
102
}
330
18
100
AcDbEntity
  8
V25
  6
AUSGEZOGEN
 48
5.0
100
AcDbPolyline
 90
        4
 70
     1
 43
0.0
 10
597.0452747132693
 20
682.4895077717601
 10
597.0452747132693
 20
727.4895077717602
 10
592.0452747132693
 20
727.4895077717602
 10
592.0452747132693
 20
682.4895077717601
  0
HATCH
  5
21B2
330
18
100
AcDbEntity
  8
V25
 48
5.0
100
AcDbHatch
 10
0.0
 20
0.0
 30
0.0
210
0.0
220
0.0
230
1.0
  2
ANSI37
 70
     0
 71
     1
 91
        1
 92
        7
 72
     0
 73
     1
 93
        4
 10
592.0452747132694
 20
682.4895077717601
 10
597.0452747132693
 20
682.4895077717601
 10
597.0452747132693
 20
727.4895077717602
 10
592.0452747132693
 20
727.4895077717602
 97
        1
330
21B1
 75
     0
 76
     1
 52
90.0
 41
1.0
 77
     0
 78
     2
 53
135.0
 43
1249.228039700132
 44
198.1734838037661
 45
-2.245064030267288
 46
-2.245064030267287
 79
     0
 53
225.0
 43
1249.228039700132
 44
198.1734838037661
 45
2.245064030267287
 46
-2.245064030267288
 79
     0
 47
0.1149827854136383
 98
        1
 10
593.7147627308842
 20
700.765271426121
  0
LINE
  5
21B5
330
18
100
AcDbEntity
  8
V25
100
AcDbLine
 10
605.9230834751652
 20
704.9895077717601
 30
0.0
 11
584.4450638883126
 21
704.9895077717601
 31
0.0
  0
MTEXT
  5
21B6
102
{ACAD_XDICTIONARY
360
48BE
102
}
330
18
100
AcDbEntity
  8
TXT-D
100
AcDbMText
 10
799.3487940377424
 20
769.9439748224409
 30
0.0
 40
14.0
 41
162.0782460002058
 71
     1
 72
     5
  1
uzav\U+00EDrac\U+00ED profil
  7
ROMANS
 73
     1
 44
1.0
1001
ACAD
1000
ACAD_MTEXT_DEFINED_HEIGHT_BEGIN
1070
    46
1040
1.819186803003503
1000
ACAD_MTEXT_DEFINED_HEIGHT_END
  0
LINE
  5
21B8
330
18
100
AcDbEntity
  8
TXT-D
100
AcDbLine
 10
695.3337427638853
 20
763.0396167244589
 30
0.0
 11
794.4629004559626
 21
763.0396167244588
 31
0.0
  0
LWPOLYLINE
  5
22FE
330
18
100
AcDbEntity
  8
V25
100
AcDbPolyline
 90
        4
 70
     1
 43
0.0
 10
611.0854355301647
 20
785.2616296798147
 10
410.4886387648238
 20
767.7116840232334
 10
402.0730346262749
 20
863.9024794861798
 10
602.6698313916161
 20
881.4524251427608
  0
LINE
  5
22FF
330
18
100
AcDbEntity
  8
ISOTRI46
100
AcDbLine
 10
560.7294063528554
 20
874.7716575134951
 30
0.0
 11
568.6220762884387
 21
784.5580273413229
 31
0.0
  0
ARC
  5
2300
330
18
100
AcDbEntity
  8
ISOTRI46
100
AcDbCircle
 10
563.7179907612364
 20
875.0331211514655
 30
0.0
 40
3.0
100
AcDbArc
 50
94.99997271484266
 51
184.9999311689283
  0
ARC
  5
2301
330
18
100
AcDbEntity
  8
ISOTRI46
100
AcDbCircle
 10
563.7179907612364
 20
875.0331211514655
 30
0.0
 40
3.0
100
AcDbArc
 50
5.000068831078502
 51
95.0000272851574
  0
LINE
  5
2302
330
18
100
AcDbEntity
  8
ISOTRI46
100
AcDbLine
 10
524.8664088180296
 20
871.6340517891396
 30
0.0
 11
532.7590787536131
 21
781.4204216169673
 31
0.0
  0
LINE
  5
2303
330
18
100
AcDbEntity
  8
ISOTRI46
100
AcDbLine
 10
530.8435770065757
 20
872.1569862456254
 30
0.0
 11
538.7362469421636
 21
781.9433560734532
 31
0.0
  0
LINE
  5
2304
330
18
100
AcDbEntity
  8
ISOTRI46
100
AcDbLine
 10
453.1404137483785
 20
865.3588403404288
 30
0.0
 11
461.033083683962
 21
775.1452101682566
 31
0.0
  0
LINE
  5
2305
330
18
100
AcDbEntity
  8
ISOTRI46
100
AcDbLine
 10
441.18608123677
 20
864.3129717656439
 30
0.0
 11
449.0787511723534
 21
774.0993415934718
 31
0.0
  0
LINE
  5
2306
330
18
100
AcDbEntity
  8
ISOTRI46
100
AcDbLine
 10
411.3002518904902
 20
861.6983004977738
 30
0.0
 11
419.1929218260782
 21
771.4846703256021
 31
0.0
  0
LINE
  5
2307
330
18
100
AcDbEntity
  8
ISOTRI46
100
AcDbLine
 10
417.2774162135529
 20
862.2212346160736
 30
0.0
 11
425.1700861491364
 21
772.0076044439015
 31
0.0
  0
LINE
  5
2308
330
18
100
AcDbEntity
  8
ISOTRI46
100
AcDbLine
 10
423.2545844020988
 20
862.7441690725591
 30
0.0
 11
431.1472543376868
 21
772.5305389003874
 31
0.0
  0
LINE
  5
2309
330
18
100
AcDbEntity
  8
ISOTRI46
100
AcDbLine
 10
429.2317487251614
 20
863.2671031908586
 30
0.0
 11
437.1244186607449
 21
773.0534730186864
 31
0.0
  0
LINE
  5
230A
330
18
100
AcDbEntity
  8
ISOTRI46
100
AcDbLine
 10
435.2089169137073
 20
863.790037647344
 30
0.0
 11
443.1015868492953
 21
773.5764074751723
 31
0.0
  0
LINE
  5
230B
330
18
100
AcDbEntity
  8
ISOTRI46
100
AcDbLine
 10
447.1632494253161
 20
864.8359062221294
 30
0.0
 11
455.0559193609038
 21
774.6222760499577
 31
0.0
  0
LINE
  5
230C
330
18
100
AcDbEntity
  8
ISOTRI46
100
AcDbLine
 10
459.1175819369246
 20
865.8817747969143
 30
0.0
 11
467.0102518725124
 21
775.6681446247426
 31
0.0
  0
LINE
  5
230D
330
18
100
AcDbEntity
  8
ISOTRI46
100
AcDbLine
 10
483.0262469601416
 20
867.9735119464849
 30
0.0
 11
490.9189168957294
 21
777.7598817743128
 31
0.0
  0
LINE
  5
230E
330
18
100
AcDbEntity
  8
ISOTRI46
100
AcDbLine
 10
465.094746259987
 20
866.4047089152141
 30
0.0
 11
472.9874161955705
 21
776.1910787430419
 31
0.0
  0
LINE
  5
230F
330
18
100
AcDbEntity
  8
ISOTRI46
100
AcDbLine
 10
471.0719144485331
 20
866.9276433716996
 30
0.0
 11
478.9645843841209
 21
776.7140131995279
 31
0.0
  0
LINE
  5
2310
330
18
100
AcDbEntity
  8
ISOTRI46
100
AcDbLine
 10
477.0490787715956
 20
867.4505774899991
 30
0.0
 11
484.941748707179
 21
777.2369473178269
 31
0.0
  0
LINE
  5
2311
330
18
100
AcDbEntity
  8
ISOTRI46
100
AcDbLine
 10
489.0034112832041
 20
868.4964460647844
 30
0.0
 11
496.8960812187876
 21
778.2828158926122
 31
0.0
  0
LINE
  5
2312
330
18
100
AcDbEntity
  8
ISOTRI46
100
AcDbLine
 10
494.9805794717502
 20
869.0193805212699
 30
0.0
 11
502.873249407338
 21
778.8057503490981
 31
0.0
  0
LINE
  5
2313
330
18
100
AcDbEntity
  8
ISOTRI46
100
AcDbLine
 10
500.9577437948126
 20
869.5423146395693
 30
0.0
 11
508.8504137303961
 21
779.3286844673971
 31
0.0
  0
LINE
  5
2314
330
18
100
AcDbEntity
  8
ISOTRI46
100
AcDbLine
 10
506.9349119833587
 20
870.0652490960552
 30
0.0
 11
514.8275819189465
 21
779.8516189238831
 31
0.0
  0
LINE
  5
2315
330
18
100
AcDbEntity
  8
ISOTRI46
100
AcDbLine
 10
512.9120763064211
 20
870.5881832143546
 30
0.0
 11
520.8047462420046
 21
780.3745530421824
 31
0.0
  0
LINE
  5
2316
330
18
100
AcDbEntity
  8
ISOTRI46
100
AcDbLine
 10
518.8892444949671
 20
871.1111176708401
 30
0.0
 11
526.781914430555
 21
780.8974874986684
 31
0.0
  0
LINE
  5
2317
330
18
100
AcDbEntity
  8
ISOTRI46
100
AcDbLine
 10
542.7979095181842
 20
873.2028548204104
 30
0.0
 11
550.6905794537721
 21
782.9892246482386
 31
0.0
  0
LINE
  5
2318
330
18
100
AcDbEntity
  8
ISOTRI46
100
AcDbLine
 10
548.7750738412469
 20
873.7257889387102
 30
0.0
 11
556.6677437768301
 21
783.5121587665375
 31
0.0
  0
LINE
  5
2319
330
18
100
AcDbEntity
  8
ISOTRI46
100
AcDbLine
 10
554.7522420297927
 20
874.2487233951957
 30
0.0
 11
562.6449119653806
 21
784.0350932230239
 31
0.0
  0
LINE
  5
231A
330
18
100
AcDbEntity
  8
ISOTRI46
100
AcDbLine
 10
536.8207413296383
 20
872.6799203639249
 30
0.0
 11
544.7134112652216
 21
782.4662901917527
 31
0.0
  0
LINE
  5
231B
330
18
100
AcDbEntity
  8
ISOTRI46
100
AcDbLine
 10
405.3230837019444
 20
861.1753660412883
 30
0.0
 11
413.2157536375278
 21
770.9617358691161
 31
0.0
  0
ARC
  5
231C
330
18
100
AcDbEntity
  8
ISOTRI46
100
AcDbCircle
 10
456.1289981567598
 20
865.6203039783992
 30
0.0
 40
3.0
100
AcDbArc
 50
5.000068831078502
 51
95.0000272851574
  0
ARC
  5
231D
330
18
100
AcDbEntity
  8
ISOTRI46
100
AcDbCircle
 10
420.2660006219342
 20
862.4826982540437
 30
0.0
 40
3.0
100
AcDbArc
 50
5.000068831078502
 51
95.0000272851574
  0
ARC
  5
231E
330
18
100
AcDbEntity
  8
ISOTRI46
100
AcDbCircle
 10
420.2660006219342
 20
862.4826982540437
 30
0.0
 40
3.0
100
AcDbArc
 50
94.99997271484266
 51
184.9999311689283
  0
ARC
  5
231F
330
18
100
AcDbEntity
  8
ISOTRI46
100
AcDbCircle
 10
408.3116681103256
 20
861.4368296792587
 30
0.0
 40
3.0
100
AcDbArc
 50
94.99997271484266
 51
184.9999311689283
  0
ARC
  5
2320
330
18
100
AcDbEntity
  8
ISOTRI46
100
AcDbCircle
 10
408.3116681103256
 20
861.4368296792587
 30
0.0
 40
3.0
100
AcDbArc
 50
5.000068831078502
 51
95.0000272851574
  0
ARC
  5
2321
330
18
100
AcDbEntity
  8
ISOTRI46
100
AcDbCircle
 10
432.2203331335427
 20
863.528566828829
 30
0.0
 40
3.0
100
AcDbArc
 50
94.99997271484266
 51
184.9999311689283
  0
ARC
  5
2322
330
18
100
AcDbEntity
  8
ISOTRI46
100
AcDbCircle
 10
432.2203331335427
 20
863.528566828829
 30
0.0
 40
3.0
100
AcDbArc
 50
5.000068831078502
 51
95.0000272851574
  0
ARC
  5
2323
330
18
100
AcDbEntity
  8
ISOTRI46
100
AcDbCircle
 10
444.1746656451512
 20
864.5744354036137
 30
0.0
 40
3.0
100
AcDbArc
 50
94.99997271484266
 51
184.9999311689283
  0
ARC
  5
2324
330
18
100
AcDbEntity
  8
ISOTRI46
100
AcDbCircle
 10
444.1746656451512
 20
864.5744354036137
 30
0.0
 40
3.0
100
AcDbArc
 50
5.000068831078502
 51
95.0000272851574
  0
ARC
  5
2325
330
18
100
AcDbEntity
  8
ISOTRI46
100
AcDbCircle
 10
456.1289981567598
 20
865.6203039783992
 30
0.0
 40
3.0
100
AcDbArc
 50
94.99997271484266
 51
184.9999311689283
  0
ARC
  5
2326
330
18
100
AcDbEntity
  8
ISOTRI46
100
AcDbCircle
 10
468.0833306683683
 20
866.666172553184
 30
0.0
 40
3.0
100
AcDbArc
 50
94.99997271484266
 51
184.9999311689283
  0
ARC
  5
2327
330
18
100
AcDbEntity
  8
ISOTRI46
100
AcDbCircle
 10
468.0833306683683
 20
866.666172553184
 30
0.0
 40
3.0
100
AcDbArc
 50
5.000068831078502
 51
95.0000272851574
  0
ARC
  5
2328
330
18
100
AcDbEntity
  8
ISOTRI46
100
AcDbCircle
 10
491.9919956915854
 20
868.7579097027548
 30
0.0
 40
3.0
100
AcDbArc
 50
5.000068831078502
 51
95.0000272851574
  0
ARC
  5
2329
330
18
100
AcDbEntity
  8
ISOTRI46
100
AcDbCircle
 10
480.0376631799768
 20
867.7120411279695
 30
0.0
 40
3.0
100
AcDbArc
 50
94.99997271484266
 51
184.9999311689283
  0
ARC
  5
232A
330
18
100
AcDbEntity
  8
ISOTRI46
100
AcDbCircle
 10
480.0376631799768
 20
867.7120411279695
 30
0.0
 40
3.0
100
AcDbArc
 50
5.000068831078502
 51
95.0000272851574
  0
ARC
  5
232B
330
18
100
AcDbEntity
  8
ISOTRI46
100
AcDbCircle
 10
491.9919956915854
 20
868.7579097027548
 30
0.0
 40
3.0
100
AcDbArc
 50
94.99997271484266
 51
184.9999311689283
  0
ARC
  5
232C
330
18
100
AcDbEntity
  8
ISOTRI46
100
AcDbCircle
 10
515.9006607148024
 20
870.849646852325
 30
0.0
 40
3.0
100
AcDbArc
 50
94.99997271484266
 51
184.9999311689283
  0
ARC
  5
232D
330
18
100
AcDbEntity
  8
ISOTRI46
100
AcDbCircle
 10
503.9463282031938
 20
869.8037782775397
 30
0.0
 40
3.0
100
AcDbArc
 50
5.000068831078502
 51
95.0000272851574
  0
ARC
  5
232E
330
18
100
AcDbEntity
  8
ISOTRI46
100
AcDbCircle
 10
503.9463282031938
 20
869.8037782775397
 30
0.0
 40
3.0
100
AcDbArc
 50
94.99997271484266
 51
184.9999311689283
  0
ARC
  5
232F
330
18
100
AcDbEntity
  8
ISOTRI46
100
AcDbCircle
 10
515.9006607148024
 20
870.849646852325
 30
0.0
 40
3.0
100
AcDbArc
 50
5.000068831078502
 51
95.0000272851574
  0
ARC
  5
2330
330
18
100
AcDbEntity
  8
ISOTRI46
100
AcDbCircle
 10
527.8549932264109
 20
871.8955154271098
 30
0.0
 40
3.0
100
AcDbArc
 50
94.99997271484266
 51
184.9999311689283
  0
ARC
  5
2331
330
18
100
AcDbEntity
  8
ISOTRI46
100
AcDbCircle
 10
527.8549932264109
 20
871.8955154271098
 30
0.0
 40
3.0
100
AcDbArc
 50
5.000068831078502
 51
95.0000272851574
  0
ARC
  5
2332
330
18
100
AcDbEntity
  8
ISOTRI46
100
AcDbCircle
 10
551.7636582496279
 20
873.98725257668
 30
0.0
 40
3.0
100
AcDbArc
 50
94.99997271484266
 51
184.9999311689283
  0
ARC
  5
2333
330
18
100
AcDbEntity
  8
ISOTRI46
100
AcDbCircle
 10
539.8093257380194
 20
872.9413840018953
 30
0.0
 40
3.0
100
AcDbArc
 50
5.000068831078502
 51
95.0000272851574
  0
ARC
  5
2334
330
18
100
AcDbEntity
  8
ISOTRI46
100
AcDbCircle
 10
539.8093257380194
 20
872.9413840018953
 30
0.0
 40
3.0
100
AcDbArc
 50
94.99997271484266
 51
184.9999311689283
  0
ARC
  5
2335
330
18
100
AcDbEntity
  8
ISOTRI46
100
AcDbCircle
 10
551.7636582496279
 20
873.98725257668
 30
0.0
 40
3.0
100
AcDbArc
 50
5.000068831078502
 51
95.0000272851574
  0
ARC
  5
2336
330
18
100
AcDbEntity
  8
ISOTRI46
100
AcDbCircle
 10
458.0444996502689
 20
774.8837422475548
 30
0.0
 40
3.0
100
AcDbArc
 50
275.0000370537301
 51
5.000013275501783
  0
ARC
  5
2337
330
18
100
AcDbEntity
  8
ISOTRI46
100
AcDbCircle
 10
422.1815059809356
 20
771.7461368613863
 30
0.0
 40
3.0
100
AcDbArc
 50
184.9999867244982
 51
274.9999629462658
  0
ARC
  5
2338
330
18
100
AcDbEntity
  8
ISOTRI46
100
AcDbCircle
 10
410.2271696038347
 20
770.7002679484144
 30
0.0
 40
3.0
100
AcDbArc
 50
275.0000370537301
 51
5.000013275501783
  0
ARC
  5
2339
330
18
100
AcDbEntity
  8
ISOTRI46
100
AcDbCircle
 10
422.1815021154433
 20
771.7461365231997
 30
0.0
 40
3.0
100
AcDbArc
 50
275.0000370537301
 51
5.000013275501783
  0
ARC
  5
233A
330
18
100
AcDbEntity
  8
ISOTRI46
100
AcDbCircle
 10
434.1358384925441
 20
772.7920054361716
 30
0.0
 40
3.0
100
AcDbArc
 50
184.9999867244982
 51
274.9999629462658
  0
ARC
  5
233B
330
18
100
AcDbEntity
  8
ISOTRI46
100
AcDbCircle
 10
434.1358346270518
 20
772.7920050979847
 30
0.0
 40
3.0
100
AcDbArc
 50
275.0000370537301
 51
5.000013275501783
  0
ARC
  5
233C
330
18
100
AcDbEntity
  8
ISOTRI46
100
AcDbCircle
 10
446.0901671386603
 20
773.83787367277
 30
0.0
 40
3.0
100
AcDbArc
 50
275.0000370537301
 51
5.000013275501783
  0
ARC
  5
233D
330
18
100
AcDbEntity
  8
ISOTRI46
100
AcDbCircle
 10
446.0901710041526
 20
773.8378740109565
 30
0.0
 40
3.0
100
AcDbArc
 50
184.9999867244982
 51
274.9999629462658
  0
ARC
  5
233E
330
18
100
AcDbEntity
  8
ISOTRI46
100
AcDbCircle
 10
458.0445035157612
 20
774.8837425857418
 30
0.0
 40
3.0
100
AcDbArc
 50
184.9999867244982
 51
274.9999629462658
  0
ARC
  5
233F
330
18
100
AcDbEntity
  8
ISOTRI46
100
AcDbCircle
 10
493.9074971850947
 20
778.0213479719105
 30
0.0
 40
3.0
100
AcDbArc
 50
275.0000370537301
 51
5.000013275501783
  0
ARC
  5
2340
330
18
100
AcDbEntity
  8
ISOTRI46
100
AcDbCircle
 10
469.9988360273697
 20
775.9296111605267
 30
0.0
 40
3.0
100
AcDbArc
 50
184.9999867244982
 51
274.9999629462658
  0
ARC
  5
2341
330
18
100
AcDbEntity
  8
ISOTRI46
100
AcDbCircle
 10
469.9988321618774
 20
775.9296108223402
 30
0.0
 40
3.0
100
AcDbArc
 50
275.0000370537301
 51
5.000013275501783
  0
ARC
  5
2342
330
18
100
AcDbEntity
  8
ISOTRI46
100
AcDbCircle
 10
481.9531685389782
 20
776.9754797353121
 30
0.0
 40
3.0
100
AcDbArc
 50
184.9999867244982
 51
274.9999629462658
  0
ARC
  5
2343
330
18
100
AcDbEntity
  8
ISOTRI46
100
AcDbCircle
 10
481.9531646734861
 20
776.9754793971251
 30
0.0
 40
3.0
100
AcDbArc
 50
275.0000370537301
 51
5.000013275501783
  0
ARC
  5
2344
330
18
100
AcDbEntity
  8
ISOTRI46
100
AcDbCircle
 10
493.9075010505868
 20
778.0213483100974
 30
0.0
 40
3.0
100
AcDbArc
 50
184.9999867244982
 51
274.9999629462658
  0
ARC
  5
2345
330
18
100
AcDbEntity
  8
ISOTRI46
100
AcDbCircle
 10
505.8618335621953
 20
779.0672168848823
 30
0.0
 40
3.0
100
AcDbArc
 50
184.9999867244982
 51
274.9999629462658
  0
ARC
  5
2346
330
18
100
AcDbEntity
  8
ISOTRI46
100
AcDbCircle
 10
505.8618296967032
 20
779.0672165466958
 30
0.0
 40
3.0
100
AcDbArc
 50
275.0000370537301
 51
5.000013275501783
  0
ARC
  5
2347
330
18
100
AcDbEntity
  8
ISOTRI46
100
AcDbCircle
 10
529.7704947199203
 20
781.158953696266
 30
0.0
 40
3.0
100
AcDbArc
 50
275.0000370537301
 51
5.000013275501783
  0
ARC
  5
2348
330
18
100
AcDbEntity
  8
ISOTRI46
100
AcDbCircle
 10
517.8161660738038
 20
780.1130854596676
 30
0.0
 40
3.0
100
AcDbArc
 50
184.9999867244982
 51
274.9999629462658
  0
ARC
  5
2349
330
18
100
AcDbEntity
  8
ISOTRI46
100
AcDbCircle
 10
517.8161622083117
 20
780.1130851214807
 30
0.0
 40
3.0
100
AcDbArc
 50
275.0000370537301
 51
5.000013275501783
  0
ARC
  5
234A
330
18
100
AcDbEntity
  8
ISOTRI46
100
AcDbCircle
 10
529.7704985854124
 20
781.1589540344526
 30
0.0
 40
3.0
100
AcDbArc
 50
184.9999867244982
 51
274.9999629462658
  0
ARC
  5
234B
330
18
100
AcDbEntity
  8
ISOTRI46
100
AcDbCircle
 10
553.6791636086294
 20
783.2506911840227
 30
0.0
 40
3.0
100
AcDbArc
 50
184.9999867244982
 51
274.9999629462658
  0
ARC
  5
234C
330
18
100
AcDbEntity
  8
ISOTRI46
100
AcDbCircle
 10
541.7248310970209
 20
782.2048226092379
 30
0.0
 40
3.0
100
AcDbArc
 50
184.9999867244982
 51
274.9999629462658
  0
ARC
  5
234D
330
18
100
AcDbEntity
  8
ISOTRI46
100
AcDbCircle
 10
541.7248272315288
 20
782.2048222710509
 30
0.0
 40
3.0
100
AcDbArc
 50
275.0000370537301
 51
5.000013275501783
  0
ARC
  5
234E
330
18
100
AcDbEntity
  8
ISOTRI46
100
AcDbCircle
 10
553.6791597431373
 20
783.2506908458363
 30
0.0
 40
3.0
100
AcDbArc
 50
275.0000370537301
 51
5.000013275501783
  0
ARC
  5
234F
330
18
100
AcDbEntity
  8
ISOTRI46
100
AcDbCircle
 10
565.633496120238
 20
784.2965597588081
 30
0.0
 40
3.0
100
AcDbArc
 50
184.9999867244982
 51
274.9999629462658
  0
ARC
  5
2350
330
18
100
AcDbEntity
  8
ISOTRI46
100
AcDbCircle
 10
565.6334922547459
 20
784.2965594206211
 30
0.0
 40
3.0
100
AcDbArc
 50
275.0000370537301
 51
5.000013275501783
  0
LINE
  5
2352
330
18
100
AcDbEntity
  8
ISOTRI46
100
AcDbLine
 10
566.7065745414013
 20
875.2945919699811
 30
0.0
 11
574.5992444769891
 21
785.0809617978094
 31
0.0
  0
LINE
  5
2353
330
18
100
AcDbEntity
  8
ISOTRI46
100
AcDbLine
 10
572.6837388644639
 20
875.8175260882806
 30
0.0
 11
580.5764088000472
 21
785.6038959161083
 31
0.0
  0
ARC
  5
2354
330
18
100
AcDbEntity
  8
ISOTRI46
100
AcDbCircle
 10
575.6723232728449
 20
876.078989726251
 30
0.0
 40
3.0
100
AcDbArc
 50
5.000068831078502
 51
95.0000272851574
  0
ARC
  5
2355
330
18
100
AcDbEntity
  8
ISOTRI46
100
AcDbCircle
 10
575.6723232728449
 20
876.078989726251
 30
0.0
 40
3.0
100
AcDbArc
 50
94.99997271484266
 51
184.9999311689283
  0
ARC
  5
2356
330
18
100
AcDbEntity
  8
ISOTRI46
100
AcDbCircle
 10
577.5878247663544
 20
785.3424279954066
 30
0.0
 40
3.0
100
AcDbArc
 50
275.0000370537301
 51
5.000013275501783
  0
ARC
  5
2357
330
18
100
AcDbEntity
  8
ISOTRI46
100
AcDbCircle
 10
577.5878286318465
 20
785.3424283335936
 30
0.0
 40
3.0
100
AcDbArc
 50
184.9999867244982
 51
274.9999629462658
  0
LINE
  5
2358
330
18
100
AcDbEntity
  8
ISOTRI46
100
AcDbLine
 10
578.6609070530098
 20
876.3404605447664
 30
0.0
 11
586.5535769885976
 21
786.1268303725948
 31
0.0
  0
LINE
  5
2359
330
18
100
AcDbEntity
  8
ISOTRI46
100
AcDbLine
 10
584.6380713760725
 20
876.8633946630659
 30
0.0
 11
592.5307413116557
 21
786.6497644908937
 31
0.0
  0
ARC
  5
235A
330
18
100
AcDbEntity
  8
ISOTRI46
100
AcDbCircle
 10
587.6266557844535
 20
877.1248583010363
 30
0.0
 40
3.0
100
AcDbArc
 50
5.000068831078502
 51
95.0000272851574
  0
ARC
  5
235B
330
18
100
AcDbEntity
  8
ISOTRI46
100
AcDbCircle
 10
587.6266557844535
 20
877.1248583010363
 30
0.0
 40
3.0
100
AcDbArc
 50
94.99997271484266
 51
184.9999311689283
  0
ARC
  5
235C
330
18
100
AcDbEntity
  8
ISOTRI46
100
AcDbCircle
 10
589.5421572779629
 20
786.3882965701919
 30
0.0
 40
3.0
100
AcDbArc
 50
275.0000370537301
 51
5.000013275501783
  0
ARC
  5
235D
330
18
100
AcDbEntity
  8
ISOTRI46
100
AcDbCircle
 10
589.5421611434549
 20
786.3882969083789
 30
0.0
 40
3.0
100
AcDbArc
 50
184.9999867244982
 51
274.9999629462658
  0
LINE
  5
235E
330
18
100
AcDbEntity
  8
ISOTRI46
100
AcDbLine
 10
590.6152395646183
 20
877.3863291195519
 30
0.0
 11
598.5079095002062
 21
787.1726989473801
 31
0.0
  0
LINE
  5
235F
330
18
100
AcDbEntity
  8
ISOTRI46
100
AcDbLine
 10
596.592403887681
 20
877.9092632378512
 30
0.0
 11
604.4850738232643
 21
787.695633065679
 31
0.0
  0
ARC
  5
2360
330
18
100
AcDbEntity
  8
ISOTRI46
100
AcDbCircle
 10
599.580988296062
 20
878.1707268758216
 30
0.0
 40
3.0
100
AcDbArc
 50
5.000068831078502
 51
95.0000272851574
  0
ARC
  5
2361
330
18
100
AcDbEntity
  8
ISOTRI46
100
AcDbCircle
 10
599.580988296062
 20
878.1707268758216
 30
0.0
 40
3.0
100
AcDbArc
 50
94.99997271484266
 51
184.9999311689283
  0
ARC
  5
2362
330
18
100
AcDbEntity
  8
ISOTRI46
100
AcDbCircle
 10
601.4964897895715
 20
787.4341651449773
 30
0.0
 40
3.0
100
AcDbArc
 50
275.0000370537301
 51
5.000013275501783
  0
ARC
  5
2363
330
18
100
AcDbEntity
  8
ISOTRI46
100
AcDbCircle
 10
601.4964936550635
 20
787.4341654831643
 30
0.0
 40
3.0
100
AcDbArc
 50
184.9999867244982
 51
274.9999629462658
  0
LINE
  5
2366
330
18
100
AcDbEntity
  8
TXT-D
100
AcDbLine
 10
297.9399467070953
 20
1006.612156944252
 30
0.0
 11
195.1604819159738
 21
1006.612156944252
 31
0.0
  0
LINE
  5
2367
330
18
100
AcDbEntity
  8
TXT-D
100
AcDbLine
 10
297.9399467070953
 20
795.5240327408219
 30
0.0
 11
297.9399467070953
 21
1006.612156944252
 31
0.0
  0
LWPOLYLINE
  5
2368
330
18
100
AcDbEntity
  8
V35
100
AcDbPolyline
 90
        2
 70
     1
 43
2.9
 10
296.3899467070953
 20
795.5240327408219
 42
1.0
 10
299.4899467070952
 20
795.5240327408219
 42
1.0
  0
MTEXT
  5
2370
102
{ACAD_XDICTIONARY
360
48C0
102
}
330
18
100
AcDbEntity
  8
TXT-D
100
AcDbMText
 10
334.250593492713
 20
414.0600057133619
 30
0.0
 40
14.0
 41
184.628
 71
     7
 72
     5
  1
vnit\U+0159n\U+00ED uzav\U+00EDrac\U+00ED oplechov\U+00E1n\U+00ED
  7
ROMANS
 73
     1
 44
1.0
  0
LINE
  5
237A
330
18
100
AcDbEntity
  8
TXT-D
100
AcDbLine
 10
279.3713802981502
 20
944.1153340352343
 30
0.0
 11
270.4328311955219
 21
944.1153340352345
 31
0.0
  0
LINE
  5
237B
330
18
100
AcDbEntity
  8
TXT-D
100
AcDbLine
 10
279.3713802981502
 20
750.5121967324856
 30
0.0
 11
279.3713802981502
 21
944.1153340352343
 31
0.0
  0
LWPOLYLINE
  5
2388
330
18
100
AcDbEntity
  8
V5
 48
5.0
100
AcDbPolyline
 90
        5
 70
     0
 43
2.2
 10
773.3667424430399
 20
974.7720570483922
 10
742.4697544450637
 20
972.0689208614729
 10
742.4697544450637
 20
901.6893083825207
 10
772.4697544450637
 20
901.6893083825207
 10
772.4697544450637
 20
861.6893083825207
  0
TEXT
  5
2392
330
18
100
AcDbEntity
  8
TXT-D
100
AcDbText
 10
800.456808810941
 20
1052.715959627368
 30
0.0
 40
14.0
  1
výztužný profil
  7
ROMANS
100
AcDbText
  0
LINE
  5
2393
330
18
100
AcDbEntity
  8
TXT-D
100
AcDbLine
 10
794.4629004559628
 20
1058.162996233402
 30
0.0
 11
751.307044725291
 21
1058.162996233403
 31
0.0
  0
LINE
  5
2394
330
18
100
AcDbEntity
  8
TXT-D
100
AcDbLine
 10
751.307044725291
 20
1058.162996233403
 30
0.0
 11
751.3070447252911
 21
972.8420835772807
 31
0.0
  0
LWPOLYLINE
  5
23A1
330
18
100
AcDbEntity
  8
V5
100
AcDbPolyline
 90
        4
 70
     0
 43
2.2
 10
591.0287764558843
 20
678.3445228695066
 10
591.0287764558843
 20
762.8196413654018
 10
695.3337427638853
 20
771.9451434668051
 10
695.3337427638853
 20
709.3768226119668
  0
LINE
  5
23AD
330
18
100
AcDbEntity
  8
ISO
  6
VERDECKT
 48
2.5
100
AcDbLine
 10
345.4766718708513
 20
846.5507410120979
 30
0.0
 11
360.2671837780373
 21
789.2045299044426
 31
0.0
  0
LINE
  5
23AE
330
18
100
AcDbEntity
  8
ISO
  6
VERDECKT
 48
2.5
100
AcDbLine
 10
345.4766718708513
 20
846.5507410120979
 30
0.0
 11
343.0894293788283
 21
815.960779020942
 31
0.0
  0
LINE
  5
23AF
330
18
100
AcDbEntity
  8
ISO
100
AcDbLine
 10
321.5679991166496
 20
844.4590031861539
 30
0.0
 11
339.7975491848215
 21
773.7788513991796
 31
0.0
  0
ARC
  5
23B0
330
18
100
AcDbEntity
  8
ISO
  6
VERDECKT
 48
2.5
100
AcDbCircle
 10
333.5223354937502
 20
845.5048720991259
 30
0.0
 40
12.0
100
AcDbArc
 50
4.999999999999998
 51
60.68209014148068
  0
ARC
  5
23B1
330
18
100
AcDbEntity
  8
ISO
100
AcDbCircle
 10
333.5223354937502
 20
845.5048720991259
 30
0.0
 40
12.0
100
AcDbArc
 50
94.99999999999998
 51
185.0
  0
LINE
  5
23B4
330
18
100
AcDbEntity
  8
ISO
  6
VERDECKT
 48
2.5
100
AcDbLine
 10
369.385344625053
 20
848.6424788380418
 30
0.0
 11
384.175856532239
 21
791.2962677303864
 31
0.0
  0
LINE
  5
23B5
330
18
100
AcDbEntity
  8
ISO
  6
VERDECKT
 48
2.5
100
AcDbLine
 10
369.385344625053
 20
848.6424788380418
 30
0.0
 11
364.7775988827842
 21
789.5991400939041
 31
0.0
  0
LINE
  5
23B6
330
18
100
AcDbEntity
  8
ISO
  6
VERDECKT
 48
2.5
100
AcDbLine
 10
345.4766718708513
 20
846.5507410120979
 30
0.0
 11
360.2671837780373
 21
789.2045299044426
 31
0.0
  0
ARC
  5
23B7
330
18
100
AcDbEntity
  8
ISO
  6
VERDECKT
 48
2.5
100
AcDbCircle
 10
357.4310082479519
 20
847.5966099250697
 30
0.0
 40
12.0
100
AcDbArc
 50
4.999999999999998
 51
94.99999999999996
  0
ARC
  5
23B8
330
18
100
AcDbEntity
  8
ISO
  6
VERDECKT
 48
2.5
100
AcDbCircle
 10
357.4310082479519
 20
847.5966099250697
 30
0.0
 40
12.0
100
AcDbArc
 50
94.99999999999998
 51
185.0
  0
LINE
  5
23BB
330
18
100
AcDbEntity
  8
ISO
  6
VERDECKT
 48
2.5
100
AcDbLine
 10
393.2940173792547
 20
850.7342166639856
 30
0.0
 11
400.8185207147775
 21
821.5599893304808
 31
0.0
  0
LINE
  5
23BC
330
18
100
AcDbEntity
  8
ISO
  6
VERDECKT
 48
2.5
100
AcDbLine
 10
393.2940173792547
 20
850.7342166639856
 30
0.0
 11
388.6862716369859
 21
791.6908779198478
 31
0.0
  0
LINE
  5
23BD
330
18
100
AcDbEntity
  8
ISO
  6
VERDECKT
 48
2.5
100
AcDbLine
 10
369.385344625053
 20
848.6424788380418
 30
0.0
 11
384.175856532239
 21
791.2962677303863
 31
0.0
  0
ARC
  5
23BE
330
18
100
AcDbEntity
  8
ISO
  6
VERDECKT
 48
2.5
100
AcDbCircle
 10
381.3396810021536
 20
849.6883477510138
 30
0.0
 40
12.0
100
AcDbArc
 50
4.999999999999998
 51
94.99999999999996
  0
ARC
  5
23BF
330
18
100
AcDbEntity
  8
ISO
  6
VERDECKT
 48
2.5
100
AcDbCircle
 10
381.3396810021536
 20
849.6883477510138
 30
0.0
 40
12.0
100
AcDbArc
 50
94.99999999999998
 51
185.0
  0
LINE
  5
23C4
330
18
100
AcDbEntity
  8
ISO
  6
VERDECKT
 48
2.5
100
AcDbLine
 10
393.2940173792547
 20
850.7342166639856
 30
0.0
 11
400.8185207147775
 21
821.5599893304805
 31
0.0
  0
ARC
  5
23C6
330
18
100
AcDbEntity
  8
ISO
  6
VERDECKT
 48
2.5
100
AcDbCircle
 10
405.2483537563553
 20
851.7800855769577
 30
0.0
 40
12.0
100
AcDbArc
 50
132.0670856866001
 51
185.0
  0
LWPOLYLINE
  5
23D1
330
18
100
AcDbEntity
  8
V35
100
AcDbPolyline
 90
        2
 70
     1
 43
2.9
 10
277.8213802981502
 20
750.5121967324856
 42
1.0
 10
280.9213802981501
 20
750.5121967324856
 42
1.0
  0
LWPOLYLINE
  5
23D2
330
18
100
AcDbEntity
  8
V35
100
AcDbPolyline
 90
        2
 70
     1
 43
2.9
 10
320.253533678878
 20
916.4029661163915
 42
1.0
 10
323.353533678878
 20
916.4029661163915
 42
1.0
  0
LWPOLYLINE
  5
23D3
330
18
100
AcDbEntity
  8
V35
100
AcDbPolyline
 90
        2
 70
     1
 43
2.9
 10
349.4713369026642
 20
889.3661106920207
 42
1.0
 10
352.5713369026641
 20
889.3661106920207
 42
1.0
  0
LWPOLYLINE
  5
23D4
330
18
100
AcDbEntity
  8
V35
100
AcDbPolyline
 90
        2
 70
     1
 43
2.9
 10
517.6957286101116
 20
962.028325371566
 42
1.0
 10
520.7957286101116
 20
962.028325371566
 42
1.0
  0
LWPOLYLINE
  5
23D5
330
18
100
AcDbEntity
  8
V35
100
AcDbPolyline
 90
        2
 70
     1
 43
2.9
 10
552.9928300881615
 20
923.3485834404719
 42
1.0
 10
556.0928300881614
 20
923.3485834404719
 42
1.0
  0
LWPOLYLINE
  5
23D6
330
18
100
AcDbEntity
  8
V35
100
AcDbPolyline
 90
        2
 70
     1
 43
2.9
 10
710.8620094142699
 20
973.3015567467951
 42
1.0
 10
713.9620094142697
 20
973.3015567467951
 42
1.0
  0
LWPOLYLINE
  5
23D7
330
18
100
AcDbEntity
  8
V35
100
AcDbPolyline
 90
        2
 70
     1
 43
2.9
 10
623.0088574675023
 20
956.3586687223812
 42
1.0
 10
626.1088574675023
 20
956.3586687223812
 42
1.0
  0
LWPOLYLINE
  5
23D8
330
18
100
AcDbEntity
  8
V35
100
AcDbPolyline
 90
        2
 70
     1
 43
2.9
 10
649.4888568103589
 20
919.0600100833066
 42
1.0
 10
652.5888568103588
 20
919.0600100833066
 42
1.0
  0
LWPOLYLINE
  5
23D9
330
18
100
AcDbEntity
  8
V35
100
AcDbPolyline
 90
        2
 70
     1
 43
2.9
 10
749.7570447252911
 20
972.8420835772807
 42
1.0
 10
752.857044725291
 20
972.8420835772807
 42
1.0
  0
LWPOLYLINE
  5
23DA
330
18
100
AcDbEntity
  8
V35
100
AcDbPolyline
 90
        2
 70
     1
 43
2.9
 10
586.7216570743023
 20
825.6554041321116
 42
1.0
 10
589.8216570743023
 20
825.6554041321116
 42
1.0
  0
LWPOLYLINE
  5
23DB
330
18
100
AcDbEntity
  8
V35
100
AcDbPolyline
 90
        2
 70
     1
 43
2.9
 10
693.7837427638854
 20
763.0396167244589
 42
1.0
 10
696.8837427638852
 20
763.0396167244589
 42
1.0
  0
LWPOLYLINE
  5
23DE
330
18
100
AcDbEntity
  8
V35
100
AcDbPolyline
 90
        2
 70
     1
 43
2.9
 10
718.6044855393324
 20
508.0168273225182
 42
1.0
 10
721.7044855393323
 20
508.0168273225182
 42
1.0
  0
LWPOLYLINE
  5
23DF
330
18
100
AcDbEntity
  8
V35
100
AcDbPolyline
 90
        2
 70
     1
 43
2.9
 10
596.5319911089789
 20
447.9031079212282
 42
1.0
 10
599.6319911089788
 20
447.9031079212282
 42
1.0
  0
LWPOLYLINE
  5
23E0
330
18
100
AcDbEntity
  8
V35
100
AcDbPolyline
 90
        2
 70
     1
 43
2.9
 10
645.6670866720298
 20
387.7893885199382
 42
1.0
 10
648.7670866720297
 20
387.7893885199382
 42
1.0
  0
LWPOLYLINE
  5
23E1
330
18
100
AcDbEntity
  8
V35
100
AcDbPolyline
 90
        2
 70
     1
 43
2.9
 10
600.1300537997882
 20
288.8511072236022
 42
1.0
 10
603.2300537997882
 20
288.8511072236022
 42
1.0
  0
LWPOLYLINE
  5
23E2
330
18
100
AcDbEntity
  8
V35
100
AcDbPolyline
 90
        2
 70
     1
 43
2.9
 10
698.5009862103415
 20
267.5619497173584
 42
1.0
 10
701.6009862103413
 20
267.5619497173584
 42
1.0
  0
LWPOLYLINE
  5
23E4
330
18
100
AcDbEntity
  8
V35
100
AcDbPolyline
 90
        2
 70
     1
 43
2.9
 10
518.2460154814273
 20
763.0900200314548
 42
1.0
 10
521.3460154814272
 20
763.0900200314548
 42
1.0
  0
LWPOLYLINE
  5
23E5
330
18
100
AcDbEntity
  8
V35
100
AcDbPolyline
 90
        2
 70
     1
 43
2.9
 10
489.7005471670693
 20
683.4993792610561
 42
1.0
 10
492.8005471670692
 20
683.4993792610561
 42
1.0
  0
LWPOLYLINE
  5
23E6
330
18
100
AcDbEntity
  8
V35
100
AcDbPolyline
 90
        2
 70
     1
 43
2.9
 10
508.9122509008054
 20
950.3704864680456
 42
1.0
 10
512.0122509008053
 20
950.3704864680456
 42
1.0
  0
LWPOLYLINE
  5
23FA
330
18
100
AcDbEntity
  8
V5
100
AcDbPolyline
 90
        5
 70
     0
 43
2.2
 10
480.2817628824075
 20
946.9698726885193
 10
490.1115874138755
 20
953.8527899247316
 10
776.6795534275549
 20
978.924238280611
 10
776.6795534275549
 20
851.0893016710662
 10
759.0018838978911
 20
868.7669712007298
  0
LINE
  5
29FC
330
18
100
AcDbEntity
  8
V5
100
AcDbLine
 10
635.6743314025759
 20
927.8233401337923
 30
0.0
 11
659.6184509417062
 21
923.601345829735
 31
0.0
  0
LINE
  5
29FD
330
18
100
AcDbEntity
  8
V7
100
AcDbLine
 10
636.7950995275194
 20
899.6269091259307
 30
0.0
 11
641.5831779206487
 21
926.7814510677906
 31
0.0
  0
LINE
  5
29FE
330
18
100
AcDbEntity
  8
V5
100
AcDbLine
 10
630.8862530094459
 20
900.6687981919323
 30
0.0
 11
635.6743314025759
 21
927.8233401337923
 31
0.0
  0
LINE
  5
29FF
330
18
100
AcDbEntity
  8
V5
100
AcDbLine
 10
632.7781075036048
 20
892.3023296050962
 30
0.0
 11
662.6007511648865
 21
922.2144274161985
 31
0.0
  0
ARC
  5
2A00
330
18
100
AcDbEntity
  8
V5
100
AcDbCircle
 10
659.9506404659794
 20
927.8899391652224
 30
0.0
 40
4.301439605204218
100
AcDbArc
 50
265.5707787181511
 51
340.1881010762717
  0
ARC
  5
2A01
330
18
100
AcDbEntity
  8
V5
100
AcDbCircle
 10
658.5933182715976
 20
925.8880333654227
 30
0.0
 40
5.436441765014149
100
AcDbArc
 50
317.4885756023485
 51
7.212473535848812
  0
ARC
  5
2A02
330
18
100
AcDbEntity
  8
V5
100
AcDbCircle
 10
623.9925987383606
 20
901.8843354356011
 30
0.0
 40
7.0
100
AcDbArc
 50
274.9999999999995
 51
349.999999999995
  0
ARC
  5
2A03
330
18
100
AcDbEntity
  8
V7
100
AcDbCircle
 10
623.9925987383606
 20
901.8843354356006
 30
0.0
 40
12.99999999999996
100
AcDbArc
 50
274.9999999999995
 51
349.999999999995
  0
LINE
  5
2A04
330
18
100
AcDbEntity
  8
V7
100
AcDbLine
 10
103.4856115598994
 20
842.3058603305976
 30
0.0
 11
625.1256233940799
 21
888.933804360408
 31
0.0
  0
LWPOLYLINE
  5
2C60
330
18
100
AcDbEntity
  8
V5
100
AcDbPolyline
 90
        3
 70
     0
 43
2.2
 10
698.2083799115352
 20
849.8296246564086
 10
698.2083799115352
 20
779.699079351945
 10
119.9025856779649
 20
729.103878305152
  0
HATCH
  5
2C6A
330
18
100
AcDbEntity
  8
V25
 48
5.0
100
AcDbHatch
 10
0.0
 20
0.0
 30
0.0
210
0.0
220
0.0
230
1.0
  2
ANSI37
 70
     0
 71
     1
 91
        1
 92
        7
 72
     0
 73
     1
 93
        4
 10
620.3311001890822
 20
771.5909198788123
 10
620.7668789028205
 20
766.6099463883536
 10
665.5956403169491
 20
770.5319548119982
 10
665.1598616032107
 20
775.512928302457
 97
        1
330
2C6B
 75
     0
 76
     1
 52
4.999999999999981
 41
1.0
 77
     0
 78
     2
 53
49.99999999999997
 43
195.1352969146815
 44
74.69801092810292
 45
-2.432191106902754
 46
2.040850660754762
 79
     0
 53
139.9999999999999
 43
195.1352969146815
 44
74.69801092810292
 45
-2.040850660754762
 46
-2.432191106902754
 79
     0
 47
0.1149827854136383
 98
        1
 10
638.6828245133179
 20
771.5206225227132
  0
LWPOLYLINE
  5
2C6B
102
{ACAD_REACTORS
330
2C6A
102
}
330
18
100
AcDbEntity
  8
V25
  6
AUSGEZOGEN
 48
5.0
100
AcDbPolyline
 90
        4
 70
     1
 43
0.0
 10
620.7668789028205
 20
766.6099463883536
 10
665.5956403169491
 20
770.5319548119981
 10
665.1598616032108
 20
775.512928302457
 10
620.3311001890822
 20
771.5909198788123
  0
MTEXT
  5
2C6C
102
{ACAD_XDICTIONARY
360
48C2
102
}
330
18
100
AcDbEntity
  8
TXT-D
100
AcDbMText
 10
799.3487940377423
 20
706.3281874147881
 30
0.0
 40
14.0
 41
147.3781
 71
     1
 72
     5
  1
t\U+011Bsn\U+00EDc\U+00ED p\U+00E1sek 2x
  7
ROMANS
 73
     1
 44
1.0
  0
LINE
  5
2C6D
330
18
100
AcDbEntity
  8
TXT-D
100
AcDbLine
 10
679.0816007763578
 20
699.423829316806
 30
0.0
 11
794.4629004559625
 21
699.4238293168059
 31
0.0
  0
LINE
  5
2C6E
330
18
100
AcDbEntity
  8
TXT-D
100
AcDbLine
 10
679.0816007763578
 20
699.423829316806
 30
0.0
 11
631.4952625296038
 21
769.7398222183253
 31
0.0
  0
LINE
  5
2C6F
330
18
100
AcDbEntity
  8
TXT-D
100
AcDbLine
 10
679.0816007763578
 20
699.423829316806
 30
0.0
 11
593.669342862084
 21
719.0283388257771
 31
0.0
  0
LWPOLYLINE
  5
2C70
330
18
100
AcDbEntity
  8
V35
100
AcDbPolyline
 90
        2
 70
     1
 43
2.9
 10
592.119342862084
 20
719.0283388257771
 42
1.0
 10
595.2193428620839
 20
719.0283388257771
 42
1.0
  0
LWPOLYLINE
  5
2C71
330
18
100
AcDbEntity
  8
V35
100
AcDbPolyline
 90
        2
 70
     1
 43
2.9
 10
629.9452625296039
 20
769.7398222183253
 42
1.0
 10
633.0452625296039
 20
769.7398222183253
 42
1.0
  0
ARC
  5
2C72
330
18
100
AcDbEntity
  8
ISO
100
AcDbCircle
 10
683.0994936276987
 20
694.9586395578425
 30
0.0
 40
11.76
100
AcDbArc
 50
0.0000000000000509
 51
90.0
  0
ARC
  5
2C73
330
18
100
AcDbEntity
  8
ISO
100
AcDbCircle
 10
683.0994936276987
 20
718.4786395578422
 30
0.0
 40
11.76
100
AcDbArc
 50
270.0
 51
360.0
  0
ARC
  5
2C74
330
18
100
AcDbEntity
  8
ISO
100
AcDbCircle
 10
683.0994960254189
 20
718.478639557842
 30
0.0
 40
11.76
100
AcDbArc
 50
0.0000000000000509
 51
90.0
  0
ARC
  5
2C75
330
18
100
AcDbEntity
  8
ISO
100
AcDbCircle
 10
683.0994960254189
 20
741.9986395578417
 30
0.0
 40
11.76
100
AcDbArc
 50
270.0
 51
360.0
  0
ARC
  5
2C76
330
18
100
AcDbEntity
  8
ISO
100
AcDbCircle
 10
683.0994936276987
 20
741.9986391582222
 30
0.0
 40
11.76
100
AcDbArc
 50
0.0000000000000509
 51
90.0
  0
ARC
  5
2C77
330
18
100
AcDbEntity
  8
ISO
100
AcDbCircle
 10
683.0994936276987
 20
765.5186391582219
 30
0.0
 40
11.76
100
AcDbArc
 50
270.0
 51
360.0
  0
LINE
  5
2C7F
330
18
100
AcDbEntity
  8
V25
100
AcDbLine
 10
643.181938356555
 20
759.3580626539139
 30
0.0
 11
641.4639389407336
 21
778.9948858328645
 31
0.0
  0
TEXT
  5
4612
330
18
100
AcDbEntity
  8
TXT-D
100
AcDbText
 10
-37.61705895241175
 20
1105.091120987323
 30
0.0
 40
14.0
  1
poplastovaná klipsa*
  7
ROMANS
100
AcDbText
  0
TEXT
  5
4613
330
18
100
AcDbEntity
  8
TXT-D
100
AcDbText
 10
48.46455276075619
 20
1123.954751006611
 30
0.0
 40
14.0
  1
alternativa:
  7
ROMANS
100
AcDbText
  0
LINE
  5
46A1
330
18
100
AcDbEntity
  8
TXT-D
 48
5.0
100
AcDbLine
 10
471.1150402586367
 20
508.0168273225181
 30
0.0
 11
491.2505471670693
 21
508.0168273225181
 31
0.0
  0
TEXT
  5
475B
330
18
100
AcDbEntity
  8
TXT-D
100
AcDbText
 10
387.2950167881409
 20
1173.119245681075
 30
0.0
 40
14.0
  1
v hřebeni
  7
ROMANS
100
AcDbText
  0
TEXT
  5
475C
330
18
100
AcDbEntity
  8
TXT-D
100
AcDbText
 10
813.2736908746144
 20
824.0049770649447
 30
0.0
 40
14.0
  1
tepelná izolace - tvrdá
  7
ROMANS
100
AcDbText
  0
TEXT
  5
475E
330
18
100
AcDbEntity
  8
TXT-D
100
AcDbText
 10
111.1968529887594
 20
941.1490621421512
 30
0.0
 40
14.0
  1
parotěsná vrstva
  7
ROMANS
100
AcDbText
  0
MTEXT
  5
4765
102
{ACAD_XDICTIONARY
360
4838
102
}
330
18
100
AcDbEntity
  8
TXT-D
100
AcDbMText
 10
348.8814035403107
 20
981.3858850062734
 30
0.0
 40
14.0
 41
156.1007834499264
 71
     7
 72
     5
  1
\pi76.414;kotven\U+00ED \P\pi25.895;h\U+0159ebenov\U+00E9ho \P\pi29.515;oplechov\U+00E1n\U+00ED:\P\pi98.674;max. \P\pi44.957;vzd\U+00E1lenost \P\pi9.6704;400mm, jen do \P\pi47.736;h\U+0159ebenov\U+00E9 \P\pi71.009;uz\U+00E1v\U+011Bry\P
  7
ROMANS
 73
     1
 44
1.0
  0
TEXT
  5
4767
330
18
100
AcDbEntity
  8
TXT-D
100
AcDbText
 10
-84.30791753239123
 20
1003.923788672021
 30
0.0
 40
14.0
  1
tepelná izolace - minerální vlna
  7
ROMANS
100
AcDbText
  0
TEXT
  5
4769
330
18
100
AcDbEntity
  8
TXT-D
100
AcDbText
 10
809.88280337443
 20
1174.978371177806
 30
0.0
 40
14.0
  1
Z profil
  7
ROMANS
100
AcDbText
  0
TEXT
  5
476A
330
18
100
AcDbEntity
  8
TXT-D
100
AcDbText
 10
810.412811474257
 20
1134.992376004434
 30
0.0
 40
14.0
  1
zahnutí v hřebeni
  7
ROMANS
100
AcDbText
  0
TEXT
  5
476B
330
18
100
AcDbEntity
  8
TXT-D
100
AcDbText
 10
809.7270241171646
 20
1088.257635490214
 30
0.0
 40
14.0
  1
oplechování
  7
ROMANS
100
AcDbText
  0
TEXT
  5
476C
330
18
100
AcDbEntity
  8
TXT-D
100
AcDbText
 10
33.27319718805211
 20
1173.309845090748
 30
0.0
 40
14.0
  1
pevný bod na klipse
  7
ROMANS
100
AcDbText
  0
TEXT
  5
476D
330
18
100
AcDbEntity
  8
TXT-D
100
AcDbText
 10
-83.36682502930239
 20
1151.677215769386
 30
0.0
 40
14.0
  1
hliníková klipsa s termopodložkou
  7
ROMANS
100
AcDbText
  0
MTEXT
  5
476E
102
{ACAD_XDICTIONARY
360
48FC
102
}
330
18
100
AcDbEntity
  8
TXT-D
100
AcDbMText
 10
48.34534640327456
 20
1236.267028989324
 30
0.0
 40
14.0
 41
231.5306
 71
     7
 72
     5
  1
typ pevn\U+00E9ho bodu stanoven\U+00FD v\U+00FDpo\U+010Dtem
  7
ROMANS
 73
     1
 44
1.0
  0
TEXT
  5
476F
330
18
100
AcDbEntity
  8
TXT-D
100
AcDbText
 10
809.7270241171646
 20
1106.358535065149
 30
0.0
 40
14.0
  1
hřebenové 
  7
ROMANS
100
AcDbText
  0
TEXT
  5
4785
330
18
100
AcDbEntity
  8
TXT-D
100
AcDbText
 10
385.3022524516727
 20
1195.029304956931
 30
0.0
 40
14.0
  1
ucpávka
  7
ROMANS
100
AcDbText
  0
VIEWPORT
  5
27F
330
15
100
AcDbEntity
 67
     1
  8
0
100
AcDbViewport
 10
153.5221131969697
 20
157.0713627925538
 30
0.0
 40
971.3065887367219
 41
377.2719800266959
 68
     1
 69
     1
 12
153.5221131969697
 22
157.0713627925538
 13
0.0
 23
0.0
 14
10.0
 24
10.0
 15
10.0
 25
10.0
 16
0.0
 26
0.0
 36
1.0
 17
0.0
 27
0.0
 37
0.0
 42
50.0
 43
0.0
 44
0.0
 45
377.2719800266959
 50
0.0
 51
0.0
 72
   100
 90
    32800
  1

281
     0
 71
     1
 74
     0
110
0.0
120
0.0
130
0.0
111
1.0
121
0.0
131
0.0
112
0.0
122
1.0
132
0.0
 79
     0
146
0.0
170
     0
  0
VIEWPORT
  5
8F2
330
15
100
AcDbEntity
 67
     1
  8
Mansfen
100
AcDbViewport
 10
100.9376367019383
 20
145.8618034367048
 30
0.0
 40
190.1500212327088
 41
250.0286715940809
 68
     2
 69
     2
 12
508.1448270026381
 22
707.9603211124094
 13
0.0
 23
0.0
 14
10.0
 24
10.0
 15
10.0
 25
10.0
 16
0.0
 26
0.0
 36
1.0
 17
0.0
 27
0.0
 37
0.0
 42
50.0
 43
0.0
 44
0.0
 45
1250.143372722319
 50
0.0
 51
0.0
 72
 20000
 90
    32768
  1

281
     0
 71
     1
 74
     0
110
0.0
120
0.0
130
0.0
111
1.0
121
0.0
131
0.0
112
0.0
122
1.0
132
0.0
 79
     0
146
0.0
170
     0
  0
LINE
  5
1AB7
330
15
100
AcDbEntity
 67
     1
  8
V5
 62
     1
100
AcDbLine
 10
5.862626085583912
 20
20.84746763966433
 30
0.0
 11
194.5157349681323
 21
20.84746763966432
 31
0.0
  0
LINE
  5
1AB8
330
15
100
AcDbEntity
 67
     1
  8
V5
 62
     1
100
AcDbLine
 10
5.862626085583912
 20
270.8761392337452
 30
0.0
 11
194.5157349681324
 21
270.8761392337452
 31
0.0
  0
TEXT
  5
1ABA
330
15
100
AcDbEntity
 67
     1
  8
0
 62
     7
100
AcDbText
 10
5.862626085583912
 20
278.4525358203893
 30
0.0
 40
2.585627078393893
  1
Detail - vazníková střecha
  7
Stil1
100
AcDbText
  0
TEXT
  5
1ABB
330
15
100
AcDbEntity
 67
     1
  8
0
 62
     7
100
AcDbText
 10
5.862626085583912
 20
273.8374442866485
 30
0.0
 40
2.585627078393893
  1
Hřeben pultové střechy
  7
Stil1
100
AcDbText
  0
LWPOLYLINE
  5
1ABC
102
{ACAD_REACTORS
330
1ABF
102
}
330
15
100
AcDbEntity
 67
     1
  8
0
 62
     1
100
AcDbPolyline
 90
        8
 70
     1
 43
0.0
 10
164.8861137720383
 20
7.137625632008951
 42
-0.2451258193606399
 10
164.352135364201
 20
7.539273909738064
 42
-0.1420187448230164
 10
164.3660736963495
 20
8.36039226064428
 42
-0.2899718709829171
 10
165.3625434248853
 20
8.991341152224311
 10
166.1290903520431
 20
8.991341152224311
 42
-0.3900918559591556
 10
166.3406046281455
 20
8.792519236678458
 10
166.3406046281456
 20
7.982823233950362
 42
-0.2034436104283782
 10
166.1161272801131
 20
7.484856705441732
 42
-0.2311376311759479
  0
LWPOLYLINE
  5
1ABD
102
{ACAD_REACTORS
330
1ABF
102
}
330
15
100
AcDbEntity
 67
     1
  8
0
 62
     1
100
AcDbPolyline
 90
       18
 70
     1
 43
0.0
 10
166.259341620759
 20
9.766812620944655
 42
0.1602289575782981
 10
166.1356673791248
 20
10.29906930192685
 42
0.2678367822512051
 10
165.3350637654536
 20
10.7060897489492
 42
0.1250890829061368
 10
164.0122886196519
 20
10.35087444135887
 10
163.6286695786015
 20
11.04939135924316
 42
-0.2393084470231862
 10
166.2796355984096
 20
11.41486673678506
 42
-0.2771818233458632
 10
167.2712060597314
 20
9.882719197536598
 10
167.2712060597314
 20
7.783325622030456
 42
0.2106080285028759
 10
167.7202111446426
 20
6.798458239304608
 42
-0.655875337136226
 10
167.6137723919788
 20
6.508406778884861
 42
-0.2140955845208337
 10
166.5344695771976
 20
6.859115730674083
 42
0.3793030021024653
 10
166.2537188174503
 20
6.825450788898354
 42
-0.1547524270167758
 10
165.2998619467866
 20
6.520090938431859
 10
164.5766028699789
 20
6.520090938431859
 42
-0.3920539506815679
 10
163.4141116315821
 20
7.671700873843386
 42
-0.1827818212654531
 10
163.7059431775548
 20
8.863368905817711
 42
-0.1876748474912757
 10
165.338753255916
 20
9.684427399142013
 42
-0.0541248642832585
 10
166.1579051751706
 20
9.686850262029896
 42
0.4569276421989473
  0
LWPOLYLINE
  5
1ABE
102
{ACAD_REACTORS
330
1ABF
102
}
330
15
100
AcDbEntity
 67
     1
  8
0
 62
     1
100
AcDbPolyline
 90
       12
 70
     1
 43
0.0
 10
155.9988026775777
 20
3.45243228849938
 42
-0.4142135623730951
 10
155.0238026775777
 20
4.42743228849938
 10
155.0238026775777
 20
14.86596045719827
 42
-0.2659775848638765
 10
155.5050998594816
 20
15.70672351978129
 42
-0.2516648824931137
 10
170.4646271489323
 20
16.27351992293238
 10
170.2645821096617
 20
15.86485504523517
 42
0.2516648824931138
 10
155.7354945079265
 20
15.3143674239092
 42
0.2659775848638775
 10
155.4788026775777
 20
14.86596045719827
 10
155.4788026775777
 20
4.42743228849938
 42
0.4142135623730951
 10
155.9988026775777
 20
3.907432288499379
 10
170.3638026775777
 20
3.907432288499379
 10
170.3638026775777
 20
3.45243228849938
  0
HATCH
  5
1ABF
330
15
100
AcDbEntity
 67
     1
  8
0
 62
     1
100
AcDbHatch
 10
0.0
 20
0.0
 30
0.0
210
0.0
220
0.0
230
1.0
  2
SOLID
 70
     1
 71
     1
 91
        5
 92
        7
 72
     1
 73
     1
 93
       12
 10
155.5050998594816
 20
15.70672351978129
 42
0.2659775848638745
 10
155.0238026775777
 20
14.86596045719827
 42
0.0
 10
155.0238026775777
 20
4.427432288499375
 42
0.4142135623730935
 10
155.9988026775777
 20
3.45243228849938
 42
0.0
 10
170.3638026775777
 20
3.45243228849938
 42
0.0
 10
170.3638026775777
 20
3.907432288499379
 42
0.0
 10
155.9988026775777
 20
3.907432288499379
 42
-0.4142135623730977
 10
155.4788026775777
 20
4.427432288499384
 42
0.0
 10
155.4788026775777
 20
14.86596045719825
 42
-0.2659775848638737
 10
155.7354945079264
 20
15.31436742390919
 42
-0.2516648824931143
 10
170.2645821096617
 20
15.86485504523517
 42
0.0
 10
170.4646271489323
 20
16.27351992293238
 42
0.2516648824931142
 97
        1
330
1ABE
 92
       23
 72
     0
 73
     1
 93
       12
 10
159.1931723049634
 20
13.22874580593033
 10
158.1646157734467
 20
13.22874580593033
 10
158.1646157734467
 20
6.517180945758529
 10
159.1931723049634
 20
6.517180945758529
 10
159.1931723049634
 20
8.416854470426423
 10
159.9972121719259
 20
9.488106931637414
 10
161.9443609729196
 20
6.517180945758531
 10
163.0818442971624
 20
6.517180945758525
 10
160.6296878713945
 20
10.33077801991478
 10
162.8047882492229
 20
13.22874580593033
 10
161.6553645179006
 20
13.22874580593032
 10
159.1931723049634
 20
9.801516354479634
 97
        1
330
1AC0
 92
       23
 72
     1
 73
     1
 93
       18
 10
163.6286695786015
 20
11.04939135924316
 42
0.0
 10
164.0122886196519
 20
10.35087444135887
 42
-0.1250890829061343
 10
165.3350637654535
 20
10.7060897489492
 42
-0.267836782250909
 10
166.1356673791243
 20
10.29906930192775
 42
-0.1602289575786653
 10
166.259341620759
 20
9.766812620944451
 42
-0.4569276421982639
 10
166.1579051751706
 20
9.686850262029896
 42
0.0541248642832679
 10
165.3387532559159
 20
9.684427399141997
 42
0.1876748474912564
 10
163.7059431775548
 20
8.863368905817745
 42
0.1827818212654466
 10
163.4141116315821
 20
7.671700873843476
 42
0.3920539506815952
 10
164.5766028699789
 20
6.520090938431859
 42
0.0
 10
165.2998619467867
 20
6.520090938431859
 42
0.1547524270167747
 10
166.2537188174504
 20
6.825450788898421
 42
-0.4453775332542486
 10
166.5706341894595
 20
6.827482174510481
 42
0.2086188919813899
 10
167.6326352870495
 20
6.510575979547967
 42
0.6162695522437575
 10
167.7202111446429
 20
6.798458239304361
 42
-0.2171983840448881
 10
167.2712060597314
 20
7.817149536132321
 42
0.0
 10
167.2712060597314
 20
9.88271919753687
 42
0.2771818233458192
 10
166.2796355984096
 20
11.41486673678506
 42
0.2393084470231889
 97
        1
330
1ABD
 92
       22
 72
     1
 73
     1
 93
        8
 10
165.3625434248853
 20
8.991341152224311
 42
0.0
 10
166.1245441633908
 20
8.991341152224311
 42
-0.4387538430829209
 10
166.3406046281455
 20
8.761487855260405
 42
0.0
 10
166.3406046281456
 20
8.013716733755426
 42
-0.231573802586463
 10
166.0827366039533
 20
7.455908097310621
 42
-0.2231591289142601
 10
164.8861137720388
 20
7.137625632008874
 42
-0.2451258193607781
 10
164.3521353642011
 20
7.539273909737975
 42
-0.1420187448229963
 10
164.3660736963494
 20
8.360392260644081
 42
-0.2899718709829691
 97
        1
330
1ABC
 92
        7
 72
     1
 73
     1
 93
        7
 10
169.6263780685755
 20
13.44753510223376
 42
0.0
 10
168.6891947302181
 20
13.44753510223375
 42
0.0
 10
168.6891947302181
 20
7.544132570549709
 42
0.3265321329225785
 10
169.8330021056258
 20
6.517077464232746
 42
0.0
 10
170.5080567525449
 20
6.517082367544258
 42
0.0
 10
170.5080567525449
 20
7.254687454191742
 42
-0.4142135623730958
 10
169.6263780685755
 20
8.136366138161109
 42
0.0
 97
        1
330
1AC6
 75
     0
 76
     1
 47
0.2105755737740495
 98
        5
 10
167.7702663149571
 20
17.11509740741697
 10
158.7298222459274
 20
12.02338006614279
 10
165.3046907160368
 20
11.1473856688791
 10
165.3046907160368
 20
11.1473856688791
 10
169.2770070447092
 20
9.149023475904932
450
        0
451
        0
460
0.0
461
0.0
452
        0
462
0.0
453
        0
470

  0
LWPOLYLINE
  5
1AC0
102
{ACAD_REACTORS
330
1ABF
102
}
330
15
100
AcDbEntity
 67
     1
  8
0
 62
     1
100
AcDbPolyline
 90
       13
 70
     0
 43
0.0
 10
159.1931723049634
 20
9.801516354479705
 10
159.1931723049634
 20
13.22874580593033
 10
158.1646157734467
 20
13.22874580593033
 10
158.1646157734467
 20
6.517180945758529
 10
159.1931723049634
 20
6.517180945758529
 10
159.1931723049634
 20
8.416854470426436
 10
159.9972121719259
 20
9.488106931637414
 10
161.9443609729196
 20
6.517180945758532
 10
163.0818442971624
 20
6.517180945758525
 10
160.6296878713945
 20
10.3307780199148
 10
162.804788249223
 20
13.22874580593033
 10
161.6553645179006
 20
13.22874580593032
 10
159.1818950726489
 20
9.78581909797958
  0
LWPOLYLINE
  5
1AC1
102
{ACAD_REACTORS
330
1AC4
102
}
330
15
100
AcDbEntity
 67
     1
  8
0
 62
     1
100
AcDbPolyline
 90
       15
 70
     0
 43
0.0
 10
185.2488026775777
 20
14.11243969102315
 42
-0.4142135623730951
 10
186.2238026775777
 20
13.13743969102315
 10
186.2238026775777
 20
4.42743228849938
 42
-0.4142135623730951
 10
185.2488026775777
 20
3.45243228849938
 10
171.0138026775777
 20
3.45243228849938
 10
171.0138026775777
 20
3.907432288499379
 10
185.2488026775777
 20
3.907432288499379
 42
0.4142135623730951
 10
185.7688026775777
 20
4.42743228849938
 10
185.7688026775777
 20
13.13743969102315
 42
0.4142135623730951
 10
185.2488026775777
 20
13.65743969102315
 10
182.5863981046802
 20
13.65743969102315
 42
-0.0829624126767354
 10
170.9447796284981
 20
15.53426399885702
 10
171.0902320537082
 20
15.96538879749483
 42
0.0829624126767356
 10
182.5838026775777
 20
14.11243228849936
 10
185.2526020020644
 20
14.11243228849938
  0
LWPOLYLINE
  5
1AC2
102
{ACAD_REACTORS
330
1AC4
102
}
330
15
100
AcDbEntity
 67
     1
  8
0
 62
     1
100
AcDbPolyline
 90
        7
 70
     1
 43
0.0
 10
182.0963936467352
 20
9.742901537095619
 42
0.1898212309735227
 10
181.5225547645433
 20
10.62346929122494
 42
0.2989352106795207
 10
179.8110897008635
 20
10.45907813124387
 10
179.8110897008635
 20
7.547186016419454
 42
0.2741033349168594
 10
181.3595039469848
 20
7.476237103839597
 42
0.0600684322456349
 10
181.7499333116428
 20
7.776068293503376
 42
0.1241286129052769
 10
182.0969018567786
 20
8.37592981493028
 42
0.0659282931228788
  0
LWPOLYLINE
  5
1AC3
102
{ACAD_REACTORS
330
1AC4
102
}
330
15
100
AcDbEntity
 67
     1
  8
0
 62
     1
100
AcDbPolyline
 90
       12
 70
     1
 43
0.0
 10
179.8110897008635
 20
11.45052776646599
 10
179.8110897008635
 20
11.5880347764463
 10
178.6763698634262
 20
11.5880347764463
 10
178.6763698634262
 20
4.60952968599879
 10
179.8333863446493
 20
4.60952968599879
 10
179.8333863446493
 20
6.544596513445739
 42
-0.4980732597277929
 10
179.9481246231819
 20
6.614124945370356
 42
0.1631603344019285
 10
181.6706342515861
 20
6.515724973164847
 42
0.2143211476370474
 10
183.0159376947648
 20
7.92793466808396
 42
0.1454787830754339
 10
183.0513380400315
 20
10.26262705850799
 42
0.209028960994081
 10
181.9021619421
 20
11.5256850107906
 42
0.2333951007146881
 10
179.9382999912279
 20
11.45052776646599
  0
HATCH
  5
1AC4
330
15
100
AcDbEntity
 67
     1
  8
0
 62
     1
100
AcDbHatch
 10
0.0
 20
0.0
 30
0.0
210
0.0
220
0.0
230
1.0
  2
SOLID
 70
     1
 71
     1
 91
        9
 92
       23
 72
     1
 73
     1
 93
       12
 10
171.0495182531482
 20
11.58468167054701
 42
0.0
 10
171.0495182531482
 20
10.62507523001182
 42
0.0
 10
173.571452805713
 20
10.62507523001182
 42
-0.7299518516203806
 10
173.6459583513536
 20
10.48584260609456
 42
0.0
 10
170.9756246602298
 20
6.830043279915821
 42
0.5071802274159938
 10
171.1283808734264
 20
6.517086873316618
 42
0.0
 10
175.284198162826
 20
6.517117059415895
 42
0.0
 10
175.284198162826
 20
7.480341056735928
 42
0.0
 10
172.7023968172833
 20
7.480341056735928
 42
-0.6989832493954995
 10
172.6669460236101
 20
7.55699371936049
 42
0.0
 10
175.2379173206443
 20
11.11065926093471
 42
0.0
 10
175.2379173206444
 20
11.58468167054701
 42
0.0
 97
        1
330
1AC5
 92
       23
 72
     0
 73
     1
 93
        6
 10
177.4507764679005
 20
11.57647335834188
 10
175.726821670779
 20
11.57647335834188
 10
175.7268216707789
 20
10.64789000558534
 10
176.3745368003476
 20
10.64789000558535
 10
176.3745368003476
 20
6.517124979174709
 10
177.4507764679005
 20
6.51713279652457
 97
        1
330
1AC8
 92
       23
 72
     1
 73
     1
 93
       12
 10
178.6763698634262
 20
4.609529685998791
 42
0.0
 10
179.8333863446493
 20
4.60952968599879
 42
0.0
 10
179.8333863446493
 20
6.527516848940283
 42
-0.564020014537643
 10
179.9482949130561
 20
6.614056830583248
 42
0.1631429899312781
 10
181.6706342515861
 20
6.515724973164848
 42
0.2143211476370291
 10
183.0159376947647
 20
7.927934668083806
 42
0.1454787830754401
 10
183.0513380400315
 20
10.26262705850793
 42
0.2090289609908675
 10
181.902161942124
 20
11.52568501077987
 42
0.2333951007178159
 10
179.9382999912278
 20
11.45052776646599
 42
0.0
 10
179.8110897008635
 20
11.45052776646599
 42
0.0
 10
179.8110897008635
 20
11.5880347764463
 42
0.0
 10
178.6763698634263
 20
11.5880347764463
 42
0.0
 97
        1
330
1AC3
 92
       22
 72
     1
 73
     1
 93
        7
 10
179.8110897008635
 20
10.45907813124387
 42
-0.2989352106795097
 10
181.5225547645432
 20
10.62346929122497
 42
-0.1898212309735409
 10
182.0963936467352
 20
9.742901537095576
 42
-0.0659282931228754
 10
182.0969018567786
 20
8.375929814930309
 42
-0.1241286129053254
 10
181.7499333116426
 20
7.7760682935032
 42
-0.0600684322456203
 10
181.3595039469847
 20
7.476237103839542
 42
-0.2741033349168366
 10
179.8110897008635
 20
7.547186016419455
 42
0.0
 97
        1
330
1AC2
 92
        7
 72
     1
 73
     1
 93
       14
 10
185.2526020020644
 20
14.11243228849938
 42
0.0
 10
182.5838026775755
 20
14.11243228849935
 42
-0.0829624126767202
 10
171.0902320537082
 20
15.96538879749483
 42
0.0
 10
170.9447796284981
 20
15.53426399885703
 42
0.0829624126767251
 10
182.5863981046788
 20
13.65743969102315
 42
0.0
 10
185.2488026775777
 20
13.65743969102315
 42
-0.4142135623730971
 10
185.7688026775777
 20
13.13743969102314
 42
0.0
 10
185.7688026775777
 20
4.427432288499384
 42
-0.4142135623730977
 10
185.2488026775777
 20
3.907432288499379
 42
0.0
 10
171.0138026775777
 20
3.907432288499379
 42
0.0
 10
171.0138026775777
 20
3.45243228849938
 42
0.0
 10
185.2488026775777
 20
3.45243228849938
 42
0.4142135623730997
 10
186.2238026775777
 20
4.427432288499395
 42
0.0
 10
186.2238026775777
 20
13.13743969102316
 42
0.4130726898721487
 97
        1
330
1AC1
 92
        7
 72
     1
 73
     1
 93
        2
 10
187.7148786157863
 20
15.29180325279995
 42
1.0
 10
186.0509184131385
 20
15.29180325279995
 42
1.0
 97
        1
330
1ACC
 92
       22
 72
     1
 73
     1
 93
        2
 10
186.1898762718818
 20
15.29180325279995
 42
-1.0
 10
187.575920757043
 20
15.29180325279995
 42
-1.0
 97
        1
330
1ACA
 92
        6
 72
     1
 73
     1
 93
       16
 10
186.573348544529
 20
14.85321699296151
 42
0.0
 10
186.573348544529
 20
15.68662511925185
 42
-0.4302925980981736
 10
186.6443928316434
 20
15.76039807420019
 42
0.0
 10
186.9103247593841
 20
15.76039807420018
 42
-0.1568897140508004
 10
187.1848476228127
 20
15.69322617395473
 42
-0.3153417755023655
 10
187.2594405946101
 20
15.54753811975315
 42
0.0
 10
187.2594405946101
 20
15.35438349373616
 42
-0.1080222927165122
 10
187.2053794071094
 20
15.23388978600439
 42
-0.0878146924641181
 10
187.2594405946101
 20
15.10162688769751
 42
0.0
 10
187.2594405946101
 20
14.85321699296164
 42
0.0
 10
187.1185260569889
 20
14.85321699296165
 42
0.0
 10
187.1185260569889
 20
15.01723450398278
 42
0.3344300509710908
 10
186.9658488462047
 20
15.15099399856719
 42
0.0
 10
186.835170364258
 20
15.15099399856719
 42
0.3320036502385211
 10
186.7327437201752
 20
15.03068494417714
 42
0.0
 10
186.7327437201752
 20
14.85321699296164
 42
0.0
 97
        1
330
1AC9
 92
        6
 72
     1
 73
     1
 93
       10
 10
186.7572272630642
 20
15.41552053180345
 42
0.0
 10
186.7572272630642
 20
15.51612920146668
 42
-0.4700313181867731
 10
186.8350658774122
 20
15.59841005860066
 42
0.0
 10
186.9184150293482
 20
15.59841005860066
 42
-0.3239396334643629
 10
187.0591561767088
 20
15.53897538934071
 42
-0.1629090778550143
 10
187.0773280440464
 20
15.47236256632572
 42
0.0
 10
187.0773280440464
 20
15.38597059880904
 42
-0.2807969914256643
 10
187.056151362799
 20
15.35069397560769
 42
-0.1413133624006426
 10
186.9757658203196
 20
15.32905276702983
 42
0.0
 10
186.8472400220925
 20
15.32905276702983
 42
-0.4644547038390189
 97
        1
330
1ACD
 75
     0
 76
     1
 47
0.2105755736759934
 98
        9
 10
174.1295308450467
 20
11.08984134836124
 10
176.9786404844792
 20
10.51497003031367
 10
179.2524491405141
 20
10.65184417723191
 10
179.2524491405141
 20
10.65184417723191
 10
185.9095034432886
 20
13.6083252336187
 10
186.5395949817962
 20
14.59381888241095
 10
186.5395949817962
 20
14.59381888241095
 10
186.5395949817962
 20
14.59381888241095
 10
186.5395949817962
 20
14.59381888241095
450
        0
451
        0
460
0.0
461
0.0
452
        0
462
0.0
453
        0
470

  0
LWPOLYLINE
  5
1AC5
102
{ACAD_REACTORS
330
1AC4
102
}
330
15
100
AcDbEntity
 67
     1
  8
0
 62
     1
100
AcDbPolyline
 90
       13
 70
     0
 43
0.0
 10
172.6949881047529
 20
7.480341056735928
 10
175.284198162826
 20
7.480341056735928
 10
175.284198162826
 20
6.517117059415895
 10
171.1283808734264
 20
6.517086873316618
 42
-0.5071802274160878
 10
170.9756246602299
 20
6.830043279915891
 10
173.6594973297956
 20
10.50437803798824
 42
0.5083225216873333
 10
173.601403805907
 20
10.62507523001182
 10
171.0495182531482
 20
10.62507523001182
 10
171.0495182531482
 20
11.58468167054701
 10
175.2379173206443
 20
11.58468167054701
 10
175.2379173206443
 20
11.11065926093475
 10
172.6585172790626
 20
7.545343282386738
 42
0.5855768765223777
 10
172.7023968172833
 20
7.480341056735928
  0
LWPOLYLINE
  5
1AC6
102
{ACAD_REACTORS
330
1ABF
102
}
330
15
100
AcDbEntity
 67
     1
  8
0
 62
     1
100
AcDbPolyline
 90
        7
 70
     1
 43
0.0
 10
169.6263780685755
 20
13.44753510223376
 10
168.6891947302181
 20
13.44753510223375
 10
168.6891947302181
 20
7.544132570549679
 42
0.3265321329225733
 10
169.8330021056258
 20
6.517077464232746
 10
170.5080567525449
 20
6.517082367544258
 10
170.5080567525449
 20
7.254687454191742
 42
-0.4142135623730951
 10
169.6263780685755
 20
8.136366138161108
  0
LWPOLYLINE
  5
1AC7
330
15
100
AcDbEntity
 67
     1
  8
0
 62
     1
100
AcDbPolyline
 90
        2
 70
     1
 43
0.5199938194713205
 10
176.6526661202828
 20
12.90939942560018
 42
1.0
 10
177.1726599397541
 20
12.90939942560018
 42
1.0
  0
LWPOLYLINE
  5
1AC8
102
{ACAD_REACTORS
330
1AC4
102
}
330
15
100
AcDbEntity
 67
     1
  8
0
 62
     1
100
AcDbPolyline
 90
        6
 70
     1
 43
0.0
 10
175.726821670779
 20
10.64789000558534
 10
175.726821670779
 20
11.57647335834188
 10
177.4507764679005
 20
11.57647335834188
 10
177.4507764679005
 20
6.51713279652457
 10
176.3745368003476
 20
6.51712497917471
 10
176.3745368003476
 20
10.64789000558535
  0
LWPOLYLINE
  5
1AC9
102
{ACAD_REACTORS
330
1AC4
330
1ACB
102
}
330
15
100
AcDbEntity
 67
     1
  8
0
 62
     1
100
AcDbPolyline
 90
       17
 70
     0
 43
0.0
 10
186.573348544529
 20
15.69312952784665
 10
186.573348544529
 20
14.85321699296164
 10
186.7327437201752
 20
14.85321699296164
 10
186.7327437201752
 20
15.03068494417733
 42
-0.3320036502381971
 10
186.8351703642581
 20
15.15099399856719
 10
186.9658488462047
 20
15.15099399856719
 42
-0.3344300509710546
 10
187.1185260569889
 20
15.0172345039828
 10
187.1185260569889
 20
14.85321699296164
 10
187.2594405946101
 20
14.85321699296164
 10
187.2594405946101
 20
15.1016268876975
 42
0.0878146924641325
 10
187.2053794071094
 20
15.23388978600441
 42
0.1080222927165679
 10
187.2594405946101
 20
15.35438349373625
 10
187.2594405946101
 20
15.58671409813049
 42
0.2411188226969047
 10
187.1848476228128
 20
15.69322617395468
 42
0.1568897140508559
 10
186.9103247593841
 20
15.76039807420018
 10
186.6432007401251
 20
15.76039807420019
 42
0.4252932903388871
 10
186.573348544529
 20
15.68662511925286
  0
CIRCLE
  5
1ACA
102
{ACAD_REACTORS
330
1AC4
102
}
330
15
100
AcDbEntity
 67
     1
  8
0
 62
     1
100
AcDbCircle
 10
186.8828985144624
 20
15.29180325279995
 30
0.0
 40
0.6930222425806165
  0
HATCH
  5
1ACB
330
15
100
AcDbEntity
 67
     1
  8
0
 62
     1
100
AcDbHatch
 10
0.0
 20
0.0
 30
0.0
210
0.0
220
0.0
230
1.0
  2
SOLID
 70
     1
 71
     1
 91
        2
 92
        7
 72
     1
 73
     1
 93
       16
 10
187.1185260569889
 20
15.01723450398278
 42
0.0
 10
187.1185260569889
 20
14.85321699296164
 42
0.0
 10
187.2594405946101
 20
14.85321699296164
 42
0.0
 10
187.2594405946101
 20
15.10162688769753
 42
0.0878146924641104
 10
187.2053794071095
 20
15.23388978600441
 42
0.1080222927165595
 10
187.2594405946101
 20
15.35438349373625
 42
0.0
 10
187.2594405946101
 20
15.58671409813055
 42
0.192215680109946
 10
187.2071070595019
 20
15.67864078235184
 42
0.171699417140815
 10
186.9103247593841
 20
15.76039807420018
 42
0.0
 10
186.6432007401251
 20
15.76039807420019
 42
0.3983152836414639
 10
186.573348544529
 20
15.69312952784779
 42
0.0
 10
186.573348544529
 20
14.85321699296164
 42
0.0
 10
186.7327437201752
 20
14.85321699296165
 42
0.0
 10
186.7327437201752
 20
15.01374171031459
 42
-0.5014973867698699
 10
186.8939585404043
 20
15.15099399856719
 42
0.0
 10
186.9409113813758
 20
15.15099399856719
 42
-0.3760883100637777
 97
        1
330
1AC9
 92
       22
 72
     1
 73
     1
 93
        2
 10
186.9757658203196
 20
15.32905276702983
 42
0.008892798644809
 10
186.9811087595017
 20
15.32905276702983
 42
0.0
 97
        1
330
1ACD
 75
     0
 76
     1
 47
0.025620434889365
 98
        2
 10
187.0591864004112
 20
15.25275491347287
 10
187.0591864004112
 20
15.25275491347287
450
        0
451
        0
460
0.0
461
0.0
452
        0
462
0.0
453
        0
470

  0
CIRCLE
  5
1ACC
102
{ACAD_REACTORS
330
1AC4
102
}
330
15
100
AcDbEntity
 67
     1
  8
0
 62
     1
100
AcDbCircle
 10
186.8828985144624
 20
15.29180325279995
 30
0.0
 40
0.8319801013239141
  0
LWPOLYLINE
  5
1ACD
102
{ACAD_REACTORS
330
1AC4
330
1ACB
102
}
330
15
100
AcDbEntity
 67
     1
  8
0
 62
     1
100
AcDbPolyline
 90
       10
 70
     1
 43
0.0
 10
187.0591561767089
 20
15.5389753893405
 42
0.2024912017590097
 10
186.9770455384229
 20
15.59841005860066
 10
186.8254169676201
 20
15.59841005860066
 42
0.3605152320615398
 10
186.7572272630642
 20
15.53390183274687
 10
186.7572272630642
 20
15.40505088979384
 42
0.3656960469701174
 10
186.8302323333825
 20
15.32905276702983
 10
186.9811087595017
 20
15.32905276702983
 42
0.143350963341212
 10
187.0616754082996
 20
15.35419997391923
 42
0.2365834905846161
 10
187.0773280440464
 20
15.38597059880696
 10
187.0773280440464
 20
15.48468253561346
 42
0.133951748517549
  0
TEXT
  5
1ACE
330
15
100
AcDbEntity
 67
     1
  8
0
 62
     7
100
AcDbText
 10
108.328165688336
 20
278.4525358203893
 30
0.0
 40
2.872918975993215
  1
01.02.04
  7
Stil1
100
AcDbText
  0
TEXT
  5
1ACF
330
15
100
AcDbEntity
 67
     1
  8
0
 62
     7
100
AcDbText
 10
108.328165688336
 20
273.8374442866485
 30
0.0
 40
2.872918975993215
  1
M 1:5
  7
Stil1
100
AcDbText
  0
TEXT
  5
1AD0
330
15
100
AcDbEntity
 67
     1
  8
0
 62
     7
100
AcDbText
 10
177.894174305563
 20
278.4525358203893
 30
0.0
 40
2.872918975993215
  1
střecha
  7
Stil1
100
AcDbText
  0
TEXT
  5
1AD1
330
15
100
AcDbEntity
 67
     1
  8
0
 62
     7
100
AcDbText
 10
184.0647047235909
 20
273.8374442866485
 30
0.0
 40
2.872918975993215
  1
123
  7
Stil1
100
AcDbText
  0
TEXT
  5
47B5
330
15
100
AcDbEntity
 67
     1
  8
TXT-D
100
AcDbText
 10
786.9393778464233
 20
851.5306716438809
 30
0.0
 40
14.0
  1
uzávěra v hřebeni
  7
ROMANS
100
AcDbText
  0
TEXT
  5
47B6
330
15
100
AcDbEntity
 67
     1
  8
TXT-D
100
AcDbText
 10
786.2328680689228
 20
890.2602207424584
 30
0.0
 40
14.0
  1
ucpávka v hřebeni
  7
ROMANS
100
AcDbText
  0
TEXT
  5
47B8
330
15
100
AcDbEntity
 67
     1
  8
TXT-D
100
AcDbText
 10
705.4542519233828
 20
945.9158484179367
 30
0.0
 40
14.0
  1
pevný bod na klipse
  7
ROMANS
100
AcDbText
  0
TEXT
  5
47BA
330
15
100
AcDbEntity
 67
     1
  8
TXT-D
100
AcDbText
 10
706.2727920963105
 20
922.1620268585072
 30
0.0
 40
14.0
  1
poplastovaná klipsa*
  7
ROMANS
100
AcDbText
  0
TEXT
  5
47BB
330
15
100
AcDbEntity
 67
     1
  8
TXT-D
100
AcDbText
 10
787.1037671164101
 20
807.9609775278981
 30
0.0
 40
14.0
  1
Kalzip
  7
ROMANS
100
AcDbText
  0
MTEXT
  5
47C0
102
{ACAD_XDICTIONARY
360
48FE
102
}
330
15
100
AcDbEntity
 67
     1
  8
TXT-D
100
AcDbMText
 10
27.77817211565602
 20
782.7287742422602
 30
0.0
 40
14.0
 41
186.3403948323489
 71
     7
 72
     5
  1
kotven\U+00ED h\U+0159ebenov\U+00E9ho oplechov\U+00E1n\U+00ED:\Pmax. vzd\U+00E1lenost 400mm, jen do h\U+0159ebenov\U+00E9 uz\U+00E1v\U+011Bry
  7
ROMANS
 73
     1
 44
1.0
  0
TEXT
  5
47C4
330
15
100
AcDbEntity
 67
     1
  8
TXT-D
100
AcDbText
 10
459.6827076785376
 20
911.9107046808377
 30
0.0
 40
14.0
  1
Z profil
  7
ROMANS
100
AcDbText
  0
TEXT
  5
47C5
330
15
100
AcDbEntity
 67
     1
  8
TXT-D
100
AcDbText
 10
346.7663066839117
 20
875.5244787309937
 30
0.0
 40
14.0
  1
zahnutí v hřebeni
  7
ROMANS
100
AcDbText
  0
TEXT
  5
47C6
330
15
100
AcDbEntity
 67
     1
  8
TXT-D
100
AcDbText
 10
418.1099886776549
 20
947.5821795831743
 30
0.0
 40
14.0
  1
oplechování
  7
ROMANS
100
AcDbText
  0
TEXT
  5
47C7
330
15
100
AcDbEntity
 67
     1
  8
TXT-D
100
AcDbText
 10
11.34229847096995
 20
949.0242020212415
 30
0.0
 40
14.0
  1
alternativa: pevný bod na klipse
  7
ROMANS
100
AcDbText
  0
TEXT
  5
47C8
330
15
100
AcDbEntity
 67
     1
  8
TXT-D
100
AcDbText
 10
12.16083864389762
 20
925.270380461812
 30
0.0
 40
14.0
  1
hliníková klipsa s termopodložkou
  7
ROMANS
100
AcDbText
  0
MTEXT
  5
47C9
102
{ACAD_XDICTIONARY
360
4900
102
}
330
15
100
AcDbEntity
 67
     1
  8
TXT-D
100
AcDbMText
 10
48.22685470459728
 20
998.6613763944953
 30
0.0
 40
14.0
 41
231.5306
 71
     7
 72
     5
  1
typ pevn\U+00E9ho bodu stanoven\U+00FD v\U+00FDpo\U+010Dtem
  7
ROMANS
 73
     1
 44
1.0
  0
TEXT
  5
47CA
330
15
100
AcDbEntity
 67
     1
  8
TXT-D
100
AcDbText
 10
418.1099886776549
 20
965.6830791581096
 30
0.0
 40
14.0
  1
hřebenové 
  7
ROMANS
100
AcDbText
  0
MTEXT
  5
47ED
102
{ACAD_XDICTIONARY
360
4902
102
}
330
15
100
AcDbEntity
 67
     1
  8
TXT-D
100
AcDbMText
 10
7.881149633373079
 20
18.5045086174652
 30
0.0
 40
2.8
 41
106.1716
 71
     1
 72
     5
  1
{\C7;* Poplastovan\U+00E9 klipsy nejsou vyr\U+00E1b\U+011Bny ve v\U+0161ech rozm\U+011Brech}
  7
ROMANS
 73
     1
 44
1.0
  0
ENDSEC
  0
SECTION
  2
OBJECTS
  0
DICTIONARY
  5
C
330
0
100
AcDbDictionary
281
     1
  3
ACAD_CIP_PREVIOUS_PRODUCT_INFO
350
4705
  3
ACAD_COLOR
350
46E5
  3
ACAD_DETAILVIEWSTYLE
350
46FE
  3
ACAD_GROUP
350
D
  3
ACAD_IMAGE_DICT
350
6C4
  3
ACAD_IMAGE_VARS
350
6C5
  3
ACAD_LAYOUT
350
5E9
  3
ACAD_MATERIAL
350
46B3
  3
ACAD_MLEADERSTYLE
350
46FA
  3
ACAD_MLINESTYLE
350
1B
  3
ACAD_PLOTSETTINGS
350
5EA
  3
ACAD_PLOTSTYLENAME
350
5E7
  3
ACAD_SCALELIST
350
46E8
  3
ACAD_SECTIONVIEWSTYLE
350
46FC
  3
ACAD_TABLESTYLE
350
46E6
  3
ACAD_VISUALSTYLE
350
46CC
  3
ACDB_RECOMPOSE_DATA
350
48B3
  3
AcDbVariableDictionary
350
7F0
  3
AcDsDecomposeData
350
48B9
  3
ASE_INDEX_DICTIONARY
350
2413
  0
DICTIONARY
  5
4737
330
2
100
AcDbDictionary
280
     1
281
     1
  3
ACAD_LAYERSTATES
360
4738
  0
DICTIONARY
  5
4706
330
E
100
AcDbDictionary
280
     1
281
     1
  3
ADSK_XREC_LAYER_RECONCILED
360
4707
  0
DICTIONARY
  5
4708
330
B7
100
AcDbDictionary
280
     1
281
     1
  3
ADSK_XREC_LAYER_RECONCILED
360
4709
  0
DICTIONARY
  5
470A
330
8F4
100
AcDbDictionary
280
     1
281
     1
  3
ADSK_XREC_LAYER_RECONCILED
360
470B
  0
DICTIONARY
  5
470C
330
9AF
100
AcDbDictionary
280
     1
281
     1
  3
ADSK_XREC_LAYER_RECONCILED
360
470D
  0
DICTIONARY
  5
470E
330
1209
100
AcDbDictionary
280
     1
281
     1
  3
ADSK_XREC_LAYER_RECONCILED
360
470F
  0
DICTIONARY
  5
4710
330
120A
100
AcDbDictionary
280
     1
281
     1
  3
ADSK_XREC_LAYER_RECONCILED
360
4711
  0
DICTIONARY
  5
4712
330
120B
100
AcDbDictionary
280
     1
281
     1
  3
ADSK_XREC_LAYER_RECONCILED
360
4713
  0
DICTIONARY
  5
4714
330
120C
100
AcDbDictionary
280
     1
281
     1
  3
ADSK_XREC_LAYER_RECONCILED
360
4715
  0
DICTIONARY
  5
4716
330
120D
100
AcDbDictionary
280
     1
281
     1
  3
ADSK_XREC_LAYER_RECONCILED
360
4717
  0
DICTIONARY
  5
4718
330
120E
100
AcDbDictionary
280
     1
281
     1
  3
ADSK_XREC_LAYER_RECONCILED
360
4719
  0
DICTIONARY
  5
471A
330
120F
100
AcDbDictionary
280
     1
281
     1
  3
ADSK_XREC_LAYER_RECONCILED
360
471B
  0
DICTIONARY
  5
471C
330
1211
100
AcDbDictionary
280
     1
281
     1
  3
ADSK_XREC_LAYER_RECONCILED
360
471D
  0
DICTIONARY
  5
471E
330
1AE8
100
AcDbDictionary
280
     1
281
     1
  3
ADSK_XREC_LAYER_RECONCILED
360
471F
  0
DICTIONARY
  5
4720
330
1AE9
100
AcDbDictionary
280
     1
281
     1
  3
ADSK_XREC_LAYER_RECONCILED
360
4721
  0
DICTIONARY
  5
4722
330
25AB
100
AcDbDictionary
280
     1
281
     1
  3
ADSK_XREC_LAYER_RECONCILED
360
4723
  0
DICTIONARY
  5
4724
330
25AC
100
AcDbDictionary
280
     1
281
     1
  3
ADSK_XREC_LAYER_RECONCILED
360
4725
  0
DICTIONARY
  5
4726
330
2DBF
100
AcDbDictionary
280
     1
281
     1
  3
ADSK_XREC_LAYER_RECONCILED
360
4727
  0
DICTIONARY
  5
4728
330
2DC0
100
AcDbDictionary
280
     1
281
     1
  3
ADSK_XREC_LAYER_RECONCILED
360
4729
  0
DICTIONARY
  5
81C
330
18
100
AcDbDictionary
280
     1
281
     1
  3
ACAD_LAYOUTSELFREF
360
194E
  0
DICTIONARY
  5
81A
330
15
100
AcDbDictionary
280
     1
281
     1
  3
ACAD_LAYOUTSELFREF
360
194D
  0
DICTIONARY
  5
47F0
330
47EE
100
AcDbDictionary
280
     1
281
     1
  0
DICTIONARY
  5
4904
330
47EF
100
AcDbDictionary
280
     1
281
     1
  3
ACAD_MTEXT_2008_RT
360
4905
  0
DICTIONARY
  5
48BC
330
1FA1
100
AcDbDictionary
280
     1
281
     1
  3
ACAD_MTEXT_2008_RT
360
48BD
  0
DICTIONARY
  5
48BE
330
21B6
100
AcDbDictionary
280
     1
281
     1
  3
ACAD_MTEXT_2008_RT
360
48BF
  0
DICTIONARY
  5
48C0
330
2370
100
AcDbDictionary
280
     1
281
     1
  3
ACAD_MTEXT_2008_RT
360
48C1
  0
DICTIONARY
  5
48C2
330
2C6C
100
AcDbDictionary
280
     1
281
     1
  3
ACAD_MTEXT_2008_RT
360
48C3
  0
DICTIONARY
  5
4838
330
4765
100
AcDbDictionary
280
     1
281
     1
  3
ACAD_MTEXT_2008_RT
360
48FB
  0
DICTIONARY
  5
48FC
330
476E
100
AcDbDictionary
280
     1
281
     1
  3
ACAD_MTEXT_2008_RT
360
48FD
  0
DICTIONARY
  5
48FE
330
47C0
100
AcDbDictionary
280
     1
281
     1
  3
ACAD_MTEXT_2008_RT
360
48FF
  0
DICTIONARY
  5
4900
330
47C9
100
AcDbDictionary
280
     1
281
     1
  3
ACAD_MTEXT_2008_RT
360
4901
  0
DICTIONARY
  5
4902
330
47ED
100
AcDbDictionary
280
     1
281
     1
  3
ACAD_MTEXT_2008_RT
360
4903
  0
XRECORD
  5
4705
102
{ACAD_REACTORS
330
C
102
}
330
C
100
AcDbXrecord
280
     1
300
ACD
300
2013
300
ACD_F_S
  0
DICTIONARY
  5
46E5
102
{ACAD_REACTORS
330
C
102
}
330
C
100
AcDbDictionary
281
     1
  0
DICTIONARY
  5
46FE
102
{ACAD_REACTORS
330
C
102
}
330
C
100
AcDbDictionary
281
     1
  3
Metric50
350
46FF
  0
DICTIONARY
  5
D
102
{ACAD_REACTORS
330
C
102
}
330
C
100
AcDbDictionary
281
     1
  0
DICTIONARY
  5
6C4
102
{ACAD_REACTORS
330
C
102
}
330
C
100
AcDbDictionary
281
     1
  3
Kalzip
350
6C6
  0
RASTERVARIABLES
  5
6C5
102
{ACAD_REACTORS
330
C
102
}
330
C
100
AcDbRasterVariables
 90
        0
 70
     1
 71
     1
 72
     0
  0
DICTIONARY
  5
5E9
102
{ACAD_REACTORS
330
C
102
}
330
C
100
AcDbDictionary
281
     1
  3
A4
350
5EC
  3
Model
350
5EB
  0
DICTIONARY
  5
46B3
102
{ACAD_REACTORS
330
C
102
}
330
C
100
AcDbDictionary
281
     1
  3
ByBlock
350
46BC
  3
ByLayer
350
46B4
  3
Global
350
46C4
  0
DICTIONARY
  5
46FA
102
{ACAD_REACTORS
330
C
102
}
330
C
100
AcDbDictionary
281
     1
  3
Standard
350
46FB
  0
DICTIONARY
  5
1B
102
{ACAD_REACTORS
330
C
102
}
330
C
100
AcDbDictionary
281
     1
  3
STANDARD
350
1C
  0
DICTIONARY
  5
5EA
102
{ACAD_REACTORS
330
C
102
}
330
C
100
AcDbDictionary
281
     1
  0
ACDBDICTIONARYWDFLT
  5
5E7
102
{ACAD_REACTORS
330
C
102
}
330
C
100
AcDbDictionary
281
     1
  3
Normal
350
5E8
100
AcDbDictionaryWithDefault
340
5E8
  0
DICTIONARY
  5
46E8
102
{ACAD_REACTORS
330
C
102
}
330
C
100
AcDbDictionary
281
     1
  3
A0
350
46E9
  3
A1
350
46EA
  3
A2
350
46EB
  3
A3
350
46EC
  3
A4
350
46ED
  3
A5
350
46EE
  3
A6
350
46EF
  3
A7
350
46F0
  3
A8
350
46F1
  3
A9
350
46F2
  3
B0
350
46F3
  3
B1
350
46F4
  3
B2
350
46F5
  3
B3
350
46F6
  3
B4
350
46F7
  3
B5
350
46F8
  3
B6
350
46F9
  0
DICTIONARY
  5
46FC
102
{ACAD_REACTORS
330
C
102
}
330
C
100
AcDbDictionary
281
     1
  3
Metric50
350
46FD
  0
DICTIONARY
  5
46E6
102
{ACAD_REACTORS
330
C
102
}
330
C
100
AcDbDictionary
281
     1
  3
Standard
350
46E7
  0
DICTIONARY
  5
46CC
102
{ACAD_REACTORS
330
C
102
}
330
C
100
AcDbDictionary
281
     1
  3
2dWireframe
350
46D2
  3
Basic
350
46D1
  3
Brighten
350
46D8
  3
ColorChange
350
46DC
  3
Conceptual
350
46D5
  3
Dim
350
46D7
  3
EdgeColorOff
350
46E4
  3
Facepattern
350
46DB
  3
Flat
350
46CD
  3
FlatWithEdges
350
46CE
  3
Gouraud
350
46CF
  3
GouraudWithEdges
350
46D0
  3
Hidden
350
46D4
  3
JitterOff
350
46E2
  3
Linepattern
350
46DA
  3
OverhangOff
350
46E3
  3
Realistic
350
46D6
  3
Shaded
350
46E1
  3
Shaded with edges
350
46E0
  3
Shades of Gray
350
46DD
  3
Sketchy
350
46DE
  3
Thicken
350
46D9
  3
Wireframe
350
46D3
  3
X-Ray
350
46DF
  0
XRECORD
  5
48B3
102
{ACAD_REACTORS
330
C
102
}
330
C
100
AcDbXrecord
280
     1
 90
        1
330
46E7
330
4765
  0
DICTIONARY
  5
7F0
102
{ACAD_REACTORS
330
C
102
}
330
C
100
AcDbDictionary
281
     1
  3
CANNOSCALE
350
4840
  3
CMLEADERSTYLE
350
483C
  3
CTABLESTYLE
350
483B
  3
CVIEWDETAILSTYLE
350
483D
  3
CVIEWSECTIONSTYLE
350
483E
  3
DIMASSOC
350
1F21
  3
LAYEREVAL
350
4842
  3
LAYERNOTIFY
350
4843
  3
LIGHTINGUNITS
350
4841
  3
MSLTSCALE
350
483F
  3
SORTENTS
350
7F1
  3
XCLIPFRAME
350
48AF
  0
DICTIONARY
  5
48B9
102
{ACAD_REACTORS
330
C
102
}
330
C
100
AcDbDictionary
281
     1
  3
AcDsRecords
350
48BB
  3
AcDsSchemas
350
48BA
1001
ACAD
1070
     2
  0
DICTIONARY
  5
2413
102
{ACAD_REACTORS
330
C
102
}
330
C
100
AcDbDictionary
281
     1
  3
ASEBlockHierarchyIndexRecord
350
2414
1001
DCO15
1040
1469167996.748
  0
DICTIONARY
  5
4738
102
{ACAD_REACTORS
330
4737
102
}
330
4737
100
AcDbDictionary
281
     1
  0
XRECORD
  5
4707
102
{ACAD_REACTORS
330
4706
102
}
330
4706
100
AcDbXrecord
280
     1
290
     1
  0
XRECORD
  5
4709
102
{ACAD_REACTORS
330
4708
102
}
330
4708
100
AcDbXrecord
280
     1
290
     1
  0
XRECORD
  5
470B
102
{ACAD_REACTORS
330
470A
102
}
330
470A
100
AcDbXrecord
280
     1
290
     1
  0
XRECORD
  5
470D
102
{ACAD_REACTORS
330
470C
102
}
330
470C
100
AcDbXrecord
280
     1
290
     1
  0
XRECORD
  5
470F
102
{ACAD_REACTORS
330
470E
102
}
330
470E
100
AcDbXrecord
280
     1
290
     1
  0
XRECORD
  5
4711
102
{ACAD_REACTORS
330
4710
102
}
330
4710
100
AcDbXrecord
280
     1
290
     1
  0
XRECORD
  5
4713
102
{ACAD_REACTORS
330
4712
102
}
330
4712
100
AcDbXrecord
280
     1
290
     1
  0
XRECORD
  5
4715
102
{ACAD_REACTORS
330
4714
102
}
330
4714
100
AcDbXrecord
280
     1
290
     1
  0
XRECORD
  5
4717
102
{ACAD_REACTORS
330
4716
102
}
330
4716
100
AcDbXrecord
280
     1
290
     1
  0
XRECORD
  5
4719
102
{ACAD_REACTORS
330
4718
102
}
330
4718
100
AcDbXrecord
280
     1
290
     1
  0
XRECORD
  5
471B
102
{ACAD_REACTORS
330
471A
102
}
330
471A
100
AcDbXrecord
280
     1
290
     1
  0
XRECORD
  5
471D
102
{ACAD_REACTORS
330
471C
102
}
330
471C
100
AcDbXrecord
280
     1
290
     1
  0
XRECORD
  5
471F
102
{ACAD_REACTORS
330
471E
102
}
330
471E
100
AcDbXrecord
280
     1
290
     1
  0
XRECORD
  5
4721
102
{ACAD_REACTORS
330
4720
102
}
330
4720
100
AcDbXrecord
280
     1
290
     1
  0
XRECORD
  5
4723
102
{ACAD_REACTORS
330
4722
102
}
330
4722
100
AcDbXrecord
280
     1
290
     1
  0
XRECORD
  5
4725
102
{ACAD_REACTORS
330
4724
102
}
330
4724
100
AcDbXrecord
280
     1
290
     1
  0
XRECORD
  5
4727
102
{ACAD_REACTORS
330
4726
102
}
330
4726
100
AcDbXrecord
280
     1
290
     1
  0
XRECORD
  5
4729
102
{ACAD_REACTORS
330
4728
102
}
330
4728
100
AcDbXrecord
280
     1
290
     1
  0
XRECORD
  5
194E
102
{ACAD_REACTORS
330
81C
102
}
330
81C
100
AcDbXrecord
280
     1
340
18
  0
XRECORD
  5
194D
102
{ACAD_REACTORS
330
81A
102
}
330
81A
100
AcDbXrecord
280
     1
340
15
  0
XRECORD
  5
4905
102
{ACAD_REACTORS
330
4904
102
}
330
4904
100
AcDbXrecord
280
     1
 40
350889.0
  1
{\C7;* Poplastované klipsy nejsou vyráběny ve všech rozměrech}
  0
XRECORD
  5
48BD
102
{ACAD_REACTORS
330
48BC
102
}
330
48BC
100
AcDbXrecord
280
     1
 40
42427.0
  1
pás tepelné izolace
  0
XRECORD
  5
48BF
102
{ACAD_REACTORS
330
48BE
102
}
330
48BE
100
AcDbXrecord
280
     1
 40
34021.0
  1
uzavírací profil
  0
XRECORD
  5
48C1
102
{ACAD_REACTORS
330
48C0
102
}
330
48C0
100
AcDbXrecord
280
     1
 40
162780.0
  1
vnitřní uzavírací oplechování
  0
XRECORD
  5
48C3
102
{ACAD_REACTORS
330
48C2
102
}
330
48C2
100
AcDbXrecord
280
     1
 40
58899.0
  1
těsnící pásek 2x
  0
XRECORD
  5
48FB
102
{ACAD_REACTORS
330
4838
102
}
330
4838
100
AcDbXrecord
280
     1
 40
2079069.0
  1
\pi76.414;kotvení \P\pi25.895;hřebenového \P\pi29.515;oplechování:\P\pi98.674;max. \P\pi44.957;vzdálenost \P\pi9.6704;400mm, jen do \P\pi47.736;hřebenové \P\pi71.009;uzávěry\P
  0
XRECORD
  5
48FD
102
{ACAD_REACTORS
330
48FC
102
}
330
48FC
100
AcDbXrecord
280
     1
 40
140772.0
  1
typ pevného bodu stanovený výpočtem
  0
XRECORD
  5
48FF
102
{ACAD_REACTORS
330
48FE
102
}
330
48FE
100
AcDbXrecord
280
     1
 40
773712.0
  1
kotvení hřebenového oplechování:\Pmax. vzdálenost 400mm, jen do hřebenové uzávěry
  0
XRECORD
  5
4901
102
{ACAD_REACTORS
330
4900
102
}
330
4900
100
AcDbXrecord
280
     1
 40
140772.0
  1
typ pevného bodu stanovený výpočtem
  0
XRECORD
  5
4903
102
{ACAD_REACTORS
330
4902
102
}
330
4902
100
AcDbXrecord
280
     1
 40
350889.0
  1
{\C7;* Poplastované klipsy nejsou vyráběny ve všech rozměrech}
  0
ACDBDETAILVIEWSTYLE
  5
46FF
102
{ACAD_REACTORS
330
46FE
102
}
330
46FE
100
AcDbModelDocViewStyle
 70
     0
  3
Metric50
290
     0
100
AcDbDetailViewStyle
 70
     0
 71
     0
 90
        3
 71
     1
340
F
 62
   256
 40
5.0
340
0
 62
   256
 40
5.0
300

 40
0.0
280
     1
 71
     2
340
14
 90
       25
 62
   256
 71
     3
340
F
 62
   256
 40
5.0
 90
        0
 40
15.0
 90
        1
300
%<\AcVar ViewDetailId>% (%<\AcVar ViewScale \f "%sn">%)
 71
     4
340
14
 90
       25
 62
   256
340
14
 90
       25
 62
   256
280
     0
  0
IMAGEDEF
  5
6C6
102
{ACAD_REACTORS
330
6C4
102
}
330
6C4
100
AcDbRasterImageDef
 90
        0
  1
C:\Kalzip.pcx
 10
944.0
 20
1927.0
 11
0.0010593220338983
 21
0.0010593220338983
280
     1
281
     0
  0
LAYOUT
  5
5EC
102
{ACAD_REACTORS
330
5E9
102
}
330
5E9
100
AcDbPlotSettings
  1

  2
Brother HL-760
  4
A4
  6

 40
6.043083190917968
 41
6.762742042541503
 42
7.736419677734375
 43
5.027069091796875
 44
209.9733276367187
 45
296.9683227539062
 46
0.0
 47
0.0
 48
0.473259
 49
58.191861
140
193.769503
141
275.404803
142
1.0
143
1.0
 70
   688
 72
     1
 73
     0
 74
     5
  7
CORUS_Mono.ctb
 75
    16
147
1.0
 76
     0
 77
     2
 78
   300
148
0.0
149
0.0
100
AcDbLayout
  1
A4
 70
     0
 71
     1
 10
-6.043083190917968
 20
-6.762742042541503
 11
203.9302444458008
 21
290.2055807113647
 12
0.0
 22
0.0
 32
0.0
 14
5.862626085583912
 24
3.452432288499369
 34
0.0
 15
944.9695665682407
 25
1043.892390491812
 35
0.0
146
0.0
 13
0.0
 23
0.0
 33
0.0
 16
1.0
 26
0.0
 36
0.0
 17
0.0
 27
1.0
 37
0.0
 76
     0
330
15
331
27F
  0
LAYOUT
  5
5EB
102
{ACAD_REACTORS
330
5E9
102
}
330
5E9
100
AcDbPlotSettings
  1

  2
\\BSSRV01\Océ 5120 A0
  4
A4
  6

 40
3.174999952316284
 41
3.174999952316284
 42
3.175003051757812
 43
3.17498779296875
 44
209.9733276367187
 45
296.9683227539062
 46
0.0
 47
0.0
 48
0.0
 49
0.0
140
0.0
141
0.0
142
1.0
143
1.0
 70
 11952
 72
     1
 73
     1
 74
     0
  7

 75
     0
147
1.0
 76
     0
 77
     2
 78
   300
148
973.0712272420497
149
544.3184272033454
100
AcDbLayout
  1
Model
 70
     1
 71
     0
 10
0.0
 20
0.0
 11
12.0
 21
9.0
 12
0.0
 22
0.0
 32
0.0
 14
0.0
 24
0.0
 34
0.0
 15
0.0
 25
0.0
 35
0.0
146
0.0
 13
0.0
 23
0.0
 33
0.0
 16
1.0
 26
0.0
 36
0.0
 17
0.0
 27
1.0
 37
0.0
 76
     0
330
18
331
46B1
  0
MATERIAL
  5
46BC
102
{ACAD_XDICTIONARY
360
46BD
102
}
102
{ACAD_REACTORS
330
46B3
102
}
330
46B3
100
AcDbMaterial
  1
ByBlock
 72
     0
 43
0.0208333333333333
 43
0.0
 43
0.0
 43
0.0
 43
0.0
 43
0.0208333333333333
 43
0.0
 43
0.0
 43
0.0
 43
0.0
 43
1.0
 43
0.0
 43
0.0
 43
0.0
 43
0.0
 43
1.0
 77
     0
 47
0.0208333333333333
 47
0.0
 47
0.0
 47
0.0
 47
0.0
 47
0.0208333333333333
 47
0.0
 47
0.0
 47
0.0
 47
0.0
 47
1.0
 47
0.0
 47
0.0
 47
0.0
 47
0.0
 47
1.0
171
     0
 49
0.0208333333333333
 49
0.0
 49
0.0
 49
0.0
 49
0.0
 49
0.0208333333333333
 49
0.0
 49
0.0
 49
0.0
 49
0.0
 49
1.0
 49
0.0
 49
0.0
 49
0.0
 49
0.0
 49
1.0
175
     0
142
0.0208333333333333
142
0.0
142
0.0
142
0.0
142
0.0
142
0.0208333333333333
142
0.0
142
0.0
142
0.0
142
0.0
142
1.0
142
0.0
142
0.0
142
0.0
142
0.0
142
1.0
179
     0
144
0.0208333333333333
144
0.0
144
0.0
144
0.0
144
0.0
144
0.0208333333333333
144
0.0
144
0.0
144
0.0
144
0.0
144
1.0
144
0.0
144
0.0
144
0.0
144
0.0
144
1.0
147
0.0208333333333333
147
0.0
147
0.0
147
0.0
147
0.0
147
0.0208333333333333
147
0.0
147
0.0
147
0.0
147
0.0
147
1.0
147
0.0
147
0.0
147
0.0
147
0.0
147
1.0
  0
MATERIAL
  5
46B4
102
{ACAD_XDICTIONARY
360
46B5
102
}
102
{ACAD_REACTORS
330
46B3
102
}
330
46B3
100
AcDbMaterial
  1
ByLayer
 72
     0
 43
0.0208333333333333
 43
0.0
 43
0.0
 43
0.0
 43
0.0
 43
0.0208333333333333
 43
0.0
 43
0.0
 43
0.0
 43
0.0
 43
1.0
 43
0.0
 43
0.0
 43
0.0
 43
0.0
 43
1.0
 77
     0
 47
0.0208333333333333
 47
0.0
 47
0.0
 47
0.0
 47
0.0
 47
0.0208333333333333
 47
0.0
 47
0.0
 47
0.0
 47
0.0
 47
1.0
 47
0.0
 47
0.0
 47
0.0
 47
0.0
 47
1.0
171
     0
 49
0.0208333333333333
 49
0.0
 49
0.0
 49
0.0
 49
0.0
 49
0.0208333333333333
 49
0.0
 49
0.0
 49
0.0
 49
0.0
 49
1.0
 49
0.0
 49
0.0
 49
0.0
 49
0.0
 49
1.0
175
     0
142
0.0208333333333333
142
0.0
142
0.0
142
0.0
142
0.0
142
0.0208333333333333
142
0.0
142
0.0
142
0.0
142
0.0
142
1.0
142
0.0
142
0.0
142
0.0
142
0.0
142
1.0
179
     0
144
0.0208333333333333
144
0.0
144
0.0
144
0.0
144
0.0
144
0.0208333333333333
144
0.0
144
0.0
144
0.0
144
0.0
144
1.0
144
0.0
144
0.0
144
0.0
144
0.0
144
1.0
147
0.0208333333333333
147
0.0
147
0.0
147
0.0
147
0.0
147
0.0208333333333333
147
0.0
147
0.0
147
0.0
147
0.0
147
1.0
147
0.0
147
0.0
147
0.0
147
0.0
147
1.0
  0
MATERIAL
  5
46C4
102
{ACAD_XDICTIONARY
360
46C5
102
}
102
{ACAD_REACTORS
330
46B3
102
}
330
46B3
100
AcDbMaterial
  1
Global
 72
     0
 43
0.0208333333333333
 43
0.0
 43
0.0
 43
0.0
 43
0.0
 43
0.0208333333333333
 43
0.0
 43
0.0
 43
0.0
 43
0.0
 43
1.0
 43
0.0
 43
0.0
 43
0.0
 43
0.0
 43
1.0
 77
     0
 47
0.0208333333333333
 47
0.0
 47
0.0
 47
0.0
 47
0.0
 47
0.0208333333333333
 47
0.0
 47
0.0
 47
0.0
 47
0.0
 47
1.0
 47
0.0
 47
0.0
 47
0.0
 47
0.0
 47
1.0
171
     0
 49
0.0208333333333333
 49
0.0
 49
0.0
 49
0.0
 49
0.0
 49
0.0208333333333333
 49
0.0
 49
0.0
 49
0.0
 49
0.0
 49
1.0
 49
0.0
 49
0.0
 49
0.0
 49
0.0
 49
1.0
175
     0
142
0.0208333333333333
142
0.0
142
0.0
142
0.0
142
0.0
142
0.0208333333333333
142
0.0
142
0.0
142
0.0
142
0.0
142
1.0
142
0.0
142
0.0
142
0.0
142
0.0
142
1.0
179
     0
144
0.0208333333333333
144
0.0
144
0.0
144
0.0
144
0.0
144
0.0208333333333333
144
0.0
144
0.0
144
0.0
144
0.0
144
1.0
144
0.0
144
0.0
144
0.0
144
0.0
144
1.0
147
0.0208333333333333
147
0.0
147
0.0
147
0.0
147
0.0
147
0.0208333333333333
147
0.0
147
0.0
147
0.0
147
0.0
147
1.0
147
0.0
147
0.0
147
0.0
147
0.0
147
1.0
  0
MLEADERSTYLE
  5
46FB
102
{ACAD_XDICTIONARY
360
48F9
102
}
102
{ACAD_REACTORS
330
46FA
102
}
330
46FA
100
AcDbMLeaderStyle
170
     2
171
     1
172
     0
 90
        2
 40
0.0
 41
0.0
173
     1
 91
-1056964608
340
12
 92
       -2
290
     1
 42
2.0
291
     1
 43
0.36
  3
Standard
 44
4.0
300

342
F
174
     1
178
     6
175
     1
176
     0
 93
-1056964608
 45
4.0
292
     0
297
     0
 46
4.0
 94
-1056964608
 47
1.0
 49
1.0
140
1.0
293
     1
141
0.0
294
     1
177
     0
142
1.0
295
     0
296
     0
143
0.125
1001
ACAD_MLEADERVER
1070
     2
  0
MLINESTYLE
  5
1C
102
{ACAD_REACTORS
330
1B
102
}
330
1B
100
AcDbMlineStyle
  2
STANDARD
 70
     0
  3

 62
   256
 51
90.0
 52
90.0
 71
     2
 49
0.5
 62
   256
  6
BYLAYER
 49
-0.5
 62
   256
  6
BYLAYER
  0
ACDBPLACEHOLDER
  5
5E8
102
{ACAD_REACTORS
330
5E7
102
}
330
5E7
  0
SCALE
  5
46E9
102
{ACAD_REACTORS
330
46E8
102
}
330
46E8
100
AcDbScale
 70
     0
300
1:1
140
1.0
141
1.0
290
     1
  0
SCALE
  5
46EA
102
{ACAD_REACTORS
330
46E8
102
}
330
46E8
100
AcDbScale
 70
     0
300
1:2
140
1.0
141
2.0
290
     0
  0
SCALE
  5
46EB
102
{ACAD_REACTORS
330
46E8
102
}
330
46E8
100
AcDbScale
 70
     0
300
1:4
140
1.0
141
4.0
290
     0
  0
SCALE
  5
46EC
102
{ACAD_REACTORS
330
46E8
102
}
330
46E8
100
AcDbScale
 70
     0
300
1:5
140
1.0
141
5.0
290
     0
  0
SCALE
  5
46ED
102
{ACAD_REACTORS
330
46E8
102
}
330
46E8
100
AcDbScale
 70
     0
300
1:8
140
1.0
141
8.0
290
     0
  0
SCALE
  5
46EE
102
{ACAD_REACTORS
330
46E8
102
}
330
46E8
100
AcDbScale
 70
     0
300
1:10
140
1.0
141
10.0
290
     0
  0
SCALE
  5
46EF
102
{ACAD_REACTORS
330
46E8
102
}
330
46E8
100
AcDbScale
 70
     0
300
1:16
140
1.0
141
16.0
290
     0
  0
SCALE
  5
46F0
102
{ACAD_REACTORS
330
46E8
102
}
330
46E8
100
AcDbScale
 70
     0
300
1:20
140
1.0
141
20.0
290
     0
  0
SCALE
  5
46F1
102
{ACAD_REACTORS
330
46E8
102
}
330
46E8
100
AcDbScale
 70
     0
300
1:30
140
1.0
141
30.0
290
     0
  0
SCALE
  5
46F2
102
{ACAD_REACTORS
330
46E8
102
}
330
46E8
100
AcDbScale
 70
     0
300
1:40
140
1.0
141
40.0
290
     0
  0
SCALE
  5
46F3
102
{ACAD_REACTORS
330
46E8
102
}
330
46E8
100
AcDbScale
 70
     0
300
1:50
140
1.0
141
50.0
290
     0
  0
SCALE
  5
46F4
102
{ACAD_REACTORS
330
46E8
102
}
330
46E8
100
AcDbScale
 70
     0
300
1:100
140
1.0
141
100.0
290
     0
  0
SCALE
  5
46F5
102
{ACAD_REACTORS
330
46E8
102
}
330
46E8
100
AcDbScale
 70
     0
300
2:1
140
2.0
141
1.0
290
     0
  0
SCALE
  5
46F6
102
{ACAD_REACTORS
330
46E8
102
}
330
46E8
100
AcDbScale
 70
     0
300
4:1
140
4.0
141
1.0
290
     0
  0
SCALE
  5
46F7
102
{ACAD_REACTORS
330
46E8
102
}
330
46E8
100
AcDbScale
 70
     0
300
8:1
140
8.0
141
1.0
290
     0
  0
SCALE
  5
46F8
102
{ACAD_REACTORS
330
46E8
102
}
330
46E8
100
AcDbScale
 70
     0
300
10:1
140
10.0
141
1.0
290
     0
  0
SCALE
  5
46F9
102
{ACAD_REACTORS
330
46E8
102
}
330
46E8
100
AcDbScale
 70
     0
300
100:1
140
100.0
141
1.0
290
     0
  0
ACDBSECTIONVIEWSTYLE
  5
46FD
102
{ACAD_REACTORS
330
46FC
102
}
330
46FC
100
AcDbModelDocViewStyle
 70
     0
  3
Metric50
290
     0
100
AcDbSectionViewStyle
 70
     0
 71
     0
 90
      102
 71
     1
340
F
 62
   256
 40
5.0
340
0
340
0
 62
   256
 40
5.0
300
I, O, Q, S, X, Z
 40
10.0
 90
        0
 40
2.5
 90
        0
 71
     2
340
14
 90
       25
 62
   256
340
14
 90
       50
 62
   256
 40
5.0
 40
2.5
 40
5.0
 71
     3
340
F
 62
   256
 40
5.0
 90
        0
 40
15.0
 90
        1
300
%<\AcVar ViewSectionStartId>%-%<\AcVar ViewSectionEndId>% (%<\AcVar ViewScale \f "%sn">%)
 71
     4
 62
   256
 62
   257
300
ANSI31
 40
1.0
 90
        0
290
     0
290
     0
 90
        6
 40
0.0
 40
1.570796326794896
 40
0.2617993877991494
 40
1.308996938995747
 40
-0.2617993877991494
 40
1.832595714594046
  0
TABLESTYLE
  5
46E7
102
{ACAD_XDICTIONARY
360
48B0
102
}
102
{ACAD_REACTORS
330
46E6
102
}
330
46E6
100
AcDbTableStyle
  3
Standard
 70
     0
 71
     0
 40
1.5
 41
1.5
280
     0
281
     0
  7
STANDARD
140
4.5
170
     2
 62
     0
 63
     7
283
     0
274
    -2
284
     1
 64
     0
275
    -2
285
     1
 65
     0
276
    -2
286
     1
 66
     0
277
    -2
287
     1
 67
     0
278
    -2
288
     1
 68
     0
279
    -2
289
     1
 69
     0
  7
STANDARD
140
6.0
170
     5
 62
     0
 63
     7
283
     0
274
    -2
284
     1
 64
     0
275
    -2
285
     1
 65
     0
276
    -2
286
     1
 66
     0
277
    -2
287
     1
 67
     0
278
    -2
288
     1
 68
     0
279
    -2
289
     1
 69
     0
  7
STANDARD
140
4.5
170
     5
 62
     0
 63
     7
283
     0
274
    -2
284
     1
 64
     0
275
    -2
285
     1
 65
     0
276
    -2
286
     1
 66
     0
277
    -2
287
     1
 67
     0
278
    -2
288
     1
 68
     0
279
    -2
289
     1
 69
     0
  0
VISUALSTYLE
  5
46D2
102
{ACAD_XDICTIONARY
360
48D1
102
}
102
{ACAD_REACTORS
330
46CC
102
}
330
46CC
100
AcDbVisualStyle
  2
2dWireframe
 70
     4
 71
     0
 72
     2
 73
     0
 90
        0
 40
-0.6
 41
-30.0
 62
     5
 63
     7
421
 16777215
 74
     1
 91
        4
 64
     7
 65
   257
 75
     1
175
     1
 42
1.0
 92
        0
 66
   257
 43
1.0
 76
     1
 77
     6
 78
     2
 67
     7
 79
     5
170
     0
171
     0
290
     0
174
     0
 93
        1
 44
0.0
173
     0
291
     0
 45
0.0
1001
ACAD
1000
AcDbSavedByObjectVersion
1070
     0
  0
VISUALSTYLE
  5
46D1
102
{ACAD_XDICTIONARY
360
48CF
102
}
102
{ACAD_REACTORS
330
46CC
102
}
330
46CC
100
AcDbVisualStyle
  2
Basic
 70
     7
 71
     1
 72
     0
 73
     1
 90
        0
 40
-0.6
 41
-30.0
 62
     5
 63
     7
421
 16777215
 74
     0
 91
        4
 64
     7
 65
   257
 75
     1
175
     1
 42
1.0
 92
        8
 66
     7
 43
1.0
 76
     1
 77
     6
 78
     2
 67
     7
 79
     5
170
     0
171
     0
290
     0
174
     0
 93
        1
 44
0.0
173
     0
291
     1
 45
0.0
1001
ACAD
1000
AcDbSavedByObjectVersion
1070
     0
  0
VISUALSTYLE
  5
46D8
102
{ACAD_XDICTIONARY
360
48DD
102
}
102
{ACAD_REACTORS
330
46CC
102
}
330
46CC
100
AcDbVisualStyle
  2
Brighten
 70
    12
 71
     2
 72
     2
 73
     0
 90
        0
 40
-0.6
 41
-30.0
 62
     5
 63
     7
421
 16777215
 74
     1
 91
        4
 64
     7
 65
   257
 75
     1
175
     1
 42
1.0
 92
        8
 66
     7
 43
1.0
 76
     1
 77
     6
 78
     2
 67
     7
 79
     5
170
     0
171
     0
290
     0
174
     0
 93
        1
 44
50.0
173
     0
291
     1
 45
0.0
1001
ACAD
1000
AcDbSavedByObjectVersion
1070
     0
  0
VISUALSTYLE
  5
46DC
102
{ACAD_XDICTIONARY
360
48E5
102
}
102
{ACAD_REACTORS
330
46CC
102
}
330
46CC
100
AcDbVisualStyle
  2
ColorChange
 70
    16
 71
     2
 72
     2
 73
     3
 90
        0
 40
-0.6
 41
-30.0
 62
     5
 63
     8
421
  8421504
 74
     1
 91
        4
 64
     7
 65
   257
 75
     1
175
     1
 42
1.0
 92
        8
 66
     8
424
  8421504
 43
1.0
 76
     1
 77
     6
 78
     2
 67
     7
 79
     5
170
     0
171
     0
290
     0
174
     0
 93
        1
 44
0.0
173
     0
291
     1
 45
0.0
1001
ACAD
1000
AcDbSavedByObjectVersion
1070
     0
  0
VISUALSTYLE
  5
46D5
102
{ACAD_XDICTIONARY
360
48D7
102
}
102
{ACAD_REACTORS
330
46CC
102
}
330
46CC
100
AcDbVisualStyle
  2
Conceptual
 70
     9
 71
     3
 72
     2
 73
     0
 90
        0
 40
-0.6
 41
-30.0
 62
     5
 63
     7
421
 16777215
 74
     2
 91
        2
 64
     7
 65
   257
 75
     1
175
     1
 42
179.0
 92
        8
 66
     7
 43
1.0
 76
     1
 77
     6
 78
     2
 67
     7
 79
     3
170
     0
171
     0
290
     0
174
     0
 93
        1
 44
0.0
173
     0
291
     0
 45
0.0
1001
ACAD
1000
AcDbSavedByObjectVersion
1070
     0
  0
VISUALSTYLE
  5
46D7
102
{ACAD_XDICTIONARY
360
48DB
102
}
102
{ACAD_REACTORS
330
46CC
102
}
330
46CC
100
AcDbVisualStyle
  2
Dim
 70
    11
 71
     2
 72
     2
 73
     0
 90
        0
 40
-0.6
 41
-30.0
 62
     5
 63
     7
421
 16777215
 74
     1
 91
        4
 64
     7
 65
   257
 75
     1
175
     1
 42
1.0
 92
        8
 66
     7
 43
1.0
 76
     1
 77
     6
 78
     2
 67
     7
 79
     5
170
     0
171
     0
290
     0
174
     0
 93
        1
 44
-50.0
173
     0
291
     1
 45
0.0
1001
ACAD
1000
AcDbSavedByObjectVersion
1070
     0
  0
VISUALSTYLE
  5
46E4
102
{ACAD_XDICTIONARY
360
48F5
102
}
102
{ACAD_REACTORS
330
46CC
102
}
330
46CC
100
AcDbVisualStyle
  2
EdgeColorOff
 70
    22
 71
     2
 72
     2
 73
     0
 90
        0
 40
-0.6
 41
-30.0
 62
     5
 63
     7
421
 16777215
 74
     1
 91
        4
 64
     7
 65
   257
 75
     1
175
     1
 42
1.0
 92
        8
 66
     7
 43
1.0
 76
     1
 77
     6
 78
     2
 67
     7
 79
     5
170
     0
171
     0
290
     0
174
     0
 93
        1
 44
0.0
173
     0
291
     1
 45
0.0
1001
ACAD
1000
AcDbSavedByObjectVersion
1070
     0
  0
VISUALSTYLE
  5
46DB
102
{ACAD_XDICTIONARY
360
48E3
102
}
102
{ACAD_REACTORS
330
46CC
102
}
330
46CC
100
AcDbVisualStyle
  2
Facepattern
 70
    15
 71
     2
 72
     2
 73
     0
 90
        0
 40
-0.6
 41
-30.0
 62
     5
 63
     7
421
 16777215
 74
     1
 91
        4
 64
     7
 65
   257
 75
     1
175
     1
 42
1.0
 92
        8
 66
     7
 43
1.0
 76
     1
 77
     6
 78
     2
 67
     7
 79
     5
170
     0
171
     0
290
     0
174
     0
 93
        1
 44
0.0
173
     0
291
     1
 45
0.0
1001
ACAD
1000
AcDbSavedByObjectVersion
1070
     0
  0
VISUALSTYLE
  5
46CD
102
{ACAD_XDICTIONARY
360
48C7
102
}
102
{ACAD_REACTORS
330
46CC
102
}
330
46CC
100
AcDbVisualStyle
  2
Flat
 70
     0
 71
     2
 72
     1
 73
     1
 90
        2
 40
-0.6
 41
30.0
 62
     5
 63
     7
421
 16777215
 74
     0
 91
        0
 64
     7
 65
   257
 75
     1
175
     1
 42
1.0
 92
        8
 66
     7
 43
1.0
 76
     1
 77
     6
 78
     2
 67
     7
 79
     5
170
     0
171
     0
290
     0
174
     0
 93
       13
 44
0.0
173
     0
291
     1
 45
0.0
1001
ACAD
1000
AcDbSavedByObjectVersion
1070
     0
  0
VISUALSTYLE
  5
46CE
102
{ACAD_XDICTIONARY
360
48C9
102
}
102
{ACAD_REACTORS
330
46CC
102
}
330
46CC
100
AcDbVisualStyle
  2
FlatWithEdges
 70
     1
 71
     2
 72
     1
 73
     1
 90
        2
 40
-0.6
 41
30.0
 62
     5
 63
     7
421
 16777215
 74
     1
 91
        0
 64
     7
 65
   257
 75
     1
175
     1
 42
1.0
 92
        0
 66
   257
 43
1.0
 76
     1
 77
     6
 78
     2
 67
     7
 79
     5
170
     0
171
     0
290
     0
174
     0
 93
       13
 44
0.0
173
     0
291
     1
 45
0.0
1001
ACAD
1000
AcDbSavedByObjectVersion
1070
     0
  0
VISUALSTYLE
  5
46CF
102
{ACAD_XDICTIONARY
360
48CB
102
}
102
{ACAD_REACTORS
330
46CC
102
}
330
46CC
100
AcDbVisualStyle
  2
Gouraud
 70
     2
 71
     2
 72
     2
 73
     1
 90
        2
 40
-0.6
 41
30.0
 62
     5
 63
     7
421
 16777215
 74
     0
 91
        0
 64
     7
 65
   257
 75
     1
175
     1
 42
1.0
 92
        0
 66
     7
 43
1.0
 76
     1
 77
     6
 78
     2
 67
     7
 79
     5
170
     0
171
     0
290
     0
174
     0
 93
       13
 44
0.0
173
     0
291
     1
 45
0.0
1001
ACAD
1000
AcDbSavedByObjectVersion
1070
     0
  0
VISUALSTYLE
  5
46D0
102
{ACAD_XDICTIONARY
360
48CD
102
}
102
{ACAD_REACTORS
330
46CC
102
}
330
46CC
100
AcDbVisualStyle
  2
GouraudWithEdges
 70
     3
 71
     2
 72
     2
 73
     1
 90
        2
 40
-0.6
 41
30.0
 62
     5
 63
     7
421
 16777215
 74
     1
 91
        0
 64
     7
 65
   257
 75
     1
175
     1
 42
1.0
 92
        0
 66
   257
 43
1.0
 76
     1
 77
     6
 78
     2
 67
     7
 79
     5
170
     0
171
     0
290
     0
174
     0
 93
       13
 44
0.0
173
     0
291
     1
 45
0.0
1001
ACAD
1000
AcDbSavedByObjectVersion
1070
     0
  0
VISUALSTYLE
  5
46D4
102
{ACAD_XDICTIONARY
360
48D5
102
}
102
{ACAD_REACTORS
330
46CC
102
}
330
46CC
100
AcDbVisualStyle
  2
Hidden
 70
     6
 71
     1
 72
     2
 73
     2
 90
        0
 40
-0.6
 41
-30.0
 62
     5
 63
     7
421
 16777215
 74
     2
 91
        2
 64
     7
 65
   257
 75
     2
175
     1
 42
40.0
 92
        0
 66
   257
 43
1.0
 76
     1
 77
     6
 78
     2
 67
     7
 79
     3
170
     0
171
     0
290
     0
174
     0
 93
        1
 44
0.0
173
     0
291
     0
 45
0.0
1001
ACAD
1000
AcDbSavedByObjectVersion
1070
     0
  0
VISUALSTYLE
  5
46E2
102
{ACAD_XDICTIONARY
360
48F1
102
}
102
{ACAD_REACTORS
330
46CC
102
}
330
46CC
100
AcDbVisualStyle
  2
JitterOff
 70
    20
 71
     2
 72
     2
 73
     0
 90
        0
 40
-0.6
 41
-30.0
 62
     5
 63
     7
421
 16777215
 74
     1
 91
        4
 64
     7
 65
   257
 75
     1
175
     1
 42
1.0
 92
       10
 66
     7
 43
1.0
 76
     1
 77
     6
 78
     2
 67
     7
 79
     5
170
     0
171
     0
290
     0
174
     0
 93
        1
 44
0.0
173
     0
291
     1
 45
0.0
1001
ACAD
1000
AcDbSavedByObjectVersion
1070
     0
  0
VISUALSTYLE
  5
46DA
102
{ACAD_XDICTIONARY
360
48E1
102
}
102
{ACAD_REACTORS
330
46CC
102
}
330
46CC
100
AcDbVisualStyle
  2
Linepattern
 70
    14
 71
     2
 72
     2
 73
     0
 90
        0
 40
-0.6
 41
-30.0
 62
     5
 63
     7
421
 16777215
 74
     1
 91
        4
 64
     7
 65
   257
 75
     7
175
     7
 42
1.0
 92
        8
 66
     7
 43
1.0
 76
     1
 77
     6
 78
     2
 67
     7
 79
     5
170
     0
171
     0
290
     0
174
     0
 93
        1
 44
0.0
173
     0
291
     1
 45
0.0
1001
ACAD
1000
AcDbSavedByObjectVersion
1070
     0
  0
VISUALSTYLE
  5
46E3
102
{ACAD_XDICTIONARY
360
48F3
102
}
102
{ACAD_REACTORS
330
46CC
102
}
330
46CC
100
AcDbVisualStyle
  2
OverhangOff
 70
    21
 71
     2
 72
     2
 73
     0
 90
        0
 40
-0.6
 41
-30.0
 62
     5
 63
     7
421
 16777215
 74
     1
 91
        4
 64
     7
 65
   257
 75
     1
175
     1
 42
1.0
 92
        9
 66
     7
 43
1.0
 76
     1
 77
     6
 78
     2
 67
     7
 79
     5
170
     0
171
     0
290
     0
174
     0
 93
        1
 44
0.0
173
     0
291
     1
 45
0.0
1001
ACAD
1000
AcDbSavedByObjectVersion
1070
     0
  0
VISUALSTYLE
  5
46D6
102
{ACAD_XDICTIONARY
360
48D9
102
}
102
{ACAD_REACTORS
330
46CC
102
}
330
46CC
100
AcDbVisualStyle
  2
Realistic
 70
     8
 71
     2
 72
     3
 73
     0
 90
        2
 40
-0.6
 41
30.0
 62
     5
 63
     7
421
 16777215
 74
     0
 91
        0
 64
     7
 65
   257
 75
     1
175
     1
 42
1.0
 92
        8
 66
   257
 43
1.0
 76
     1
 77
     6
 78
     2
 67
     7
 79
     3
170
     0
171
     0
290
     0
174
     0
 93
       13
 44
0.0
173
     0
291
     0
 45
0.0
1001
ACAD
1000
AcDbSavedByObjectVersion
1070
     0
  0
VISUALSTYLE
  5
46E1
102
{ACAD_XDICTIONARY
360
48EF
102
}
102
{ACAD_REACTORS
330
46CC
102
}
330
46CC
100
AcDbVisualStyle
  2
Shaded
 70
    27
 71
     2
 72
     2
 73
     1
 90
        2
 40
-0.6
 41
30.0
 62
     5
 63
     7
421
 16777215
 74
     0
 91
        4
 64
     7
 65
   257
 75
     1
175
     1
 42
1.0
 92
        8
 66
   257
 43
1.0
 76
     1
 77
     6
 78
     2
 67
     8
425
  7895160
 79
     3
170
     0
171
     0
290
     0
174
     0
 93
        5
 44
0.0
173
     0
291
     0
 45
0.0
1001
ACAD
1000
AcDbSavedByObjectVersion
1070
     0
  0
VISUALSTYLE
  5
46E0
102
{ACAD_XDICTIONARY
360
48ED
102
}
102
{ACAD_REACTORS
330
46CC
102
}
330
46CC
100
AcDbVisualStyle
  2
Shaded with edges
 70
    26
 71
     2
 72
     2
 73
     1
 90
        2
 40
-0.6
 41
30.0
 62
     5
 63
     7
421
 16777215
 74
     1
 91
       10
 64
     7
 65
   257
 75
     2
175
     1
 42
1.0
 92
        8
 66
   257
 43
1.0
 76
     1
 77
     6
 78
     2
 67
     7
 79
     3
170
     0
171
     0
290
     0
174
     0
 93
        5
 44
0.0
173
     0
291
     0
 45
0.0
1001
ACAD
1000
AcDbSavedByObjectVersion
1070
     0
  0
VISUALSTYLE
  5
46DD
102
{ACAD_XDICTIONARY
360
48E7
102
}
102
{ACAD_REACTORS
330
46CC
102
}
330
46CC
100
AcDbVisualStyle
  2
Shades of Gray
 70
    23
 71
     2
 72
     2
 73
     3
 90
        0
 40
-0.6
 41
-30.0
 62
     5
 63
     7
421
 16777215
 74
     2
 91
        2
 64
     7
 65
     7
 75
     1
175
     1
 42
40.0
 92
        8
 66
     7
 43
1.0
 76
     1
 77
     6
 78
     2
 67
     7
 79
     3
170
     0
171
     0
290
     0
174
     0
 93
        1
 44
0.0
173
     0
291
     0
 45
0.0
1001
ACAD
1000
AcDbSavedByObjectVersion
1070
     0
  0
VISUALSTYLE
  5
46DE
102
{ACAD_XDICTIONARY
360
48E9
102
}
102
{ACAD_REACTORS
330
46CC
102
}
330
46CC
100
AcDbVisualStyle
  2
Sketchy
 70
    24
 71
     1
 72
     2
 73
     2
 90
        0
 40
-0.6
 41
-30.0
 62
     5
 63
     7
421
 16777215
 74
     2
 91
        2
 64
     7
 65
     7
 75
     1
175
     1
 42
40.0
 92
       11
 66
     7
 43
1.0
 76
     1
 77
     6
 78
     2
 67
     7
 79
     6
170
     0
171
     0
290
     0
174
     0
 93
        1
 44
0.0
173
     0
291
     0
 45
0.0
1001
ACAD
1000
AcDbSavedByObjectVersion
1070
     0
  0
VISUALSTYLE
  5
46D9
102
{ACAD_XDICTIONARY
360
48DF
102
}
102
{ACAD_REACTORS
330
46CC
102
}
330
46CC
100
AcDbVisualStyle
  2
Thicken
 70
    13
 71
     2
 72
     2
 73
     0
 90
        0
 40
-0.6
 41
-30.0
 62
     5
 63
     7
421
 16777215
 74
     1
 91
        4
 64
     7
 65
   257
 75
     1
175
     1
 42
1.0
 92
       12
 66
     7
 43
1.0
 76
     1
 77
     6
 78
     2
 67
     7
 79
     5
170
     0
171
     0
290
     0
174
     0
 93
        1
 44
0.0
173
     0
291
     1
 45
0.0
1001
ACAD
1000
AcDbSavedByObjectVersion
1070
     0
  0
VISUALSTYLE
  5
46D3
102
{ACAD_XDICTIONARY
360
48D3
102
}
102
{ACAD_REACTORS
330
46CC
102
}
330
46CC
100
AcDbVisualStyle
  2
Wireframe
 70
     5
 71
     0
 72
     2
 73
     0
 90
        0
 40
-0.6
 41
-30.0
 62
     5
 63
     7
421
 16777215
 74
     1
 91
        4
 64
     7
 65
   257
 75
     1
175
     1
 42
1.0
 92
        0
 66
   257
 43
1.0
 76
     1
 77
     6
 78
     2
 67
     7
 79
     3
170
     0
171
     0
290
     0
174
     0
 93
        1
 44
0.0
173
     0
291
     0
 45
0.0
1001
ACAD
1000
AcDbSavedByObjectVersion
1070
     0
  0
VISUALSTYLE
  5
46DF
102
{ACAD_XDICTIONARY
360
48EB
102
}
102
{ACAD_REACTORS
330
46CC
102
}
330
46CC
100
AcDbVisualStyle
  2
X-Ray
 70
    25
 71
     2
 72
     2
 73
     1
 90
        1
 40
0.5
 41
-30.0
 62
     5
 63
     7
421
 16777215
 74
     1
 91
        0
 64
     7
 65
   257
 75
     1
175
     1
 42
1.0
 92
        8
 66
     7
 43
1.0
 76
     1
 77
     6
 78
     2
 67
     7
 79
     3
170
     0
171
     0
290
     0
174
     0
 93
       13
 44
0.0
173
     0
291
     0
 45
0.0
1001
ACAD
1000
AcDbSavedByObjectVersion
1070
     0
  0
DICTIONARYVAR
  5
4840
102
{ACAD_REACTORS
330
7F0
102
}
330
7F0
100
DictionaryVariables
280
     0
  1
1:1
  0
DICTIONARYVAR
  5
483C
102
{ACAD_REACTORS
330
7F0
102
}
330
7F0
100
DictionaryVariables
280
     0
  1
STANDARD
  0
DICTIONARYVAR
  5
483B
102
{ACAD_REACTORS
330
7F0
102
}
330
7F0
100
DictionaryVariables
280
     0
  1
STANDARD
  0
DICTIONARYVAR
  5
483D
102
{ACAD_REACTORS
330
7F0
102
}
330
7F0
100
DictionaryVariables
280
     0
  1
Metric50
  0
DICTIONARYVAR
  5
483E
102
{ACAD_REACTORS
330
7F0
102
}
330
7F0
100
DictionaryVariables
280
     0
  1
Metric50
  0
DICTIONARYVAR
  5
1F21
102
{ACAD_REACTORS
330
7F0
102
}
330
7F0
100
DictionaryVariables
280
     0
  1
1
  0
DICTIONARYVAR
  5
4842
102
{ACAD_REACTORS
330
7F0
102
}
330
7F0
100
DictionaryVariables
280
     0
  1
1
  0
DICTIONARYVAR
  5
4843
102
{ACAD_REACTORS
330
7F0
102
}
330
7F0
100
DictionaryVariables
280
     0
  1
15
  0
DICTIONARYVAR
  5
4841
102
{ACAD_REACTORS
330
7F0
102
}
330
7F0
100
DictionaryVariables
280
     0
  1
0
  0
DICTIONARYVAR
  5
483F
102
{ACAD_REACTORS
330
7F0
102
}
330
7F0
100
DictionaryVariables
280
     0
  1
0
  0
DICTIONARYVAR
  5
7F1
102
{ACAD_REACTORS
330
7F0
102
}
330
7F0
100
DictionaryVariables
280
     0
  1
96
  0
DICTIONARYVAR
  5
48AF
102
{ACAD_REACTORS
330
7F0
102
}
330
7F0
100
DictionaryVariables
280
     0
  1
2
  0
DICTIONARY
  5
48BB
102
{ACAD_REACTORS
330
48B9
102
}
330
48B9
100
AcDbDictionary
281
     1
  0
DICTIONARY
  5
48BA
102
{ACAD_REACTORS
330
48B9
102
}
330
48B9
100
AcDbDictionary
281
     1
  3
140695673523008
350
48B4
  3
140695673523024
350
48B5
  3
140695673523040
350
48B6
  3
140695673523056
350
48B7
  3
140695673523072
350
48B8
  0
XRECORD
  5
2414
102
{ACAD_REACTORS
330
2413
102
}
330
2413
100
AcDbXrecord
280
     1
330
149A
330
1F2F
330
0
330
0
330
0
330
0
  0
DICTIONARY
  5
46BD
330
46BC
100
AcDbDictionary
280
     1
281
     1
  3
ACAD_XREC_ROUNDTRIP
360
48C5
  3
BUMPTILE
360
46BF
  3
DIFFUSETILE
360
46BE
  3
OPACITYTILE
360
46C2
  3
REFLECTIONTILE
360
46C1
  3
REFRACTIONTILE
360
46C3
  3
SPECULARTILE
360
46C0
  0
DICTIONARY
  5
46B5
330
46B4
100
AcDbDictionary
280
     1
281
     1
  3
ACAD_XREC_ROUNDTRIP
360
48C4
  3
BUMPTILE
360
46B7
  3
DIFFUSETILE
360
46B6
  3
OPACITYTILE
360
46BA
  3
REFLECTIONTILE
360
46B9
  3
REFRACTIONTILE
360
46BB
  3
SPECULARTILE
360
46B8
  0
DICTIONARY
  5
46C5
330
46C4
100
AcDbDictionary
280
     1
281
     1
  3
ACAD_XREC_ROUNDTRIP
360
48C6
  3
BUMPTILE
360
46C7
  3
DIFFUSETILE
360
46C6
  3
OPACITYTILE
360
46CA
  3
REFLECTIONTILE
360
46C9
  3
REFRACTIONTILE
360
46CB
  3
SPECULARTILE
360
46C8
  0
DICTIONARY
  5
48F9
330
46FB
100
AcDbDictionary
280
     1
281
     1
  3
ACAD_XREC_ROUNDTRIP
360
48FA
  0
DICTIONARY
  5
48B0
330
46E7
100
AcDbDictionary
280
     1
281
     1
  3
ACAD_ROUNDTRIP_2008_TABLESTYLE_CELLSTYLEMAP
360
48B1
  3
ACAD_XREC_ROUNDTRIP
360
48F7
  0
DICTIONARY
  5
48D1
330
46D2
100
AcDbDictionary
280
     1
281
     1
  3
ACAD_XREC_ROUNDTRIP
360
48D2
  0
DICTIONARY
  5
48CF
330
46D1
100
AcDbDictionary
280
     1
281
     1
  3
ACAD_XREC_ROUNDTRIP
360
48D0
  0
DICTIONARY
  5
48DD
330
46D8
100
AcDbDictionary
280
     1
281
     1
  3
ACAD_XREC_ROUNDTRIP
360
48DE
  0
DICTIONARY
  5
48E5
330
46DC
100
AcDbDictionary
280
     1
281
     1
  3
ACAD_XREC_ROUNDTRIP
360
48E6
  0
DICTIONARY
  5
48D7
330
46D5
100
AcDbDictionary
280
     1
281
     1
  3
ACAD_XREC_ROUNDTRIP
360
48D8
  0
DICTIONARY
  5
48DB
330
46D7
100
AcDbDictionary
280
     1
281
     1
  3
ACAD_XREC_ROUNDTRIP
360
48DC
  0
DICTIONARY
  5
48F5
330
46E4
100
AcDbDictionary
280
     1
281
     1
  3
ACAD_XREC_ROUNDTRIP
360
48F6
  0
DICTIONARY
  5
48E3
330
46DB
100
AcDbDictionary
280
     1
281
     1
  3
ACAD_XREC_ROUNDTRIP
360
48E4
  0
DICTIONARY
  5
48C7
330
46CD
100
AcDbDictionary
280
     1
281
     1
  3
ACAD_XREC_ROUNDTRIP
360
48C8
  0
DICTIONARY
  5
48C9
330
46CE
100
AcDbDictionary
280
     1
281
     1
  3
ACAD_XREC_ROUNDTRIP
360
48CA
  0
DICTIONARY
  5
48CB
330
46CF
100
AcDbDictionary
280
     1
281
     1
  3
ACAD_XREC_ROUNDTRIP
360
48CC
  0
DICTIONARY
  5
48CD
330
46D0
100
AcDbDictionary
280
     1
281
     1
  3
ACAD_XREC_ROUNDTRIP
360
48CE
  0
DICTIONARY
  5
48D5
330
46D4
100
AcDbDictionary
280
     1
281
     1
  3
ACAD_XREC_ROUNDTRIP
360
48D6
  0
DICTIONARY
  5
48F1
330
46E2
100
AcDbDictionary
280
     1
281
     1
  3
ACAD_XREC_ROUNDTRIP
360
48F2
  0
DICTIONARY
  5
48E1
330
46DA
100
AcDbDictionary
280
     1
281
     1
  3
ACAD_XREC_ROUNDTRIP
360
48E2
  0
DICTIONARY
  5
48F3
330
46E3
100
AcDbDictionary
280
     1
281
     1
  3
ACAD_XREC_ROUNDTRIP
360
48F4
  0
DICTIONARY
  5
48D9
330
46D6
100
AcDbDictionary
280
     1
281
     1
  3
ACAD_XREC_ROUNDTRIP
360
48DA
  0
DICTIONARY
  5
48EF
330
46E1
100
AcDbDictionary
280
     1
281
     1
  3
ACAD_XREC_ROUNDTRIP
360
48F0
  0
DICTIONARY
  5
48ED
330
46E0
100
AcDbDictionary
280
     1
281
     1
  3
ACAD_XREC_ROUNDTRIP
360
48EE
  0
DICTIONARY
  5
48E7
330
46DD
100
AcDbDictionary
280
     1
281
     1
  3
ACAD_XREC_ROUNDTRIP
360
48E8
  0
DICTIONARY
  5
48E9
330
46DE
100
AcDbDictionary
280
     1
281
     1
  3
ACAD_XREC_ROUNDTRIP
360
48EA
  0
DICTIONARY
  5
48DF
330
46D9
100
AcDbDictionary
280
     1
281
     1
  3
ACAD_XREC_ROUNDTRIP
360
48E0
  0
DICTIONARY
  5
48D3
330
46D3
100
AcDbDictionary
280
     1
281
     1
  3
ACAD_XREC_ROUNDTRIP
360
48D4
  0
DICTIONARY
  5
48EB
330
46DF
100
AcDbDictionary
280
     1
281
     1
  3
ACAD_XREC_ROUNDTRIP
360
48EC
  0
XRECORD
  5
48B4
102
{ACAD_REACTORS
330
48BA
102
}
330
48BA
100
AcDbXrecord
280
     1
  1
AcDb_Thumbnail_Schema
102
{ATTRRECORD
341
48B5
  2
AcDbDs::TreatedAsObjectData
280
     1
291
     1
102
ATTRRECORD}
102
{ATTRRECORD
341
48B6
  2
AcDbDs::Legacy
280
     1
291
     1
102
ATTRRECORD}
  2
AcDbDs::ID
280
    10
 91
        8
102
{ATTRRECORD
341
48B7
  2
AcDs:Indexable
280
     1
291
     1
102
ATTRRECORD}
102
{ATTRRECORD
341
48B8
  2
AcDbDs::HandleAttribute
280
     7
282
     1
102
ATTRRECORD}
  2
Thumbnail_Data
280
    15
 91
        0
  0
XRECORD
  5
48B5
102
{ACAD_REACTORS
330
48BA
102
}
330
48BA
100
AcDbXrecord
280
     1
  1
AcDbDs::TreatedAsObjectDataSchema
  2
AcDbDs::TreatedAsObjectData
280
     1
 91
        0
  0
XRECORD
  5
48B6
102
{ACAD_REACTORS
330
48BA
102
}
330
48BA
100
AcDbXrecord
280
     1
  1
AcDbDs::LegacySchema
  2
AcDbDs::Legacy
280
     1
 91
        0
  0
XRECORD
  5
48B7
102
{ACAD_REACTORS
330
48BA
102
}
330
48BA
100
AcDbXrecord
280
     1
  1
AcDbDs::IndexedPropertySchema
  2
AcDs:Indexable
280
     1
 91
        0
  0
XRECORD
  5
48B8
102
{ACAD_REACTORS
330
48BA
102
}
330
48BA
100
AcDbXrecord
280
     1
  1
AcDbDs::HandleAttributeSchema
  2
AcDbDs::HandleAttribute
280
     7
 91
        1
284
     1
  0
XRECORD
  5
48C5
102
{ACAD_REACTORS
330
46BD
102
}
330
46BD
100
AcDbXrecord
280
     1
102
MATERIAL
148
0.0
149
0.0
149
0.0
 93
        0
 94
      127
282
     0
 72
     0
 77
     0
171
     0
175
     0
179
     0
273
     0
  0
XRECORD
  5
46BF
102
{ACAD_REACTORS
330
46BD
102
}
330
46BD
100
AcDbXrecord
280
     1
270
     1
271
     1
  0
XRECORD
  5
46BE
102
{ACAD_REACTORS
330
46BD
102
}
330
46BD
100
AcDbXrecord
280
     1
270
     1
271
     1
  0
XRECORD
  5
46C2
102
{ACAD_REACTORS
330
46BD
102
}
330
46BD
100
AcDbXrecord
280
     1
270
     1
271
     1
  0
XRECORD
  5
46C1
102
{ACAD_REACTORS
330
46BD
102
}
330
46BD
100
AcDbXrecord
280
     1
270
     1
271
     1
  0
XRECORD
  5
46C3
102
{ACAD_REACTORS
330
46BD
102
}
330
46BD
100
AcDbXrecord
280
     1
270
     1
271
     1
  0
XRECORD
  5
46C0
102
{ACAD_REACTORS
330
46BD
102
}
330
46BD
100
AcDbXrecord
280
     1
270
     1
271
     1
  0
XRECORD
  5
48C4
102
{ACAD_REACTORS
330
46B5
102
}
330
46B5
100
AcDbXrecord
280
     1
102
MATERIAL
148
0.0
149
0.0
149
0.0
 93
        0
 94
      127
282
     0
 72
     0
 77
     0
171
     0
175
     0
179
     0
273
     0
  0
XRECORD
  5
46B7
102
{ACAD_REACTORS
330
46B5
102
}
330
46B5
100
AcDbXrecord
280
     1
270
     1
271
     1
  0
XRECORD
  5
46B6
102
{ACAD_REACTORS
330
46B5
102
}
330
46B5
100
AcDbXrecord
280
     1
270
     1
271
     1
  0
XRECORD
  5
46BA
102
{ACAD_REACTORS
330
46B5
102
}
330
46B5
100
AcDbXrecord
280
     1
270
     1
271
     1
  0
XRECORD
  5
46B9
102
{ACAD_REACTORS
330
46B5
102
}
330
46B5
100
AcDbXrecord
280
     1
270
     1
271
     1
  0
XRECORD
  5
46BB
102
{ACAD_REACTORS
330
46B5
102
}
330
46B5
100
AcDbXrecord
280
     1
270
     1
271
     1
  0
XRECORD
  5
46B8
102
{ACAD_REACTORS
330
46B5
102
}
330
46B5
100
AcDbXrecord
280
     1
270
     1
271
     1
  0
XRECORD
  5
48C6
102
{ACAD_REACTORS
330
46C5
102
}
330
46C5
100
AcDbXrecord
280
     1
102
MATERIAL
148
0.0
149
0.0
149
0.0
 93
        0
 94
      127
282
     0
 72
     0
 77
     0
171
     0
175
     0
179
     0
273
     0
  0
XRECORD
  5
46C7
102
{ACAD_REACTORS
330
46C5
102
}
330
46C5
100
AcDbXrecord
280
     1
270
     1
271
     1
  0
XRECORD
  5
46C6
102
{ACAD_REACTORS
330
46C5
102
}
330
46C5
100
AcDbXrecord
280
     1
270
     1
271
     1
  0
XRECORD
  5
46CA
102
{ACAD_REACTORS
330
46C5
102
}
330
46C5
100
AcDbXrecord
280
     1
270
     1
271
     1
  0
XRECORD
  5
46C9
102
{ACAD_REACTORS
330
46C5
102
}
330
46C5
100
AcDbXrecord
280
     1
270
     1
271
     1
  0
XRECORD
  5
46CB
102
{ACAD_REACTORS
330
46C5
102
}
330
46C5
100
AcDbXrecord
280
     1
270
     1
271
     1
  0
XRECORD
  5
46C8
102
{ACAD_REACTORS
330
46C5
102
}
330
46C5
100
AcDbXrecord
280
     1
270
     1
271
     1
  0
XRECORD
  5
48FA
102
{ACAD_REACTORS
330
48F9
102
}
330
48F9
100
AcDbXrecord
280
     1
102
ACAD_ROUNDTRIP_2012_MLEADER_STYLE
298
     1
  0
CELLSTYLEMAP
  5
48B1
102
{ACAD_REACTORS
330
48B0
102
}
330
48B0
100
AcDbCellStyleMap
 90
        3
300
CELLSTYLE
  1
TABLEFORMAT_BEGIN
 90
        5
170
     1
 91
        0
 92
    32768
 62
   257
 93
        1
300
CONTENTFORMAT
  1
CONTENTFORMAT_BEGIN
 90
        0
 91
        0
 92
      512
 93
        0
300

 40
0.0
140
1.0
 94
        5
 62
     0
340
F
144
6.0
309
CONTENTFORMAT_END
171
     1
301
MARGIN
  1
CELLMARGIN_BEGIN
 40
1.5
 40
1.5
 40
1.5
 40
1.5
 40
4.5
 40
4.5
309
CELLMARGIN_END
 94
        6
 95
        1
302
GRIDFORMAT
  1
GRIDFORMAT_BEGIN
 90
        0
 91
        1
 62
     0
 92
       -2
340
0
 93
        0
 40
1.125
309
GRIDFORMAT_END
 95
        2
302
GRIDFORMAT
  1
GRIDFORMAT_BEGIN
 90
        0
 91
        1
 62
     0
 92
       -2
340
0
 93
        0
 40
1.125
309
GRIDFORMAT_END
 95
        4
302
GRIDFORMAT
  1
GRIDFORMAT_BEGIN
 90
        0
 91
        1
 62
     0
 92
       -2
340
0
 93
        0
 40
1.125
309
GRIDFORMAT_END
 95
        8
302
GRIDFORMAT
  1
GRIDFORMAT_BEGIN
 90
        0
 91
        1
 62
     0
 92
       -2
340
0
 93
        0
 40
1.125
309
GRIDFORMAT_END
 95
       16
302
GRIDFORMAT
  1
GRIDFORMAT_BEGIN
 90
        0
 91
        1
 62
     0
 92
       -2
340
0
 93
        0
 40
1.125
309
GRIDFORMAT_END
 95
       32
302
GRIDFORMAT
  1
GRIDFORMAT_BEGIN
 90
        0
 91
        1
 62
     0
 92
       -2
340
0
 93
        0
 40
1.125
309
GRIDFORMAT_END
309
TABLEFORMAT_END
  1
CELLSTYLE_BEGIN
 90
        1
 91
        1
300
_TITLE
309
CELLSTYLE_END
300
CELLSTYLE
  1
TABLEFORMAT_BEGIN
 90
        5
170
     1
 91
        0
 92
        0
 62
   257
 93
        1
300
CONTENTFORMAT
  1
CONTENTFORMAT_BEGIN
 90
        0
 91
        0
 92
      512
 93
        0
300

 40
0.0
140
1.0
 94
        5
 62
     0
340
F
144
4.5
309
CONTENTFORMAT_END
171
     1
301
MARGIN
  1
CELLMARGIN_BEGIN
 40
1.5
 40
1.5
 40
1.5
 40
1.5
 40
4.5
 40
4.5
309
CELLMARGIN_END
 94
        6
 95
        1
302
GRIDFORMAT
  1
GRIDFORMAT_BEGIN
 90
        0
 91
        1
 62
     0
 92
       -2
340
0
 93
        0
 40
1.125
309
GRIDFORMAT_END
 95
        2
302
GRIDFORMAT
  1
GRIDFORMAT_BEGIN
 90
        0
 91
        1
 62
     0
 92
       -2
340
0
 93
        0
 40
1.125
309
GRIDFORMAT_END
 95
        4
302
GRIDFORMAT
  1
GRIDFORMAT_BEGIN
 90
        0
 91
        1
 62
     0
 92
       -2
340
0
 93
        0
 40
1.125
309
GRIDFORMAT_END
 95
        8
302
GRIDFORMAT
  1
GRIDFORMAT_BEGIN
 90
        0
 91
        1
 62
     0
 92
       -2
340
0
 93
        0
 40
1.125
309
GRIDFORMAT_END
 95
       16
302
GRIDFORMAT
  1
GRIDFORMAT_BEGIN
 90
        0
 91
        1
 62
     0
 92
       -2
340
0
 93
        0
 40
1.125
309
GRIDFORMAT_END
 95
       32
302
GRIDFORMAT
  1
GRIDFORMAT_BEGIN
 90
        0
 91
        1
 62
     0
 92
       -2
340
0
 93
        0
 40
1.125
309
GRIDFORMAT_END
309
TABLEFORMAT_END
  1
CELLSTYLE_BEGIN
 90
        2
 91
        1
300
_HEADER
309
CELLSTYLE_END
300
CELLSTYLE
  1
TABLEFORMAT_BEGIN
 90
        5
170
     1
 91
        0
 92
        0
 62
   257
 93
        1
300
CONTENTFORMAT
  1
CONTENTFORMAT_BEGIN
 90
        0
 91
        0
 92
      512
 93
        0
300

 40
0.0
140
1.0
 94
        2
 62
     0
340
F
144
4.5
309
CONTENTFORMAT_END
171
     1
301
MARGIN
  1
CELLMARGIN_BEGIN
 40
1.5
 40
1.5
 40
1.5
 40
1.5
 40
4.5
 40
4.5
309
CELLMARGIN_END
 94
        6
 95
        1
302
GRIDFORMAT
  1
GRIDFORMAT_BEGIN
 90
        0
 91
        1
 62
     0
 92
       -2
340
0
 93
        0
 40
1.125
309
GRIDFORMAT_END
 95
        2
302
GRIDFORMAT
  1
GRIDFORMAT_BEGIN
 90
        0
 91
        1
 62
     0
 92
       -2
340
0
 93
        0
 40
1.125
309
GRIDFORMAT_END
 95
        4
302
GRIDFORMAT
  1
GRIDFORMAT_BEGIN
 90
        0
 91
        1
 62
     0
 92
       -2
340
0
 93
        0
 40
1.125
309
GRIDFORMAT_END
 95
        8
302
GRIDFORMAT
  1
GRIDFORMAT_BEGIN
 90
        0
 91
        1
 62
     0
 92
       -2
340
0
 93
        0
 40
1.125
309
GRIDFORMAT_END
 95
       16
302
GRIDFORMAT
  1
GRIDFORMAT_BEGIN
 90
        0
 91
        1
 62
     0
 92
       -2
340
0
 93
        0
 40
1.125
309
GRIDFORMAT_END
 95
       32
302
GRIDFORMAT
  1
GRIDFORMAT_BEGIN
 90
        0
 91
        1
 62
     0
 92
       -2
340
0
 93
        0
 40
1.125
309
GRIDFORMAT_END
309
TABLEFORMAT_END
  1
CELLSTYLE_BEGIN
 90
        3
 91
        2
300
_DATA
309
CELLSTYLE_END
  0
XRECORD
  5
48F7
102
{ACAD_REACTORS
330
48B0
102
}
330
48B0
100
AcDbXrecord
280
     1
102
ACAD_ROUNDTRIP_PRE2007_TABLESTYLE
 90
      512
 91
        0
  1

 92
      512
 93
        0
  2

 94
      512
 95
        0
  3

  0
XRECORD
  5
48D2
102
{ACAD_REACTORS
330
48D1
102
}
330
48D1
100
AcDbXrecord
280
     1
102
RTVSPost2010Prop28
280
     1
102
RTVSPost2010PropOp28
 70
     1
102
RTVSPost2010Prop29
280
     1
102
RTVSPost2010PropOp29
 70
     1
102
RTVSPost2010Prop30
280
     0
102
RTVSPost2010PropOp30
 70
     1
102
RTVSPost2010Prop31
280
     0
102
RTVSPost2010PropOp31
 70
     1
102
RTVSPost2010Prop32
280
     0
102
RTVSPost2010PropOp32
 70
     1
102
RTVSPost2010Prop33
280
     0
102
RTVSPost2010PropOp33
 70
     1
102
RTVSPost2010Prop34
280
     0
102
RTVSPost2010PropOp34
 70
     1
102
RTVSPost2010Prop35
280
     0
102
RTVSPost2010PropOp35
 70
     1
102
RTVSPost2010Prop36
280
     0
102
RTVSPost2010PropOp36
 70
     1
102
RTVSPost2010Prop37
 90
       50
102
RTVSPost2010PropOp37
 70
     1
102
RTVSPost2010Prop38
140
0.0
102
RTVSPost2010PropOp38
 70
     1
102
RTVSPost2010Prop39
140
1.0
102
RTVSPost2010PropOp39
 70
     1
102
RTVSPost2010Prop40
 90
        0
102
RTVSPost2010PropOp40
 70
     1
102
RTVSPost2010Prop41ColorIndex
 90
       18
102
RTVSPost2010Prop41ColorRGB
 90
        0
102
RTVSPost2010PropOp41
 70
     1
102
RTVSPost2010Prop42
 90
       50
102
RTVSPost2010PropOp42
 70
     1
102
RTVSPost2010Prop43
 90
        3
102
RTVSPost2010PropOp43
 70
     1
102
RTVSPost2010Prop44ColorIndex
 90
        5
102
RTVSPost2010Prop44ColorRGB
 90
      255
102
RTVSPost2010PropOp44
 70
     1
102
RTVSPost2010Prop45
280
     0
102
RTVSPost2010PropOp45
 70
     1
102
RTVSPost2010Prop46
 90
       50
102
RTVSPost2010PropOp46
 70
     1
102
RTVSPost2010Prop47
 90
       50
102
RTVSPost2010PropOp47
 70
     1
102
RTVSPost2010Prop48
 90
       50
102
RTVSPost2010PropOp48
 70
     1
102
RTVSPost2010Prop49
280
     0
102
RTVSPost2010PropOp49
 70
     1
102
RTVSPost2010Prop50
 90
       50
102
RTVSPost2010PropOp50
 70
     1
102
RTVSPost2010Prop51ColorIndex
 90
      256
102
RTVSPost2010Prop51ColorRGB
 90
-16777216
102
RTVSPost2010PropOp51
 70
     0
102
RTVSPost2010Prop52
140
1.0
102
RTVSPost2010PropOp52
 70
     0
102
RTVSPost2010Prop53
 90
        2
102
RTVSPost2010PropOp53
 70
     1
102
RTVSPost2010Prop54
  1
strokes_ogs.tif
102
RTVSPost2010PropOp54
 70
     1
102
RTVSPost2010Prop55
280
     0
102
RTVSPost2010PropOp55
 70
     1
102
RTVSPost2010Prop56
140
1.0
102
RTVSPost2010PropOp56
 70
     1
102
RTVSPost2010Prop57
140
1.0
102
RTVSPost2010PropOp57
 70
     1
102
RTVSPropertyOp0
 70
     1
102
RTVSPropertyOp1
 70
     1
102
RTVSPropertyOp2
 70
     1
102
RTVSPropertyOp3
 70
     1
102
RTVSPropertyOp4
 70
     1
102
RTVSPropertyOp5
 70
     1
102
RTVSPropertyOp6
 70
     1
102
RTVSPropertyOp7
 70
     1
102
RTVSPropertyOp8
 70
     1
102
RTVSPropertyOp9
 70
     1
102
RTVSPropertyOp10
 70
     1
102
RTVSPropertyOp11
 70
     1
102
RTVSPropertyOp12
 70
     1
102
RTVSPropertyOp13
 70
     1
102
RTVSPropertyOp14
 70
     1
102
RTVSPropertyOp15
 70
     1
102
RTVSPropertyOp16
 70
     1
102
RTVSPropertyOp17
 70
     1
102
RTVSPropertyOp18
 70
     1
102
RTVSPropertyOp19
 70
     1
102
RTVSPropertyOp20
 70
     1
102
RTVSPropertyOp21
 70
     1
102
RTVSPropertyOp22
 70
     1
102
RTVSPropertyOp23
 70
     1
102
RTVSPropertyOp24
 70
     1
102
RTVSPropertyOp25
 70
     1
102
RTVSPropertyOp26
 70
     1
102
RTVSPropertyOp27
 70
     1
102
RTVSPropertyOp28
 70
     1
102
RTVSPropertyOp29
 70
     1
102
RTVSPropertyOp30
 70
     1
102
RTVSPropertyOp31
 70
     1
102
RTVSPropertyOp32
 70
     1
102
RTVSPropertyOp33
 70
     1
102
RTVSPropertyOp34
 70
     1
102
RTVSPropertyOp35
 70
     1
102
RTVSPropertyOp36
 70
     1
102
RTVSPropertyOp37
 70
     1
102
RTVSPropertyOp38
 70
     1
102
RTVSPropertyOp39
 70
     1
102
RTVSPropertyOp40
 70
     1
102
RTVSPropertyOp41
 70
     1
102
RTVSPropertyOp42
 70
     1
102
RTVSPropertyOp43
 70
     1
102
RTVSPropertyOp44
 70
     1
102
RTVSPropertyOp45
 70
     1
102
RTVSPropertyOp46
 70
     1
102
RTVSPropertyOp47
 70
     1
102
RTVSPropertyOp48
 70
     1
102
RTVSPropertyOp49
 70
     1
102
RTVSPropertyOp50
 70
     1
102
RTVSPropertyOp51
 70
     0
102
RTVSPropertyOp52
 70
     0
102
RTVSPropertyOp53
 70
     1
102
RTVSPropertyOp54
 70
     1
102
RTVSPropertyOp55
 70
     1
102
RTVSPropertyOp56
 70
     1
102
RTVSPropertyOp57
 70
     1
102
RTVSPropertyOp58
 70
     1
102
RTVSPropertyOp59
 70
     1
102
RTVSPropertyOp60
 70
     1
102
RTVSPropertyOp61
 70
     1
102
RTVSPropertyOp62
 70
     1
  0
XRECORD
  5
48D0
102
{ACAD_REACTORS
330
48CF
102
}
330
48CF
100
AcDbXrecord
280
     1
102
RTVSPost2010Prop28
280
     0
102
RTVSPost2010PropOp28
 70
     1
102
RTVSPost2010Prop29
280
     1
102
RTVSPost2010PropOp29
 70
     1
102
RTVSPost2010Prop30
280
     1
102
RTVSPost2010PropOp30
 70
     1
102
RTVSPost2010Prop31
280
     0
102
RTVSPost2010PropOp31
 70
     1
102
RTVSPost2010Prop32
280
     0
102
RTVSPost2010PropOp32
 70
     1
102
RTVSPost2010Prop33
280
     0
102
RTVSPost2010PropOp33
 70
     1
102
RTVSPost2010Prop34
280
     0
102
RTVSPost2010PropOp34
 70
     1
102
RTVSPost2010Prop35
280
     0
102
RTVSPost2010PropOp35
 70
     1
102
RTVSPost2010Prop36
280
     0
102
RTVSPost2010PropOp36
 70
     1
102
RTVSPost2010Prop37
 90
       50
102
RTVSPost2010PropOp37
 70
     1
102
RTVSPost2010Prop38
140
0.0
102
RTVSPost2010PropOp38
 70
     1
102
RTVSPost2010Prop39
140
1.0
102
RTVSPost2010PropOp39
 70
     1
102
RTVSPost2010Prop40
 90
        0
102
RTVSPost2010PropOp40
 70
     1
102
RTVSPost2010Prop41ColorIndex
 90
       18
102
RTVSPost2010Prop41ColorRGB
 90
        0
102
RTVSPost2010PropOp41
 70
     1
102
RTVSPost2010Prop42
 90
       50
102
RTVSPost2010PropOp42
 70
     1
102
RTVSPost2010Prop43
 90
        3
102
RTVSPost2010PropOp43
 70
     1
102
RTVSPost2010Prop44ColorIndex
 90
        5
102
RTVSPost2010Prop44ColorRGB
 90
      255
102
RTVSPost2010PropOp44
 70
     1
102
RTVSPost2010Prop45
280
     0
102
RTVSPost2010PropOp45
 70
     1
102
RTVSPost2010Prop46
 90
       50
102
RTVSPost2010PropOp46
 70
     1
102
RTVSPost2010Prop47
 90
       50
102
RTVSPost2010PropOp47
 70
     1
102
RTVSPost2010Prop48
 90
       50
102
RTVSPost2010PropOp48
 70
     1
102
RTVSPost2010Prop49
280
     0
102
RTVSPost2010PropOp49
 70
     1
102
RTVSPost2010Prop50
 90
       50
102
RTVSPost2010PropOp50
 70
     1
102
RTVSPost2010Prop51ColorIndex
 90
      256
102
RTVSPost2010Prop51ColorRGB
 90
-16777216
102
RTVSPost2010PropOp51
 70
     0
102
RTVSPost2010Prop52
140
1.0
102
RTVSPost2010PropOp52
 70
     0
102
RTVSPost2010Prop53
 90
        2
102
RTVSPost2010PropOp53
 70
     1
102
RTVSPost2010Prop54
  1
strokes_ogs.tif
102
RTVSPost2010PropOp54
 70
     1
102
RTVSPost2010Prop55
280
     0
102
RTVSPost2010PropOp55
 70
     1
102
RTVSPost2010Prop56
140
1.0
102
RTVSPost2010PropOp56
 70
     1
102
RTVSPost2010Prop57
140
1.0
102
RTVSPost2010PropOp57
 70
     1
102
RTVSPropertyOp0
 70
     1
102
RTVSPropertyOp1
 70
     1
102
RTVSPropertyOp2
 70
     1
102
RTVSPropertyOp3
 70
     1
102
RTVSPropertyOp4
 70
     1
102
RTVSPropertyOp5
 70
     1
102
RTVSPropertyOp6
 70
     1
102
RTVSPropertyOp7
 70
     1
102
RTVSPropertyOp8
 70
     1
102
RTVSPropertyOp9
 70
     1
102
RTVSPropertyOp10
 70
     1
102
RTVSPropertyOp11
 70
     1
102
RTVSPropertyOp12
 70
     1
102
RTVSPropertyOp13
 70
     1
102
RTVSPropertyOp14
 70
     1
102
RTVSPropertyOp15
 70
     1
102
RTVSPropertyOp16
 70
     1
102
RTVSPropertyOp17
 70
     1
102
RTVSPropertyOp18
 70
     1
102
RTVSPropertyOp19
 70
     1
102
RTVSPropertyOp20
 70
     1
102
RTVSPropertyOp21
 70
     1
102
RTVSPropertyOp22
 70
     1
102
RTVSPropertyOp23
 70
     1
102
RTVSPropertyOp24
 70
     1
102
RTVSPropertyOp25
 70
     1
102
RTVSPropertyOp26
 70
     1
102
RTVSPropertyOp27
 70
     1
102
RTVSPropertyOp28
 70
     1
102
RTVSPropertyOp29
 70
     1
102
RTVSPropertyOp30
 70
     1
102
RTVSPropertyOp31
 70
     1
102
RTVSPropertyOp32
 70
     1
102
RTVSPropertyOp33
 70
     1
102
RTVSPropertyOp34
 70
     1
102
RTVSPropertyOp35
 70
     1
102
RTVSPropertyOp36
 70
     1
102
RTVSPropertyOp37
 70
     1
102
RTVSPropertyOp38
 70
     1
102
RTVSPropertyOp39
 70
     1
102
RTVSPropertyOp40
 70
     1
102
RTVSPropertyOp41
 70
     1
102
RTVSPropertyOp42
 70
     1
102
RTVSPropertyOp43
 70
     1
102
RTVSPropertyOp44
 70
     1
102
RTVSPropertyOp45
 70
     1
102
RTVSPropertyOp46
 70
     1
102
RTVSPropertyOp47
 70
     1
102
RTVSPropertyOp48
 70
     1
102
RTVSPropertyOp49
 70
     1
102
RTVSPropertyOp50
 70
     1
102
RTVSPropertyOp51
 70
     0
102
RTVSPropertyOp52
 70
     0
102
RTVSPropertyOp53
 70
     1
102
RTVSPropertyOp54
 70
     1
102
RTVSPropertyOp55
 70
     1
102
RTVSPropertyOp56
 70
     1
102
RTVSPropertyOp57
 70
     1
102
RTVSPropertyOp58
 70
     1
102
RTVSPropertyOp59
 70
     1
102
RTVSPropertyOp60
 70
     1
102
RTVSPropertyOp61
 70
     1
102
RTVSPropertyOp62
 70
     1
  0
XRECORD
  5
48DE
102
{ACAD_REACTORS
330
48DD
102
}
330
48DD
100
AcDbXrecord
280
     1
102
RTVSPost2010Prop28
280
     0
102
RTVSPost2010PropOp28
 70
     1
102
RTVSPost2010Prop29
280
     1
102
RTVSPost2010PropOp29
 70
     1
102
RTVSPost2010Prop30
280
     1
102
RTVSPost2010PropOp30
 70
     1
102
RTVSPost2010Prop31
280
     0
102
RTVSPost2010PropOp31
 70
     1
102
RTVSPost2010Prop32
280
     0
102
RTVSPost2010PropOp32
 70
     1
102
RTVSPost2010Prop33
280
     0
102
RTVSPost2010PropOp33
 70
     1
102
RTVSPost2010Prop34
280
     0
102
RTVSPost2010PropOp34
 70
     1
102
RTVSPost2010Prop35
280
     0
102
RTVSPost2010PropOp35
 70
     1
102
RTVSPost2010Prop36
280
     0
102
RTVSPost2010PropOp36
 70
     1
102
RTVSPost2010Prop37
 90
       50
102
RTVSPost2010PropOp37
 70
     1
102
RTVSPost2010Prop38
140
0.0
102
RTVSPost2010PropOp38
 70
     1
102
RTVSPost2010Prop39
140
1.0
102
RTVSPost2010PropOp39
 70
     1
102
RTVSPost2010Prop40
 90
        0
102
RTVSPost2010PropOp40
 70
     1
102
RTVSPost2010Prop41ColorIndex
 90
       18
102
RTVSPost2010Prop41ColorRGB
 90
        0
102
RTVSPost2010PropOp41
 70
     1
102
RTVSPost2010Prop42
 90
       50
102
RTVSPost2010PropOp42
 70
     1
102
RTVSPost2010Prop43
 90
        3
102
RTVSPost2010PropOp43
 70
     1
102
RTVSPost2010Prop44ColorIndex
 90
        5
102
RTVSPost2010Prop44ColorRGB
 90
      255
102
RTVSPost2010PropOp44
 70
     1
102
RTVSPost2010Prop45
280
     0
102
RTVSPost2010PropOp45
 70
     1
102
RTVSPost2010Prop46
 90
       50
102
RTVSPost2010PropOp46
 70
     1
102
RTVSPost2010Prop47
 90
       50
102
RTVSPost2010PropOp47
 70
     1
102
RTVSPost2010Prop48
 90
       50
102
RTVSPost2010PropOp48
 70
     1
102
RTVSPost2010Prop49
280
     0
102
RTVSPost2010PropOp49
 70
     1
102
RTVSPost2010Prop50
 90
       50
102
RTVSPost2010PropOp50
 70
     1
102
RTVSPost2010Prop51ColorIndex
 90
      256
102
RTVSPost2010Prop51ColorRGB
 90
-16777216
102
RTVSPost2010PropOp51
 70
     0
102
RTVSPost2010Prop52
140
1.0
102
RTVSPost2010PropOp52
 70
     0
102
RTVSPost2010Prop53
 90
        2
102
RTVSPost2010PropOp53
 70
     1
102
RTVSPost2010Prop54
  1
strokes_ogs.tif
102
RTVSPost2010PropOp54
 70
     1
102
RTVSPost2010Prop55
280
     0
102
RTVSPost2010PropOp55
 70
     1
102
RTVSPost2010Prop56
140
1.0
102
RTVSPost2010PropOp56
 70
     1
102
RTVSPost2010Prop57
140
1.0
102
RTVSPost2010PropOp57
 70
     1
102
RTVSPropertyOp0
 70
     1
102
RTVSPropertyOp1
 70
     1
102
RTVSPropertyOp2
 70
     1
102
RTVSPropertyOp3
 70
     1
102
RTVSPropertyOp4
 70
     1
102
RTVSPropertyOp5
 70
     1
102
RTVSPropertyOp6
 70
     1
102
RTVSPropertyOp7
 70
     1
102
RTVSPropertyOp8
 70
     1
102
RTVSPropertyOp9
 70
     1
102
RTVSPropertyOp10
 70
     1
102
RTVSPropertyOp11
 70
     1
102
RTVSPropertyOp12
 70
     1
102
RTVSPropertyOp13
 70
     1
102
RTVSPropertyOp14
 70
     1
102
RTVSPropertyOp15
 70
     1
102
RTVSPropertyOp16
 70
     1
102
RTVSPropertyOp17
 70
     1
102
RTVSPropertyOp18
 70
     1
102
RTVSPropertyOp19
 70
     1
102
RTVSPropertyOp20
 70
     1
102
RTVSPropertyOp21
 70
     1
102
RTVSPropertyOp22
 70
     1
102
RTVSPropertyOp23
 70
     1
102
RTVSPropertyOp24
 70
     1
102
RTVSPropertyOp25
 70
     1
102
RTVSPropertyOp26
 70
     1
102
RTVSPropertyOp27
 70
     1
102
RTVSPropertyOp28
 70
     1
102
RTVSPropertyOp29
 70
     1
102
RTVSPropertyOp30
 70
     1
102
RTVSPropertyOp31
 70
     1
102
RTVSPropertyOp32
 70
     1
102
RTVSPropertyOp33
 70
     1
102
RTVSPropertyOp34
 70
     1
102
RTVSPropertyOp35
 70
     1
102
RTVSPropertyOp36
 70
     1
102
RTVSPropertyOp37
 70
     1
102
RTVSPropertyOp38
 70
     1
102
RTVSPropertyOp39
 70
     1
102
RTVSPropertyOp40
 70
     1
102
RTVSPropertyOp41
 70
     1
102
RTVSPropertyOp42
 70
     1
102
RTVSPropertyOp43
 70
     1
102
RTVSPropertyOp44
 70
     1
102
RTVSPropertyOp45
 70
     1
102
RTVSPropertyOp46
 70
     1
102
RTVSPropertyOp47
 70
     1
102
RTVSPropertyOp48
 70
     1
102
RTVSPropertyOp49
 70
     1
102
RTVSPropertyOp50
 70
     1
102
RTVSPropertyOp51
 70
     0
102
RTVSPropertyOp52
 70
     0
102
RTVSPropertyOp53
 70
     1
102
RTVSPropertyOp54
 70
     1
102
RTVSPropertyOp55
 70
     1
102
RTVSPropertyOp56
 70
     1
102
RTVSPropertyOp57
 70
     1
102
RTVSPropertyOp58
 70
     1
102
RTVSPropertyOp59
 70
     1
102
RTVSPropertyOp60
 70
     1
102
RTVSPropertyOp61
 70
     1
102
RTVSPropertyOp62
 70
     1
  0
XRECORD
  5
48E6
102
{ACAD_REACTORS
330
48E5
102
}
330
48E5
100
AcDbXrecord
280
     1
102
RTVSPost2010Prop28
280
     0
102
RTVSPost2010PropOp28
 70
     1
102
RTVSPost2010Prop29
280
     1
102
RTVSPost2010PropOp29
 70
     1
102
RTVSPost2010Prop30
280
     1
102
RTVSPost2010PropOp30
 70
     1
102
RTVSPost2010Prop31
280
     0
102
RTVSPost2010PropOp31
 70
     1
102
RTVSPost2010Prop32
280
     0
102
RTVSPost2010PropOp32
 70
     1
102
RTVSPost2010Prop33
280
     0
102
RTVSPost2010PropOp33
 70
     1
102
RTVSPost2010Prop34
280
     0
102
RTVSPost2010PropOp34
 70
     1
102
RTVSPost2010Prop35
280
     0
102
RTVSPost2010PropOp35
 70
     1
102
RTVSPost2010Prop36
280
     0
102
RTVSPost2010PropOp36
 70
     1
102
RTVSPost2010Prop37
 90
       50
102
RTVSPost2010PropOp37
 70
     1
102
RTVSPost2010Prop38
140
0.0
102
RTVSPost2010PropOp38
 70
     1
102
RTVSPost2010Prop39
140
1.0
102
RTVSPost2010PropOp39
 70
     1
102
RTVSPost2010Prop40
 90
        0
102
RTVSPost2010PropOp40
 70
     1
102
RTVSPost2010Prop41ColorIndex
 90
       18
102
RTVSPost2010Prop41ColorRGB
 90
        0
102
RTVSPost2010PropOp41
 70
     1
102
RTVSPost2010Prop42
 90
       50
102
RTVSPost2010PropOp42
 70
     1
102
RTVSPost2010Prop43
 90
        3
102
RTVSPost2010PropOp43
 70
     1
102
RTVSPost2010Prop44ColorIndex
 90
        5
102
RTVSPost2010Prop44ColorRGB
 90
      255
102
RTVSPost2010PropOp44
 70
     1
102
RTVSPost2010Prop45
280
     0
102
RTVSPost2010PropOp45
 70
     1
102
RTVSPost2010Prop46
 90
       50
102
RTVSPost2010PropOp46
 70
     1
102
RTVSPost2010Prop47
 90
       50
102
RTVSPost2010PropOp47
 70
     1
102
RTVSPost2010Prop48
 90
       50
102
RTVSPost2010PropOp48
 70
     1
102
RTVSPost2010Prop49
280
     0
102
RTVSPost2010PropOp49
 70
     1
102
RTVSPost2010Prop50
 90
       50
102
RTVSPost2010PropOp50
 70
     1
102
RTVSPost2010Prop51ColorIndex
 90
      256
102
RTVSPost2010Prop51ColorRGB
 90
-16777216
102
RTVSPost2010PropOp51
 70
     0
102
RTVSPost2010Prop52
140
1.0
102
RTVSPost2010PropOp52
 70
     0
102
RTVSPost2010Prop53
 90
        2
102
RTVSPost2010PropOp53
 70
     1
102
RTVSPost2010Prop54
  1
strokes_ogs.tif
102
RTVSPost2010PropOp54
 70
     1
102
RTVSPost2010Prop55
280
     0
102
RTVSPost2010PropOp55
 70
     1
102
RTVSPost2010Prop56
140
1.0
102
RTVSPost2010PropOp56
 70
     1
102
RTVSPost2010Prop57
140
1.0
102
RTVSPost2010PropOp57
 70
     1
102
RTVSPropertyOp0
 70
     1
102
RTVSPropertyOp1
 70
     1
102
RTVSPropertyOp2
 70
     1
102
RTVSPropertyOp3
 70
     1
102
RTVSPropertyOp4
 70
     1
102
RTVSPropertyOp5
 70
     1
102
RTVSPropertyOp6
 70
     1
102
RTVSPropertyOp7
 70
     1
102
RTVSPropertyOp8
 70
     1
102
RTVSPropertyOp9
 70
     1
102
RTVSPropertyOp10
 70
     1
102
RTVSPropertyOp11
 70
     1
102
RTVSPropertyOp12
 70
     1
102
RTVSPropertyOp13
 70
     1
102
RTVSPropertyOp14
 70
     1
102
RTVSPropertyOp15
 70
     1
102
RTVSPropertyOp16
 70
     1
102
RTVSPropertyOp17
 70
     1
102
RTVSPropertyOp18
 70
     1
102
RTVSPropertyOp19
 70
     1
102
RTVSPropertyOp20
 70
     1
102
RTVSPropertyOp21
 70
     1
102
RTVSPropertyOp22
 70
     1
102
RTVSPropertyOp23
 70
     1
102
RTVSPropertyOp24
 70
     1
102
RTVSPropertyOp25
 70
     1
102
RTVSPropertyOp26
 70
     1
102
RTVSPropertyOp27
 70
     1
102
RTVSPropertyOp28
 70
     1
102
RTVSPropertyOp29
 70
     1
102
RTVSPropertyOp30
 70
     1
102
RTVSPropertyOp31
 70
     1
102
RTVSPropertyOp32
 70
     1
102
RTVSPropertyOp33
 70
     1
102
RTVSPropertyOp34
 70
     1
102
RTVSPropertyOp35
 70
     1
102
RTVSPropertyOp36
 70
     1
102
RTVSPropertyOp37
 70
     1
102
RTVSPropertyOp38
 70
     1
102
RTVSPropertyOp39
 70
     1
102
RTVSPropertyOp40
 70
     1
102
RTVSPropertyOp41
 70
     1
102
RTVSPropertyOp42
 70
     1
102
RTVSPropertyOp43
 70
     1
102
RTVSPropertyOp44
 70
     1
102
RTVSPropertyOp45
 70
     1
102
RTVSPropertyOp46
 70
     1
102
RTVSPropertyOp47
 70
     1
102
RTVSPropertyOp48
 70
     1
102
RTVSPropertyOp49
 70
     1
102
RTVSPropertyOp50
 70
     1
102
RTVSPropertyOp51
 70
     0
102
RTVSPropertyOp52
 70
     0
102
RTVSPropertyOp53
 70
     1
102
RTVSPropertyOp54
 70
     1
102
RTVSPropertyOp55
 70
     1
102
RTVSPropertyOp56
 70
     1
102
RTVSPropertyOp57
 70
     1
102
RTVSPropertyOp58
 70
     1
102
RTVSPropertyOp59
 70
     1
102
RTVSPropertyOp60
 70
     1
102
RTVSPropertyOp61
 70
     1
102
RTVSPropertyOp62
 70
     1
  0
XRECORD
  5
48D8
102
{ACAD_REACTORS
330
48D7
102
}
330
48D7
100
AcDbXrecord
280
     1
102
RTVSPost2010Prop28
280
     0
102
RTVSPost2010PropOp28
 70
     1
102
RTVSPost2010Prop29
280
     1
102
RTVSPost2010PropOp29
 70
     1
102
RTVSPost2010Prop30
280
     1
102
RTVSPost2010PropOp30
 70
     1
102
RTVSPost2010Prop31
280
     0
102
RTVSPost2010PropOp31
 70
     1
102
RTVSPost2010Prop32
280
     0
102
RTVSPost2010PropOp32
 70
     1
102
RTVSPost2010Prop33
280
     0
102
RTVSPost2010PropOp33
 70
     1
102
RTVSPost2010Prop34
280
     0
102
RTVSPost2010PropOp34
 70
     1
102
RTVSPost2010Prop35
280
     0
102
RTVSPost2010PropOp35
 70
     1
102
RTVSPost2010Prop36
280
     0
102
RTVSPost2010PropOp36
 70
     1
102
RTVSPost2010Prop37
 90
       50
102
RTVSPost2010PropOp37
 70
     1
102
RTVSPost2010Prop38
140
0.0
102
RTVSPost2010PropOp38
 70
     1
102
RTVSPost2010Prop39
140
1.0
102
RTVSPost2010PropOp39
 70
     1
102
RTVSPost2010Prop40
 90
        0
102
RTVSPost2010PropOp40
 70
     1
102
RTVSPost2010Prop41ColorIndex
 90
       18
102
RTVSPost2010Prop41ColorRGB
 90
        0
102
RTVSPost2010PropOp41
 70
     1
102
RTVSPost2010Prop42
 90
       50
102
RTVSPost2010PropOp42
 70
     1
102
RTVSPost2010Prop43
 90
        3
102
RTVSPost2010PropOp43
 70
     1
102
RTVSPost2010Prop44ColorIndex
 90
        5
102
RTVSPost2010Prop44ColorRGB
 90
      255
102
RTVSPost2010PropOp44
 70
     1
102
RTVSPost2010Prop45
280
     0
102
RTVSPost2010PropOp45
 70
     1
102
RTVSPost2010Prop46
 90
       50
102
RTVSPost2010PropOp46
 70
     1
102
RTVSPost2010Prop47
 90
       50
102
RTVSPost2010PropOp47
 70
     1
102
RTVSPost2010Prop48
 90
       50
102
RTVSPost2010PropOp48
 70
     1
102
RTVSPost2010Prop49
280
     0
102
RTVSPost2010PropOp49
 70
     1
102
RTVSPost2010Prop50
 90
       50
102
RTVSPost2010PropOp50
 70
     1
102
RTVSPost2010Prop51ColorIndex
 90
      256
102
RTVSPost2010Prop51ColorRGB
 90
-16777216
102
RTVSPost2010PropOp51
 70
     0
102
RTVSPost2010Prop52
140
1.0
102
RTVSPost2010PropOp52
 70
     0
102
RTVSPost2010Prop53
 90
        2
102
RTVSPost2010PropOp53
 70
     1
102
RTVSPost2010Prop54
  1
strokes_ogs.tif
102
RTVSPost2010PropOp54
 70
     1
102
RTVSPost2010Prop55
280
     0
102
RTVSPost2010PropOp55
 70
     1
102
RTVSPost2010Prop56
140
1.0
102
RTVSPost2010PropOp56
 70
     1
102
RTVSPost2010Prop57
140
1.0
102
RTVSPost2010PropOp57
 70
     1
102
RTVSPropertyOp0
 70
     1
102
RTVSPropertyOp1
 70
     1
102
RTVSPropertyOp2
 70
     1
102
RTVSPropertyOp3
 70
     1
102
RTVSPropertyOp4
 70
     1
102
RTVSPropertyOp5
 70
     1
102
RTVSPropertyOp6
 70
     1
102
RTVSPropertyOp7
 70
     1
102
RTVSPropertyOp8
 70
     1
102
RTVSPropertyOp9
 70
     1
102
RTVSPropertyOp10
 70
     1
102
RTVSPropertyOp11
 70
     1
102
RTVSPropertyOp12
 70
     1
102
RTVSPropertyOp13
 70
     1
102
RTVSPropertyOp14
 70
     1
102
RTVSPropertyOp15
 70
     1
102
RTVSPropertyOp16
 70
     1
102
RTVSPropertyOp17
 70
     1
102
RTVSPropertyOp18
 70
     1
102
RTVSPropertyOp19
 70
     1
102
RTVSPropertyOp20
 70
     1
102
RTVSPropertyOp21
 70
     1
102
RTVSPropertyOp22
 70
     1
102
RTVSPropertyOp23
 70
     1
102
RTVSPropertyOp24
 70
     1
102
RTVSPropertyOp25
 70
     1
102
RTVSPropertyOp26
 70
     1
102
RTVSPropertyOp27
 70
     1
102
RTVSPropertyOp28
 70
     1
102
RTVSPropertyOp29
 70
     1
102
RTVSPropertyOp30
 70
     1
102
RTVSPropertyOp31
 70
     1
102
RTVSPropertyOp32
 70
     1
102
RTVSPropertyOp33
 70
     1
102
RTVSPropertyOp34
 70
     1
102
RTVSPropertyOp35
 70
     1
102
RTVSPropertyOp36
 70
     1
102
RTVSPropertyOp37
 70
     1
102
RTVSPropertyOp38
 70
     1
102
RTVSPropertyOp39
 70
     1
102
RTVSPropertyOp40
 70
     1
102
RTVSPropertyOp41
 70
     1
102
RTVSPropertyOp42
 70
     1
102
RTVSPropertyOp43
 70
     1
102
RTVSPropertyOp44
 70
     1
102
RTVSPropertyOp45
 70
     1
102
RTVSPropertyOp46
 70
     1
102
RTVSPropertyOp47
 70
     1
102
RTVSPropertyOp48
 70
     1
102
RTVSPropertyOp49
 70
     1
102
RTVSPropertyOp50
 70
     1
102
RTVSPropertyOp51
 70
     0
102
RTVSPropertyOp52
 70
     0
102
RTVSPropertyOp53
 70
     1
102
RTVSPropertyOp54
 70
     1
102
RTVSPropertyOp55
 70
     1
102
RTVSPropertyOp56
 70
     1
102
RTVSPropertyOp57
 70
     1
102
RTVSPropertyOp58
 70
     1
102
RTVSPropertyOp59
 70
     1
102
RTVSPropertyOp60
 70
     1
102
RTVSPropertyOp61
 70
     1
102
RTVSPropertyOp62
 70
     1
  0
XRECORD
  5
48DC
102
{ACAD_REACTORS
330
48DB
102
}
330
48DB
100
AcDbXrecord
280
     1
102
RTVSPost2010Prop28
280
     0
102
RTVSPost2010PropOp28
 70
     1
102
RTVSPost2010Prop29
280
     1
102
RTVSPost2010PropOp29
 70
     1
102
RTVSPost2010Prop30
280
     1
102
RTVSPost2010PropOp30
 70
     1
102
RTVSPost2010Prop31
280
     0
102
RTVSPost2010PropOp31
 70
     1
102
RTVSPost2010Prop32
280
     0
102
RTVSPost2010PropOp32
 70
     1
102
RTVSPost2010Prop33
280
     0
102
RTVSPost2010PropOp33
 70
     1
102
RTVSPost2010Prop34
280
     0
102
RTVSPost2010PropOp34
 70
     1
102
RTVSPost2010Prop35
280
     0
102
RTVSPost2010PropOp35
 70
     1
102
RTVSPost2010Prop36
280
     0
102
RTVSPost2010PropOp36
 70
     1
102
RTVSPost2010Prop37
 90
       50
102
RTVSPost2010PropOp37
 70
     1
102
RTVSPost2010Prop38
140
0.0
102
RTVSPost2010PropOp38
 70
     1
102
RTVSPost2010Prop39
140
1.0
102
RTVSPost2010PropOp39
 70
     1
102
RTVSPost2010Prop40
 90
        0
102
RTVSPost2010PropOp40
 70
     1
102
RTVSPost2010Prop41ColorIndex
 90
       18
102
RTVSPost2010Prop41ColorRGB
 90
        0
102
RTVSPost2010PropOp41
 70
     1
102
RTVSPost2010Prop42
 90
       50
102
RTVSPost2010PropOp42
 70
     1
102
RTVSPost2010Prop43
 90
        3
102
RTVSPost2010PropOp43
 70
     1
102
RTVSPost2010Prop44ColorIndex
 90
        5
102
RTVSPost2010Prop44ColorRGB
 90
      255
102
RTVSPost2010PropOp44
 70
     1
102
RTVSPost2010Prop45
280
     0
102
RTVSPost2010PropOp45
 70
     1
102
RTVSPost2010Prop46
 90
       50
102
RTVSPost2010PropOp46
 70
     1
102
RTVSPost2010Prop47
 90
       50
102
RTVSPost2010PropOp47
 70
     1
102
RTVSPost2010Prop48
 90
       50
102
RTVSPost2010PropOp48
 70
     1
102
RTVSPost2010Prop49
280
     0
102
RTVSPost2010PropOp49
 70
     1
102
RTVSPost2010Prop50
 90
       50
102
RTVSPost2010PropOp50
 70
     1
102
RTVSPost2010Prop51ColorIndex
 90
      256
102
RTVSPost2010Prop51ColorRGB
 90
-16777216
102
RTVSPost2010PropOp51
 70
     0
102
RTVSPost2010Prop52
140
1.0
102
RTVSPost2010PropOp52
 70
     0
102
RTVSPost2010Prop53
 90
        2
102
RTVSPost2010PropOp53
 70
     1
102
RTVSPost2010Prop54
  1
strokes_ogs.tif
102
RTVSPost2010PropOp54
 70
     1
102
RTVSPost2010Prop55
280
     0
102
RTVSPost2010PropOp55
 70
     1
102
RTVSPost2010Prop56
140
1.0
102
RTVSPost2010PropOp56
 70
     1
102
RTVSPost2010Prop57
140
1.0
102
RTVSPost2010PropOp57
 70
     1
102
RTVSPropertyOp0
 70
     1
102
RTVSPropertyOp1
 70
     1
102
RTVSPropertyOp2
 70
     1
102
RTVSPropertyOp3
 70
     1
102
RTVSPropertyOp4
 70
     1
102
RTVSPropertyOp5
 70
     1
102
RTVSPropertyOp6
 70
     1
102
RTVSPropertyOp7
 70
     1
102
RTVSPropertyOp8
 70
     1
102
RTVSPropertyOp9
 70
     1
102
RTVSPropertyOp10
 70
     1
102
RTVSPropertyOp11
 70
     1
102
RTVSPropertyOp12
 70
     1
102
RTVSPropertyOp13
 70
     1
102
RTVSPropertyOp14
 70
     1
102
RTVSPropertyOp15
 70
     1
102
RTVSPropertyOp16
 70
     1
102
RTVSPropertyOp17
 70
     1
102
RTVSPropertyOp18
 70
     1
102
RTVSPropertyOp19
 70
     1
102
RTVSPropertyOp20
 70
     1
102
RTVSPropertyOp21
 70
     1
102
RTVSPropertyOp22
 70
     1
102
RTVSPropertyOp23
 70
     1
102
RTVSPropertyOp24
 70
     1
102
RTVSPropertyOp25
 70
     1
102
RTVSPropertyOp26
 70
     1
102
RTVSPropertyOp27
 70
     1
102
RTVSPropertyOp28
 70
     1
102
RTVSPropertyOp29
 70
     1
102
RTVSPropertyOp30
 70
     1
102
RTVSPropertyOp31
 70
     1
102
RTVSPropertyOp32
 70
     1
102
RTVSPropertyOp33
 70
     1
102
RTVSPropertyOp34
 70
     1
102
RTVSPropertyOp35
 70
     1
102
RTVSPropertyOp36
 70
     1
102
RTVSPropertyOp37
 70
     1
102
RTVSPropertyOp38
 70
     1
102
RTVSPropertyOp39
 70
     1
102
RTVSPropertyOp40
 70
     1
102
RTVSPropertyOp41
 70
     1
102
RTVSPropertyOp42
 70
     1
102
RTVSPropertyOp43
 70
     1
102
RTVSPropertyOp44
 70
     1
102
RTVSPropertyOp45
 70
     1
102
RTVSPropertyOp46
 70
     1
102
RTVSPropertyOp47
 70
     1
102
RTVSPropertyOp48
 70
     1
102
RTVSPropertyOp49
 70
     1
102
RTVSPropertyOp50
 70
     1
102
RTVSPropertyOp51
 70
     0
102
RTVSPropertyOp52
 70
     0
102
RTVSPropertyOp53
 70
     1
102
RTVSPropertyOp54
 70
     1
102
RTVSPropertyOp55
 70
     1
102
RTVSPropertyOp56
 70
     1
102
RTVSPropertyOp57
 70
     1
102
RTVSPropertyOp58
 70
     1
102
RTVSPropertyOp59
 70
     1
102
RTVSPropertyOp60
 70
     1
102
RTVSPropertyOp61
 70
     1
102
RTVSPropertyOp62
 70
     1
  0
XRECORD
  5
48F6
102
{ACAD_REACTORS
330
48F5
102
}
330
48F5
100
AcDbXrecord
280
     1
102
RTVSPost2010Prop28
280
     0
102
RTVSPost2010PropOp28
 70
     0
102
RTVSPost2010Prop29
280
     1
102
RTVSPost2010PropOp29
 70
     0
102
RTVSPost2010Prop30
280
     1
102
RTVSPost2010PropOp30
 70
     0
102
RTVSPost2010Prop31
280
     0
102
RTVSPost2010PropOp31
 70
     0
102
RTVSPost2010Prop32
280
     0
102
RTVSPost2010PropOp32
 70
     0
102
RTVSPost2010Prop33
280
     0
102
RTVSPost2010PropOp33
 70
     0
102
RTVSPost2010Prop34
280
     0
102
RTVSPost2010PropOp34
 70
     0
102
RTVSPost2010Prop35
280
     0
102
RTVSPost2010PropOp35
 70
     0
102
RTVSPost2010Prop36
280
     0
102
RTVSPost2010PropOp36
 70
     0
102
RTVSPost2010Prop37
 90
       50
102
RTVSPost2010PropOp37
 70
     0
102
RTVSPost2010Prop38
140
0.0
102
RTVSPost2010PropOp38
 70
     0
102
RTVSPost2010Prop39
140
1.0
102
RTVSPost2010PropOp39
 70
     0
102
RTVSPost2010Prop40
 90
        0
102
RTVSPost2010PropOp40
 70
     0
102
RTVSPost2010Prop41ColorIndex
 90
       18
102
RTVSPost2010Prop41ColorRGB
 90
        0
102
RTVSPost2010PropOp41
 70
     0
102
RTVSPost2010Prop42
 90
       50
102
RTVSPost2010PropOp42
 70
     0
102
RTVSPost2010Prop43
 90
        3
102
RTVSPost2010PropOp43
 70
     0
102
RTVSPost2010Prop44ColorIndex
 90
        5
102
RTVSPost2010Prop44ColorRGB
 90
      255
102
RTVSPost2010PropOp44
 70
     0
102
RTVSPost2010Prop45
280
     0
102
RTVSPost2010PropOp45
 70
     0
102
RTVSPost2010Prop46
 90
       50
102
RTVSPost2010PropOp46
 70
     0
102
RTVSPost2010Prop47
 90
       50
102
RTVSPost2010PropOp47
 70
     0
102
RTVSPost2010Prop48
 90
       50
102
RTVSPost2010PropOp48
 70
     0
102
RTVSPost2010Prop49
280
     0
102
RTVSPost2010PropOp49
 70
     0
102
RTVSPost2010Prop50
 90
       50
102
RTVSPost2010PropOp50
 70
     0
102
RTVSPost2010Prop51ColorIndex
 90
      256
102
RTVSPost2010Prop51ColorRGB
 90
-16777216
102
RTVSPost2010PropOp51
 70
     0
102
RTVSPost2010Prop52
140
1.0
102
RTVSPost2010PropOp52
 70
     0
102
RTVSPost2010Prop53
 90
        2
102
RTVSPost2010PropOp53
 70
     0
102
RTVSPost2010Prop54
  1
strokes_ogs.tif
102
RTVSPost2010PropOp54
 70
     0
102
RTVSPost2010Prop55
280
     0
102
RTVSPost2010PropOp55
 70
     0
102
RTVSPost2010Prop56
140
1.0
102
RTVSPost2010PropOp56
 70
     0
102
RTVSPost2010Prop57
140
1.0
102
RTVSPost2010PropOp57
 70
     0
102
RTVSPropertyOp0
 70
     0
102
RTVSPropertyOp1
 70
     0
102
RTVSPropertyOp2
 70
     0
102
RTVSPropertyOp3
 70
     0
102
RTVSPropertyOp4
 70
     0
102
RTVSPropertyOp5
 70
     0
102
RTVSPropertyOp6
 70
     0
102
RTVSPropertyOp7
 70
     0
102
RTVSPropertyOp8
 70
     0
102
RTVSPropertyOp9
 70
     0
102
RTVSPropertyOp10
 70
     0
102
RTVSPropertyOp11
 70
     0
102
RTVSPropertyOp12
 70
     0
102
RTVSPropertyOp13
 70
     0
102
RTVSPropertyOp14
 70
     2
102
RTVSPropertyOp15
 70
     0
102
RTVSPropertyOp16
 70
     0
102
RTVSPropertyOp17
 70
     0
102
RTVSPropertyOp18
 70
     0
102
RTVSPropertyOp19
 70
     0
102
RTVSPropertyOp20
 70
     0
102
RTVSPropertyOp21
 70
     0
102
RTVSPropertyOp22
 70
     0
102
RTVSPropertyOp23
 70
     0
102
RTVSPropertyOp24
 70
     0
102
RTVSPropertyOp25
 70
     0
102
RTVSPropertyOp26
 70
     0
102
RTVSPropertyOp27
 70
     0
102
RTVSPropertyOp28
 70
     0
102
RTVSPropertyOp29
 70
     0
102
RTVSPropertyOp30
 70
     0
102
RTVSPropertyOp31
 70
     0
102
RTVSPropertyOp32
 70
     0
102
RTVSPropertyOp33
 70
     0
102
RTVSPropertyOp34
 70
     0
102
RTVSPropertyOp35
 70
     0
102
RTVSPropertyOp36
 70
     0
102
RTVSPropertyOp37
 70
     0
102
RTVSPropertyOp38
 70
     0
102
RTVSPropertyOp39
 70
     0
102
RTVSPropertyOp40
 70
     0
102
RTVSPropertyOp41
 70
     0
102
RTVSPropertyOp42
 70
     0
102
RTVSPropertyOp43
 70
     0
102
RTVSPropertyOp44
 70
     0
102
RTVSPropertyOp45
 70
     0
102
RTVSPropertyOp46
 70
     0
102
RTVSPropertyOp47
 70
     0
102
RTVSPropertyOp48
 70
     0
102
RTVSPropertyOp49
 70
     0
102
RTVSPropertyOp50
 70
     0
102
RTVSPropertyOp51
 70
     0
102
RTVSPropertyOp52
 70
     0
102
RTVSPropertyOp53
 70
     0
102
RTVSPropertyOp54
 70
     0
102
RTVSPropertyOp55
 70
     0
102
RTVSPropertyOp56
 70
     0
102
RTVSPropertyOp57
 70
     0
102
RTVSPropertyOp58
 70
     1
102
RTVSPropertyOp59
 70
     1
102
RTVSPropertyOp60
 70
     1
102
RTVSPropertyOp61
 70
     1
102
RTVSPropertyOp62
 70
     1
  0
XRECORD
  5
48E4
102
{ACAD_REACTORS
330
48E3
102
}
330
48E3
100
AcDbXrecord
280
     1
102
RTVSPost2010Prop28
280
     0
102
RTVSPost2010PropOp28
 70
     1
102
RTVSPost2010Prop29
280
     1
102
RTVSPost2010PropOp29
 70
     1
102
RTVSPost2010Prop30
280
     1
102
RTVSPost2010PropOp30
 70
     1
102
RTVSPost2010Prop31
280
     0
102
RTVSPost2010PropOp31
 70
     1
102
RTVSPost2010Prop32
280
     0
102
RTVSPost2010PropOp32
 70
     1
102
RTVSPost2010Prop33
280
     0
102
RTVSPost2010PropOp33
 70
     1
102
RTVSPost2010Prop34
280
     0
102
RTVSPost2010PropOp34
 70
     1
102
RTVSPost2010Prop35
280
     0
102
RTVSPost2010PropOp35
 70
     1
102
RTVSPost2010Prop36
280
     0
102
RTVSPost2010PropOp36
 70
     1
102
RTVSPost2010Prop37
 90
       50
102
RTVSPost2010PropOp37
 70
     1
102
RTVSPost2010Prop38
140
0.0
102
RTVSPost2010PropOp38
 70
     1
102
RTVSPost2010Prop39
140
1.0
102
RTVSPost2010PropOp39
 70
     1
102
RTVSPost2010Prop40
 90
        0
102
RTVSPost2010PropOp40
 70
     1
102
RTVSPost2010Prop41ColorIndex
 90
       18
102
RTVSPost2010Prop41ColorRGB
 90
        0
102
RTVSPost2010PropOp41
 70
     1
102
RTVSPost2010Prop42
 90
       50
102
RTVSPost2010PropOp42
 70
     1
102
RTVSPost2010Prop43
 90
        3
102
RTVSPost2010PropOp43
 70
     1
102
RTVSPost2010Prop44ColorIndex
 90
        5
102
RTVSPost2010Prop44ColorRGB
 90
      255
102
RTVSPost2010PropOp44
 70
     1
102
RTVSPost2010Prop45
280
     0
102
RTVSPost2010PropOp45
 70
     1
102
RTVSPost2010Prop46
 90
       50
102
RTVSPost2010PropOp46
 70
     1
102
RTVSPost2010Prop47
 90
       50
102
RTVSPost2010PropOp47
 70
     1
102
RTVSPost2010Prop48
 90
       50
102
RTVSPost2010PropOp48
 70
     1
102
RTVSPost2010Prop49
280
     0
102
RTVSPost2010PropOp49
 70
     1
102
RTVSPost2010Prop50
 90
       50
102
RTVSPost2010PropOp50
 70
     1
102
RTVSPost2010Prop51ColorIndex
 90
      256
102
RTVSPost2010Prop51ColorRGB
 90
-16777216
102
RTVSPost2010PropOp51
 70
     0
102
RTVSPost2010Prop52
140
1.0
102
RTVSPost2010PropOp52
 70
     0
102
RTVSPost2010Prop53
 90
        2
102
RTVSPost2010PropOp53
 70
     1
102
RTVSPost2010Prop54
  1
strokes_ogs.tif
102
RTVSPost2010PropOp54
 70
     1
102
RTVSPost2010Prop55
280
     0
102
RTVSPost2010PropOp55
 70
     1
102
RTVSPost2010Prop56
140
1.0
102
RTVSPost2010PropOp56
 70
     1
102
RTVSPost2010Prop57
140
1.0
102
RTVSPost2010PropOp57
 70
     1
102
RTVSPropertyOp0
 70
     1
102
RTVSPropertyOp1
 70
     1
102
RTVSPropertyOp2
 70
     1
102
RTVSPropertyOp3
 70
     1
102
RTVSPropertyOp4
 70
     1
102
RTVSPropertyOp5
 70
     1
102
RTVSPropertyOp6
 70
     1
102
RTVSPropertyOp7
 70
     1
102
RTVSPropertyOp8
 70
     1
102
RTVSPropertyOp9
 70
     1
102
RTVSPropertyOp10
 70
     1
102
RTVSPropertyOp11
 70
     1
102
RTVSPropertyOp12
 70
     1
102
RTVSPropertyOp13
 70
     1
102
RTVSPropertyOp14
 70
     1
102
RTVSPropertyOp15
 70
     1
102
RTVSPropertyOp16
 70
     1
102
RTVSPropertyOp17
 70
     1
102
RTVSPropertyOp18
 70
     1
102
RTVSPropertyOp19
 70
     1
102
RTVSPropertyOp20
 70
     1
102
RTVSPropertyOp21
 70
     1
102
RTVSPropertyOp22
 70
     1
102
RTVSPropertyOp23
 70
     1
102
RTVSPropertyOp24
 70
     1
102
RTVSPropertyOp25
 70
     1
102
RTVSPropertyOp26
 70
     1
102
RTVSPropertyOp27
 70
     1
102
RTVSPropertyOp28
 70
     1
102
RTVSPropertyOp29
 70
     1
102
RTVSPropertyOp30
 70
     1
102
RTVSPropertyOp31
 70
     1
102
RTVSPropertyOp32
 70
     1
102
RTVSPropertyOp33
 70
     1
102
RTVSPropertyOp34
 70
     1
102
RTVSPropertyOp35
 70
     1
102
RTVSPropertyOp36
 70
     1
102
RTVSPropertyOp37
 70
     1
102
RTVSPropertyOp38
 70
     1
102
RTVSPropertyOp39
 70
     1
102
RTVSPropertyOp40
 70
     1
102
RTVSPropertyOp41
 70
     1
102
RTVSPropertyOp42
 70
     1
102
RTVSPropertyOp43
 70
     1
102
RTVSPropertyOp44
 70
     1
102
RTVSPropertyOp45
 70
     1
102
RTVSPropertyOp46
 70
     1
102
RTVSPropertyOp47
 70
     1
102
RTVSPropertyOp48
 70
     1
102
RTVSPropertyOp49
 70
     1
102
RTVSPropertyOp50
 70
     1
102
RTVSPropertyOp51
 70
     0
102
RTVSPropertyOp52
 70
     0
102
RTVSPropertyOp53
 70
     1
102
RTVSPropertyOp54
 70
     1
102
RTVSPropertyOp55
 70
     1
102
RTVSPropertyOp56
 70
     1
102
RTVSPropertyOp57
 70
     1
102
RTVSPropertyOp58
 70
     1
102
RTVSPropertyOp59
 70
     1
102
RTVSPropertyOp60
 70
     1
102
RTVSPropertyOp61
 70
     1
102
RTVSPropertyOp62
 70
     1
  0
XRECORD
  5
48C8
102
{ACAD_REACTORS
330
48C7
102
}
330
48C7
100
AcDbXrecord
280
     1
102
RTVSPost2010Prop28
280
     0
102
RTVSPost2010PropOp28
 70
     1
102
RTVSPost2010Prop29
280
     1
102
RTVSPost2010PropOp29
 70
     1
102
RTVSPost2010Prop30
280
     1
102
RTVSPost2010PropOp30
 70
     1
102
RTVSPost2010Prop31
280
     0
102
RTVSPost2010PropOp31
 70
     1
102
RTVSPost2010Prop32
280
     0
102
RTVSPost2010PropOp32
 70
     1
102
RTVSPost2010Prop33
280
     0
102
RTVSPost2010PropOp33
 70
     1
102
RTVSPost2010Prop34
280
     0
102
RTVSPost2010PropOp34
 70
     1
102
RTVSPost2010Prop35
280
     0
102
RTVSPost2010PropOp35
 70
     1
102
RTVSPost2010Prop36
280
     0
102
RTVSPost2010PropOp36
 70
     1
102
RTVSPost2010Prop37
 90
       50
102
RTVSPost2010PropOp37
 70
     1
102
RTVSPost2010Prop38
140
0.0
102
RTVSPost2010PropOp38
 70
     1
102
RTVSPost2010Prop39
140
1.0
102
RTVSPost2010PropOp39
 70
     1
102
RTVSPost2010Prop40
 90
        0
102
RTVSPost2010PropOp40
 70
     1
102
RTVSPost2010Prop41ColorIndex
 90
       18
102
RTVSPost2010Prop41ColorRGB
 90
        0
102
RTVSPost2010PropOp41
 70
     1
102
RTVSPost2010Prop42
 90
       50
102
RTVSPost2010PropOp42
 70
     1
102
RTVSPost2010Prop43
 90
        3
102
RTVSPost2010PropOp43
 70
     1
102
RTVSPost2010Prop44ColorIndex
 90
        5
102
RTVSPost2010Prop44ColorRGB
 90
      255
102
RTVSPost2010PropOp44
 70
     1
102
RTVSPost2010Prop45
280
     0
102
RTVSPost2010PropOp45
 70
     1
102
RTVSPost2010Prop46
 90
       50
102
RTVSPost2010PropOp46
 70
     1
102
RTVSPost2010Prop47
 90
       50
102
RTVSPost2010PropOp47
 70
     1
102
RTVSPost2010Prop48
 90
       50
102
RTVSPost2010PropOp48
 70
     1
102
RTVSPost2010Prop49
280
     0
102
RTVSPost2010PropOp49
 70
     1
102
RTVSPost2010Prop50
 90
       50
102
RTVSPost2010PropOp50
 70
     1
102
RTVSPost2010Prop51ColorIndex
 90
      256
102
RTVSPost2010Prop51ColorRGB
 90
-16777216
102
RTVSPost2010PropOp51
 70
     0
102
RTVSPost2010Prop52
140
1.0
102
RTVSPost2010PropOp52
 70
     0
102
RTVSPost2010Prop53
 90
        2
102
RTVSPost2010PropOp53
 70
     1
102
RTVSPost2010Prop54
  1
strokes_ogs.tif
102
RTVSPost2010PropOp54
 70
     1
102
RTVSPost2010Prop55
280
     0
102
RTVSPost2010PropOp55
 70
     1
102
RTVSPost2010Prop56
140
1.0
102
RTVSPost2010PropOp56
 70
     1
102
RTVSPost2010Prop57
140
1.0
102
RTVSPost2010PropOp57
 70
     1
102
RTVSPropertyOp0
 70
     1
102
RTVSPropertyOp1
 70
     1
102
RTVSPropertyOp2
 70
     1
102
RTVSPropertyOp3
 70
     1
102
RTVSPropertyOp4
 70
     1
102
RTVSPropertyOp5
 70
     1
102
RTVSPropertyOp6
 70
     1
102
RTVSPropertyOp7
 70
     1
102
RTVSPropertyOp8
 70
     1
102
RTVSPropertyOp9
 70
     1
102
RTVSPropertyOp10
 70
     1
102
RTVSPropertyOp11
 70
     1
102
RTVSPropertyOp12
 70
     1
102
RTVSPropertyOp13
 70
     1
102
RTVSPropertyOp14
 70
     1
102
RTVSPropertyOp15
 70
     1
102
RTVSPropertyOp16
 70
     1
102
RTVSPropertyOp17
 70
     1
102
RTVSPropertyOp18
 70
     1
102
RTVSPropertyOp19
 70
     1
102
RTVSPropertyOp20
 70
     1
102
RTVSPropertyOp21
 70
     1
102
RTVSPropertyOp22
 70
     1
102
RTVSPropertyOp23
 70
     1
102
RTVSPropertyOp24
 70
     1
102
RTVSPropertyOp25
 70
     1
102
RTVSPropertyOp26
 70
     1
102
RTVSPropertyOp27
 70
     1
102
RTVSPropertyOp28
 70
     1
102
RTVSPropertyOp29
 70
     1
102
RTVSPropertyOp30
 70
     1
102
RTVSPropertyOp31
 70
     1
102
RTVSPropertyOp32
 70
     1
102
RTVSPropertyOp33
 70
     1
102
RTVSPropertyOp34
 70
     1
102
RTVSPropertyOp35
 70
     1
102
RTVSPropertyOp36
 70
     1
102
RTVSPropertyOp37
 70
     1
102
RTVSPropertyOp38
 70
     1
102
RTVSPropertyOp39
 70
     1
102
RTVSPropertyOp40
 70
     1
102
RTVSPropertyOp41
 70
     1
102
RTVSPropertyOp42
 70
     1
102
RTVSPropertyOp43
 70
     1
102
RTVSPropertyOp44
 70
     1
102
RTVSPropertyOp45
 70
     1
102
RTVSPropertyOp46
 70
     1
102
RTVSPropertyOp47
 70
     1
102
RTVSPropertyOp48
 70
     1
102
RTVSPropertyOp49
 70
     1
102
RTVSPropertyOp50
 70
     1
102
RTVSPropertyOp51
 70
     0
102
RTVSPropertyOp52
 70
     0
102
RTVSPropertyOp53
 70
     1
102
RTVSPropertyOp54
 70
     1
102
RTVSPropertyOp55
 70
     1
102
RTVSPropertyOp56
 70
     1
102
RTVSPropertyOp57
 70
     1
102
RTVSPropertyOp58
 70
     1
102
RTVSPropertyOp59
 70
     1
102
RTVSPropertyOp60
 70
     1
102
RTVSPropertyOp61
 70
     1
102
RTVSPropertyOp62
 70
     1
  0
XRECORD
  5
48CA
102
{ACAD_REACTORS
330
48C9
102
}
330
48C9
100
AcDbXrecord
280
     1
102
RTVSPost2010Prop28
280
     0
102
RTVSPost2010PropOp28
 70
     1
102
RTVSPost2010Prop29
280
     1
102
RTVSPost2010PropOp29
 70
     1
102
RTVSPost2010Prop30
280
     1
102
RTVSPost2010PropOp30
 70
     1
102
RTVSPost2010Prop31
280
     0
102
RTVSPost2010PropOp31
 70
     1
102
RTVSPost2010Prop32
280
     0
102
RTVSPost2010PropOp32
 70
     1
102
RTVSPost2010Prop33
280
     0
102
RTVSPost2010PropOp33
 70
     1
102
RTVSPost2010Prop34
280
     0
102
RTVSPost2010PropOp34
 70
     1
102
RTVSPost2010Prop35
280
     0
102
RTVSPost2010PropOp35
 70
     1
102
RTVSPost2010Prop36
280
     0
102
RTVSPost2010PropOp36
 70
     1
102
RTVSPost2010Prop37
 90
       50
102
RTVSPost2010PropOp37
 70
     1
102
RTVSPost2010Prop38
140
0.0
102
RTVSPost2010PropOp38
 70
     1
102
RTVSPost2010Prop39
140
1.0
102
RTVSPost2010PropOp39
 70
     1
102
RTVSPost2010Prop40
 90
        0
102
RTVSPost2010PropOp40
 70
     1
102
RTVSPost2010Prop41ColorIndex
 90
       18
102
RTVSPost2010Prop41ColorRGB
 90
        0
102
RTVSPost2010PropOp41
 70
     1
102
RTVSPost2010Prop42
 90
       50
102
RTVSPost2010PropOp42
 70
     1
102
RTVSPost2010Prop43
 90
        3
102
RTVSPost2010PropOp43
 70
     1
102
RTVSPost2010Prop44ColorIndex
 90
        5
102
RTVSPost2010Prop44ColorRGB
 90
      255
102
RTVSPost2010PropOp44
 70
     1
102
RTVSPost2010Prop45
280
     0
102
RTVSPost2010PropOp45
 70
     1
102
RTVSPost2010Prop46
 90
       50
102
RTVSPost2010PropOp46
 70
     1
102
RTVSPost2010Prop47
 90
       50
102
RTVSPost2010PropOp47
 70
     1
102
RTVSPost2010Prop48
 90
       50
102
RTVSPost2010PropOp48
 70
     1
102
RTVSPost2010Prop49
280
     0
102
RTVSPost2010PropOp49
 70
     1
102
RTVSPost2010Prop50
 90
       50
102
RTVSPost2010PropOp50
 70
     1
102
RTVSPost2010Prop51ColorIndex
 90
      256
102
RTVSPost2010Prop51ColorRGB
 90
-16777216
102
RTVSPost2010PropOp51
 70
     0
102
RTVSPost2010Prop52
140
1.0
102
RTVSPost2010PropOp52
 70
     0
102
RTVSPost2010Prop53
 90
        2
102
RTVSPost2010PropOp53
 70
     1
102
RTVSPost2010Prop54
  1
strokes_ogs.tif
102
RTVSPost2010PropOp54
 70
     1
102
RTVSPost2010Prop55
280
     0
102
RTVSPost2010PropOp55
 70
     1
102
RTVSPost2010Prop56
140
1.0
102
RTVSPost2010PropOp56
 70
     1
102
RTVSPost2010Prop57
140
1.0
102
RTVSPost2010PropOp57
 70
     1
102
RTVSPropertyOp0
 70
     1
102
RTVSPropertyOp1
 70
     1
102
RTVSPropertyOp2
 70
     1
102
RTVSPropertyOp3
 70
     1
102
RTVSPropertyOp4
 70
     1
102
RTVSPropertyOp5
 70
     1
102
RTVSPropertyOp6
 70
     1
102
RTVSPropertyOp7
 70
     1
102
RTVSPropertyOp8
 70
     1
102
RTVSPropertyOp9
 70
     1
102
RTVSPropertyOp10
 70
     1
102
RTVSPropertyOp11
 70
     1
102
RTVSPropertyOp12
 70
     1
102
RTVSPropertyOp13
 70
     1
102
RTVSPropertyOp14
 70
     1
102
RTVSPropertyOp15
 70
     1
102
RTVSPropertyOp16
 70
     1
102
RTVSPropertyOp17
 70
     1
102
RTVSPropertyOp18
 70
     1
102
RTVSPropertyOp19
 70
     1
102
RTVSPropertyOp20
 70
     1
102
RTVSPropertyOp21
 70
     1
102
RTVSPropertyOp22
 70
     1
102
RTVSPropertyOp23
 70
     1
102
RTVSPropertyOp24
 70
     1
102
RTVSPropertyOp25
 70
     1
102
RTVSPropertyOp26
 70
     1
102
RTVSPropertyOp27
 70
     1
102
RTVSPropertyOp28
 70
     1
102
RTVSPropertyOp29
 70
     1
102
RTVSPropertyOp30
 70
     1
102
RTVSPropertyOp31
 70
     1
102
RTVSPropertyOp32
 70
     1
102
RTVSPropertyOp33
 70
     1
102
RTVSPropertyOp34
 70
     1
102
RTVSPropertyOp35
 70
     1
102
RTVSPropertyOp36
 70
     1
102
RTVSPropertyOp37
 70
     1
102
RTVSPropertyOp38
 70
     1
102
RTVSPropertyOp39
 70
     1
102
RTVSPropertyOp40
 70
     1
102
RTVSPropertyOp41
 70
     1
102
RTVSPropertyOp42
 70
     1
102
RTVSPropertyOp43
 70
     1
102
RTVSPropertyOp44
 70
     1
102
RTVSPropertyOp45
 70
     1
102
RTVSPropertyOp46
 70
     1
102
RTVSPropertyOp47
 70
     1
102
RTVSPropertyOp48
 70
     1
102
RTVSPropertyOp49
 70
     1
102
RTVSPropertyOp50
 70
     1
102
RTVSPropertyOp51
 70
     0
102
RTVSPropertyOp52
 70
     0
102
RTVSPropertyOp53
 70
     1
102
RTVSPropertyOp54
 70
     1
102
RTVSPropertyOp55
 70
     1
102
RTVSPropertyOp56
 70
     1
102
RTVSPropertyOp57
 70
     1
102
RTVSPropertyOp58
 70
     1
102
RTVSPropertyOp59
 70
     1
102
RTVSPropertyOp60
 70
     1
102
RTVSPropertyOp61
 70
     1
102
RTVSPropertyOp62
 70
     1
  0
XRECORD
  5
48CC
102
{ACAD_REACTORS
330
48CB
102
}
330
48CB
100
AcDbXrecord
280
     1
102
RTVSPost2010Prop28
280
     0
102
RTVSPost2010PropOp28
 70
     1
102
RTVSPost2010Prop29
280
     1
102
RTVSPost2010PropOp29
 70
     1
102
RTVSPost2010Prop30
280
     1
102
RTVSPost2010PropOp30
 70
     1
102
RTVSPost2010Prop31
280
     0
102
RTVSPost2010PropOp31
 70
     1
102
RTVSPost2010Prop32
280
     0
102
RTVSPost2010PropOp32
 70
     1
102
RTVSPost2010Prop33
280
     0
102
RTVSPost2010PropOp33
 70
     1
102
RTVSPost2010Prop34
280
     0
102
RTVSPost2010PropOp34
 70
     1
102
RTVSPost2010Prop35
280
     0
102
RTVSPost2010PropOp35
 70
     1
102
RTVSPost2010Prop36
280
     0
102
RTVSPost2010PropOp36
 70
     1
102
RTVSPost2010Prop37
 90
       50
102
RTVSPost2010PropOp37
 70
     1
102
RTVSPost2010Prop38
140
0.0
102
RTVSPost2010PropOp38
 70
     1
102
RTVSPost2010Prop39
140
1.0
102
RTVSPost2010PropOp39
 70
     1
102
RTVSPost2010Prop40
 90
        0
102
RTVSPost2010PropOp40
 70
     1
102
RTVSPost2010Prop41ColorIndex
 90
       18
102
RTVSPost2010Prop41ColorRGB
 90
        0
102
RTVSPost2010PropOp41
 70
     1
102
RTVSPost2010Prop42
 90
       50
102
RTVSPost2010PropOp42
 70
     1
102
RTVSPost2010Prop43
 90
        3
102
RTVSPost2010PropOp43
 70
     1
102
RTVSPost2010Prop44ColorIndex
 90
        5
102
RTVSPost2010Prop44ColorRGB
 90
      255
102
RTVSPost2010PropOp44
 70
     1
102
RTVSPost2010Prop45
280
     0
102
RTVSPost2010PropOp45
 70
     1
102
RTVSPost2010Prop46
 90
       50
102
RTVSPost2010PropOp46
 70
     1
102
RTVSPost2010Prop47
 90
       50
102
RTVSPost2010PropOp47
 70
     1
102
RTVSPost2010Prop48
 90
       50
102
RTVSPost2010PropOp48
 70
     1
102
RTVSPost2010Prop49
280
     0
102
RTVSPost2010PropOp49
 70
     1
102
RTVSPost2010Prop50
 90
       50
102
RTVSPost2010PropOp50
 70
     1
102
RTVSPost2010Prop51ColorIndex
 90
      256
102
RTVSPost2010Prop51ColorRGB
 90
-16777216
102
RTVSPost2010PropOp51
 70
     0
102
RTVSPost2010Prop52
140
1.0
102
RTVSPost2010PropOp52
 70
     0
102
RTVSPost2010Prop53
 90
        2
102
RTVSPost2010PropOp53
 70
     1
102
RTVSPost2010Prop54
  1
strokes_ogs.tif
102
RTVSPost2010PropOp54
 70
     1
102
RTVSPost2010Prop55
280
     0
102
RTVSPost2010PropOp55
 70
     1
102
RTVSPost2010Prop56
140
1.0
102
RTVSPost2010PropOp56
 70
     1
102
RTVSPost2010Prop57
140
1.0
102
RTVSPost2010PropOp57
 70
     1
102
RTVSPropertyOp0
 70
     1
102
RTVSPropertyOp1
 70
     1
102
RTVSPropertyOp2
 70
     1
102
RTVSPropertyOp3
 70
     1
102
RTVSPropertyOp4
 70
     1
102
RTVSPropertyOp5
 70
     1
102
RTVSPropertyOp6
 70
     1
102
RTVSPropertyOp7
 70
     1
102
RTVSPropertyOp8
 70
     1
102
RTVSPropertyOp9
 70
     1
102
RTVSPropertyOp10
 70
     1
102
RTVSPropertyOp11
 70
     1
102
RTVSPropertyOp12
 70
     1
102
RTVSPropertyOp13
 70
     1
102
RTVSPropertyOp14
 70
     1
102
RTVSPropertyOp15
 70
     1
102
RTVSPropertyOp16
 70
     1
102
RTVSPropertyOp17
 70
     1
102
RTVSPropertyOp18
 70
     1
102
RTVSPropertyOp19
 70
     1
102
RTVSPropertyOp20
 70
     1
102
RTVSPropertyOp21
 70
     1
102
RTVSPropertyOp22
 70
     1
102
RTVSPropertyOp23
 70
     1
102
RTVSPropertyOp24
 70
     1
102
RTVSPropertyOp25
 70
     1
102
RTVSPropertyOp26
 70
     1
102
RTVSPropertyOp27
 70
     1
102
RTVSPropertyOp28
 70
     1
102
RTVSPropertyOp29
 70
     1
102
RTVSPropertyOp30
 70
     1
102
RTVSPropertyOp31
 70
     1
102
RTVSPropertyOp32
 70
     1
102
RTVSPropertyOp33
 70
     1
102
RTVSPropertyOp34
 70
     1
102
RTVSPropertyOp35
 70
     1
102
RTVSPropertyOp36
 70
     1
102
RTVSPropertyOp37
 70
     1
102
RTVSPropertyOp38
 70
     1
102
RTVSPropertyOp39
 70
     1
102
RTVSPropertyOp40
 70
     1
102
RTVSPropertyOp41
 70
     1
102
RTVSPropertyOp42
 70
     1
102
RTVSPropertyOp43
 70
     1
102
RTVSPropertyOp44
 70
     1
102
RTVSPropertyOp45
 70
     1
102
RTVSPropertyOp46
 70
     1
102
RTVSPropertyOp47
 70
     1
102
RTVSPropertyOp48
 70
     1
102
RTVSPropertyOp49
 70
     1
102
RTVSPropertyOp50
 70
     1
102
RTVSPropertyOp51
 70
     0
102
RTVSPropertyOp52
 70
     0
102
RTVSPropertyOp53
 70
     1
102
RTVSPropertyOp54
 70
     1
102
RTVSPropertyOp55
 70
     1
102
RTVSPropertyOp56
 70
     1
102
RTVSPropertyOp57
 70
     1
102
RTVSPropertyOp58
 70
     1
102
RTVSPropertyOp59
 70
     1
102
RTVSPropertyOp60
 70
     1
102
RTVSPropertyOp61
 70
     1
102
RTVSPropertyOp62
 70
     1
  0
XRECORD
  5
48CE
102
{ACAD_REACTORS
330
48CD
102
}
330
48CD
100
AcDbXrecord
280
     1
102
RTVSPost2010Prop28
280
     0
102
RTVSPost2010PropOp28
 70
     1
102
RTVSPost2010Prop29
280
     1
102
RTVSPost2010PropOp29
 70
     1
102
RTVSPost2010Prop30
280
     1
102
RTVSPost2010PropOp30
 70
     1
102
RTVSPost2010Prop31
280
     0
102
RTVSPost2010PropOp31
 70
     1
102
RTVSPost2010Prop32
280
     0
102
RTVSPost2010PropOp32
 70
     1
102
RTVSPost2010Prop33
280
     0
102
RTVSPost2010PropOp33
 70
     1
102
RTVSPost2010Prop34
280
     0
102
RTVSPost2010PropOp34
 70
     1
102
RTVSPost2010Prop35
280
     0
102
RTVSPost2010PropOp35
 70
     1
102
RTVSPost2010Prop36
280
     0
102
RTVSPost2010PropOp36
 70
     1
102
RTVSPost2010Prop37
 90
       50
102
RTVSPost2010PropOp37
 70
     1
102
RTVSPost2010Prop38
140
0.0
102
RTVSPost2010PropOp38
 70
     1
102
RTVSPost2010Prop39
140
1.0
102
RTVSPost2010PropOp39
 70
     1
102
RTVSPost2010Prop40
 90
        0
102
RTVSPost2010PropOp40
 70
     1
102
RTVSPost2010Prop41ColorIndex
 90
       18
102
RTVSPost2010Prop41ColorRGB
 90
        0
102
RTVSPost2010PropOp41
 70
     1
102
RTVSPost2010Prop42
 90
       50
102
RTVSPost2010PropOp42
 70
     1
102
RTVSPost2010Prop43
 90
        3
102
RTVSPost2010PropOp43
 70
     1
102
RTVSPost2010Prop44ColorIndex
 90
        5
102
RTVSPost2010Prop44ColorRGB
 90
      255
102
RTVSPost2010PropOp44
 70
     1
102
RTVSPost2010Prop45
280
     0
102
RTVSPost2010PropOp45
 70
     1
102
RTVSPost2010Prop46
 90
       50
102
RTVSPost2010PropOp46
 70
     1
102
RTVSPost2010Prop47
 90
       50
102
RTVSPost2010PropOp47
 70
     1
102
RTVSPost2010Prop48
 90
       50
102
RTVSPost2010PropOp48
 70
     1
102
RTVSPost2010Prop49
280
     0
102
RTVSPost2010PropOp49
 70
     1
102
RTVSPost2010Prop50
 90
       50
102
RTVSPost2010PropOp50
 70
     1
102
RTVSPost2010Prop51ColorIndex
 90
      256
102
RTVSPost2010Prop51ColorRGB
 90
-16777216
102
RTVSPost2010PropOp51
 70
     0
102
RTVSPost2010Prop52
140
1.0
102
RTVSPost2010PropOp52
 70
     0
102
RTVSPost2010Prop53
 90
        2
102
RTVSPost2010PropOp53
 70
     1
102
RTVSPost2010Prop54
  1
strokes_ogs.tif
102
RTVSPost2010PropOp54
 70
     1
102
RTVSPost2010Prop55
280
     0
102
RTVSPost2010PropOp55
 70
     1
102
RTVSPost2010Prop56
140
1.0
102
RTVSPost2010PropOp56
 70
     1
102
RTVSPost2010Prop57
140
1.0
102
RTVSPost2010PropOp57
 70
     1
102
RTVSPropertyOp0
 70
     1
102
RTVSPropertyOp1
 70
     1
102
RTVSPropertyOp2
 70
     1
102
RTVSPropertyOp3
 70
     1
102
RTVSPropertyOp4
 70
     1
102
RTVSPropertyOp5
 70
     1
102
RTVSPropertyOp6
 70
     1
102
RTVSPropertyOp7
 70
     1
102
RTVSPropertyOp8
 70
     1
102
RTVSPropertyOp9
 70
     1
102
RTVSPropertyOp10
 70
     1
102
RTVSPropertyOp11
 70
     1
102
RTVSPropertyOp12
 70
     1
102
RTVSPropertyOp13
 70
     1
102
RTVSPropertyOp14
 70
     1
102
RTVSPropertyOp15
 70
     1
102
RTVSPropertyOp16
 70
     1
102
RTVSPropertyOp17
 70
     1
102
RTVSPropertyOp18
 70
     1
102
RTVSPropertyOp19
 70
     1
102
RTVSPropertyOp20
 70
     1
102
RTVSPropertyOp21
 70
     1
102
RTVSPropertyOp22
 70
     1
102
RTVSPropertyOp23
 70
     1
102
RTVSPropertyOp24
 70
     1
102
RTVSPropertyOp25
 70
     1
102
RTVSPropertyOp26
 70
     1
102
RTVSPropertyOp27
 70
     1
102
RTVSPropertyOp28
 70
     1
102
RTVSPropertyOp29
 70
     1
102
RTVSPropertyOp30
 70
     1
102
RTVSPropertyOp31
 70
     1
102
RTVSPropertyOp32
 70
     1
102
RTVSPropertyOp33
 70
     1
102
RTVSPropertyOp34
 70
     1
102
RTVSPropertyOp35
 70
     1
102
RTVSPropertyOp36
 70
     1
102
RTVSPropertyOp37
 70
     1
102
RTVSPropertyOp38
 70
     1
102
RTVSPropertyOp39
 70
     1
102
RTVSPropertyOp40
 70
     1
102
RTVSPropertyOp41
 70
     1
102
RTVSPropertyOp42
 70
     1
102
RTVSPropertyOp43
 70
     1
102
RTVSPropertyOp44
 70
     1
102
RTVSPropertyOp45
 70
     1
102
RTVSPropertyOp46
 70
     1
102
RTVSPropertyOp47
 70
     1
102
RTVSPropertyOp48
 70
     1
102
RTVSPropertyOp49
 70
     1
102
RTVSPropertyOp50
 70
     1
102
RTVSPropertyOp51
 70
     0
102
RTVSPropertyOp52
 70
     0
102
RTVSPropertyOp53
 70
     1
102
RTVSPropertyOp54
 70
     1
102
RTVSPropertyOp55
 70
     1
102
RTVSPropertyOp56
 70
     1
102
RTVSPropertyOp57
 70
     1
102
RTVSPropertyOp58
 70
     1
102
RTVSPropertyOp59
 70
     1
102
RTVSPropertyOp60
 70
     1
102
RTVSPropertyOp61
 70
     1
102
RTVSPropertyOp62
 70
     1
  0
XRECORD
  5
48D6
102
{ACAD_REACTORS
330
48D5
102
}
330
48D5
100
AcDbXrecord
280
     1
102
RTVSPost2010Prop28
280
     0
102
RTVSPost2010PropOp28
 70
     1
102
RTVSPost2010Prop29
280
     1
102
RTVSPost2010PropOp29
 70
     1
102
RTVSPost2010Prop30
280
     1
102
RTVSPost2010PropOp30
 70
     1
102
RTVSPost2010Prop31
280
     0
102
RTVSPost2010PropOp31
 70
     1
102
RTVSPost2010Prop32
280
     0
102
RTVSPost2010PropOp32
 70
     1
102
RTVSPost2010Prop33
280
     0
102
RTVSPost2010PropOp33
 70
     1
102
RTVSPost2010Prop34
280
     0
102
RTVSPost2010PropOp34
 70
     1
102
RTVSPost2010Prop35
280
     0
102
RTVSPost2010PropOp35
 70
     1
102
RTVSPost2010Prop36
280
     0
102
RTVSPost2010PropOp36
 70
     1
102
RTVSPost2010Prop37
 90
       50
102
RTVSPost2010PropOp37
 70
     1
102
RTVSPost2010Prop38
140
0.0
102
RTVSPost2010PropOp38
 70
     1
102
RTVSPost2010Prop39
140
1.0
102
RTVSPost2010PropOp39
 70
     1
102
RTVSPost2010Prop40
 90
        0
102
RTVSPost2010PropOp40
 70
     1
102
RTVSPost2010Prop41ColorIndex
 90
       18
102
RTVSPost2010Prop41ColorRGB
 90
        0
102
RTVSPost2010PropOp41
 70
     1
102
RTVSPost2010Prop42
 90
       50
102
RTVSPost2010PropOp42
 70
     1
102
RTVSPost2010Prop43
 90
        3
102
RTVSPost2010PropOp43
 70
     1
102
RTVSPost2010Prop44ColorIndex
 90
        5
102
RTVSPost2010Prop44ColorRGB
 90
      255
102
RTVSPost2010PropOp44
 70
     1
102
RTVSPost2010Prop45
280
     0
102
RTVSPost2010PropOp45
 70
     1
102
RTVSPost2010Prop46
 90
       50
102
RTVSPost2010PropOp46
 70
     1
102
RTVSPost2010Prop47
 90
       50
102
RTVSPost2010PropOp47
 70
     1
102
RTVSPost2010Prop48
 90
       50
102
RTVSPost2010PropOp48
 70
     1
102
RTVSPost2010Prop49
280
     0
102
RTVSPost2010PropOp49
 70
     1
102
RTVSPost2010Prop50
 90
       50
102
RTVSPost2010PropOp50
 70
     1
102
RTVSPost2010Prop51ColorIndex
 90
      256
102
RTVSPost2010Prop51ColorRGB
 90
-16777216
102
RTVSPost2010PropOp51
 70
     0
102
RTVSPost2010Prop52
140
1.0
102
RTVSPost2010PropOp52
 70
     0
102
RTVSPost2010Prop53
 90
        2
102
RTVSPost2010PropOp53
 70
     1
102
RTVSPost2010Prop54
  1
strokes_ogs.tif
102
RTVSPost2010PropOp54
 70
     1
102
RTVSPost2010Prop55
280
     0
102
RTVSPost2010PropOp55
 70
     1
102
RTVSPost2010Prop56
140
1.0
102
RTVSPost2010PropOp56
 70
     1
102
RTVSPost2010Prop57
140
1.0
102
RTVSPost2010PropOp57
 70
     1
102
RTVSPropertyOp0
 70
     1
102
RTVSPropertyOp1
 70
     1
102
RTVSPropertyOp2
 70
     1
102
RTVSPropertyOp3
 70
     1
102
RTVSPropertyOp4
 70
     1
102
RTVSPropertyOp5
 70
     1
102
RTVSPropertyOp6
 70
     1
102
RTVSPropertyOp7
 70
     1
102
RTVSPropertyOp8
 70
     1
102
RTVSPropertyOp9
 70
     1
102
RTVSPropertyOp10
 70
     1
102
RTVSPropertyOp11
 70
     1
102
RTVSPropertyOp12
 70
     1
102
RTVSPropertyOp13
 70
     1
102
RTVSPropertyOp14
 70
     1
102
RTVSPropertyOp15
 70
     1
102
RTVSPropertyOp16
 70
     1
102
RTVSPropertyOp17
 70
     1
102
RTVSPropertyOp18
 70
     1
102
RTVSPropertyOp19
 70
     1
102
RTVSPropertyOp20
 70
     1
102
RTVSPropertyOp21
 70
     1
102
RTVSPropertyOp22
 70
     1
102
RTVSPropertyOp23
 70
     1
102
RTVSPropertyOp24
 70
     1
102
RTVSPropertyOp25
 70
     1
102
RTVSPropertyOp26
 70
     1
102
RTVSPropertyOp27
 70
     1
102
RTVSPropertyOp28
 70
     1
102
RTVSPropertyOp29
 70
     1
102
RTVSPropertyOp30
 70
     1
102
RTVSPropertyOp31
 70
     1
102
RTVSPropertyOp32
 70
     1
102
RTVSPropertyOp33
 70
     1
102
RTVSPropertyOp34
 70
     1
102
RTVSPropertyOp35
 70
     1
102
RTVSPropertyOp36
 70
     1
102
RTVSPropertyOp37
 70
     1
102
RTVSPropertyOp38
 70
     1
102
RTVSPropertyOp39
 70
     1
102
RTVSPropertyOp40
 70
     1
102
RTVSPropertyOp41
 70
     1
102
RTVSPropertyOp42
 70
     1
102
RTVSPropertyOp43
 70
     1
102
RTVSPropertyOp44
 70
     1
102
RTVSPropertyOp45
 70
     1
102
RTVSPropertyOp46
 70
     1
102
RTVSPropertyOp47
 70
     1
102
RTVSPropertyOp48
 70
     1
102
RTVSPropertyOp49
 70
     1
102
RTVSPropertyOp50
 70
     1
102
RTVSPropertyOp51
 70
     0
102
RTVSPropertyOp52
 70
     0
102
RTVSPropertyOp53
 70
     1
102
RTVSPropertyOp54
 70
     1
102
RTVSPropertyOp55
 70
     1
102
RTVSPropertyOp56
 70
     1
102
RTVSPropertyOp57
 70
     1
102
RTVSPropertyOp58
 70
     1
102
RTVSPropertyOp59
 70
     1
102
RTVSPropertyOp60
 70
     1
102
RTVSPropertyOp61
 70
     1
102
RTVSPropertyOp62
 70
     1
  0
XRECORD
  5
48F2
102
{ACAD_REACTORS
330
48F1
102
}
330
48F1
100
AcDbXrecord
280
     1
102
RTVSPost2010Prop28
280
     0
102
RTVSPost2010PropOp28
 70
     0
102
RTVSPost2010Prop29
280
     1
102
RTVSPost2010PropOp29
 70
     0
102
RTVSPost2010Prop30
280
     1
102
RTVSPost2010PropOp30
 70
     0
102
RTVSPost2010Prop31
280
     0
102
RTVSPost2010PropOp31
 70
     0
102
RTVSPost2010Prop32
280
     0
102
RTVSPost2010PropOp32
 70
     0
102
RTVSPost2010Prop33
280
     0
102
RTVSPost2010PropOp33
 70
     0
102
RTVSPost2010Prop34
280
     0
102
RTVSPost2010PropOp34
 70
     0
102
RTVSPost2010Prop35
280
     0
102
RTVSPost2010PropOp35
 70
     0
102
RTVSPost2010Prop36
280
     0
102
RTVSPost2010PropOp36
 70
     0
102
RTVSPost2010Prop37
 90
       50
102
RTVSPost2010PropOp37
 70
     0
102
RTVSPost2010Prop38
140
0.0
102
RTVSPost2010PropOp38
 70
     0
102
RTVSPost2010Prop39
140
1.0
102
RTVSPost2010PropOp39
 70
     0
102
RTVSPost2010Prop40
 90
        0
102
RTVSPost2010PropOp40
 70
     0
102
RTVSPost2010Prop41ColorIndex
 90
       18
102
RTVSPost2010Prop41ColorRGB
 90
        0
102
RTVSPost2010PropOp41
 70
     0
102
RTVSPost2010Prop42
 90
       50
102
RTVSPost2010PropOp42
 70
     0
102
RTVSPost2010Prop43
 90
        3
102
RTVSPost2010PropOp43
 70
     0
102
RTVSPost2010Prop44ColorIndex
 90
        5
102
RTVSPost2010Prop44ColorRGB
 90
      255
102
RTVSPost2010PropOp44
 70
     0
102
RTVSPost2010Prop45
280
     0
102
RTVSPost2010PropOp45
 70
     0
102
RTVSPost2010Prop46
 90
       50
102
RTVSPost2010PropOp46
 70
     0
102
RTVSPost2010Prop47
 90
       50
102
RTVSPost2010PropOp47
 70
     0
102
RTVSPost2010Prop48
 90
       50
102
RTVSPost2010PropOp48
 70
     0
102
RTVSPost2010Prop49
280
     0
102
RTVSPost2010PropOp49
 70
     0
102
RTVSPost2010Prop50
 90
       50
102
RTVSPost2010PropOp50
 70
     0
102
RTVSPost2010Prop51ColorIndex
 90
      256
102
RTVSPost2010Prop51ColorRGB
 90
-16777216
102
RTVSPost2010PropOp51
 70
     0
102
RTVSPost2010Prop52
140
1.0
102
RTVSPost2010PropOp52
 70
     0
102
RTVSPost2010Prop53
 90
        2
102
RTVSPost2010PropOp53
 70
     0
102
RTVSPost2010Prop54
  1
strokes_ogs.tif
102
RTVSPost2010PropOp54
 70
     0
102
RTVSPost2010Prop55
280
     0
102
RTVSPost2010PropOp55
 70
     0
102
RTVSPost2010Prop56
140
1.0
102
RTVSPost2010PropOp56
 70
     0
102
RTVSPost2010Prop57
140
1.0
102
RTVSPost2010PropOp57
 70
     0
102
RTVSPropertyOp0
 70
     0
102
RTVSPropertyOp1
 70
     0
102
RTVSPropertyOp2
 70
     0
102
RTVSPropertyOp3
 70
     0
102
RTVSPropertyOp4
 70
     0
102
RTVSPropertyOp5
 70
     0
102
RTVSPropertyOp6
 70
     0
102
RTVSPropertyOp7
 70
     0
102
RTVSPropertyOp8
 70
     0
102
RTVSPropertyOp9
 70
     0
102
RTVSPropertyOp10
 70
     0
102
RTVSPropertyOp11
 70
     0
102
RTVSPropertyOp12
 70
     0
102
RTVSPropertyOp13
 70
     0
102
RTVSPropertyOp14
 70
     2
102
RTVSPropertyOp15
 70
     0
102
RTVSPropertyOp16
 70
     0
102
RTVSPropertyOp17
 70
     0
102
RTVSPropertyOp18
 70
     0
102
RTVSPropertyOp19
 70
     0
102
RTVSPropertyOp20
 70
     0
102
RTVSPropertyOp21
 70
     0
102
RTVSPropertyOp22
 70
     0
102
RTVSPropertyOp23
 70
     0
102
RTVSPropertyOp24
 70
     0
102
RTVSPropertyOp25
 70
     0
102
RTVSPropertyOp26
 70
     0
102
RTVSPropertyOp27
 70
     0
102
RTVSPropertyOp28
 70
     0
102
RTVSPropertyOp29
 70
     0
102
RTVSPropertyOp30
 70
     0
102
RTVSPropertyOp31
 70
     0
102
RTVSPropertyOp32
 70
     0
102
RTVSPropertyOp33
 70
     0
102
RTVSPropertyOp34
 70
     0
102
RTVSPropertyOp35
 70
     0
102
RTVSPropertyOp36
 70
     0
102
RTVSPropertyOp37
 70
     0
102
RTVSPropertyOp38
 70
     0
102
RTVSPropertyOp39
 70
     0
102
RTVSPropertyOp40
 70
     0
102
RTVSPropertyOp41
 70
     0
102
RTVSPropertyOp42
 70
     0
102
RTVSPropertyOp43
 70
     0
102
RTVSPropertyOp44
 70
     0
102
RTVSPropertyOp45
 70
     0
102
RTVSPropertyOp46
 70
     0
102
RTVSPropertyOp47
 70
     0
102
RTVSPropertyOp48
 70
     0
102
RTVSPropertyOp49
 70
     0
102
RTVSPropertyOp50
 70
     0
102
RTVSPropertyOp51
 70
     0
102
RTVSPropertyOp52
 70
     0
102
RTVSPropertyOp53
 70
     0
102
RTVSPropertyOp54
 70
     0
102
RTVSPropertyOp55
 70
     0
102
RTVSPropertyOp56
 70
     0
102
RTVSPropertyOp57
 70
     0
102
RTVSPropertyOp58
 70
     1
102
RTVSPropertyOp59
 70
     1
102
RTVSPropertyOp60
 70
     1
102
RTVSPropertyOp61
 70
     1
102
RTVSPropertyOp62
 70
     1
  0
XRECORD
  5
48E2
102
{ACAD_REACTORS
330
48E1
102
}
330
48E1
100
AcDbXrecord
280
     1
102
RTVSPost2010Prop28
280
     0
102
RTVSPost2010PropOp28
 70
     1
102
RTVSPost2010Prop29
280
     1
102
RTVSPost2010PropOp29
 70
     1
102
RTVSPost2010Prop30
280
     1
102
RTVSPost2010PropOp30
 70
     1
102
RTVSPost2010Prop31
280
     0
102
RTVSPost2010PropOp31
 70
     1
102
RTVSPost2010Prop32
280
     0
102
RTVSPost2010PropOp32
 70
     1
102
RTVSPost2010Prop33
280
     0
102
RTVSPost2010PropOp33
 70
     1
102
RTVSPost2010Prop34
280
     0
102
RTVSPost2010PropOp34
 70
     1
102
RTVSPost2010Prop35
280
     0
102
RTVSPost2010PropOp35
 70
     1
102
RTVSPost2010Prop36
280
     0
102
RTVSPost2010PropOp36
 70
     1
102
RTVSPost2010Prop37
 90
       50
102
RTVSPost2010PropOp37
 70
     1
102
RTVSPost2010Prop38
140
0.0
102
RTVSPost2010PropOp38
 70
     1
102
RTVSPost2010Prop39
140
1.0
102
RTVSPost2010PropOp39
 70
     1
102
RTVSPost2010Prop40
 90
        0
102
RTVSPost2010PropOp40
 70
     1
102
RTVSPost2010Prop41ColorIndex
 90
       18
102
RTVSPost2010Prop41ColorRGB
 90
        0
102
RTVSPost2010PropOp41
 70
     1
102
RTVSPost2010Prop42
 90
       50
102
RTVSPost2010PropOp42
 70
     1
102
RTVSPost2010Prop43
 90
        3
102
RTVSPost2010PropOp43
 70
     1
102
RTVSPost2010Prop44ColorIndex
 90
        5
102
RTVSPost2010Prop44ColorRGB
 90
      255
102
RTVSPost2010PropOp44
 70
     1
102
RTVSPost2010Prop45
280
     0
102
RTVSPost2010PropOp45
 70
     1
102
RTVSPost2010Prop46
 90
       50
102
RTVSPost2010PropOp46
 70
     1
102
RTVSPost2010Prop47
 90
       50
102
RTVSPost2010PropOp47
 70
     1
102
RTVSPost2010Prop48
 90
       50
102
RTVSPost2010PropOp48
 70
     1
102
RTVSPost2010Prop49
280
     0
102
RTVSPost2010PropOp49
 70
     1
102
RTVSPost2010Prop50
 90
       50
102
RTVSPost2010PropOp50
 70
     1
102
RTVSPost2010Prop51ColorIndex
 90
      256
102
RTVSPost2010Prop51ColorRGB
 90
-16777216
102
RTVSPost2010PropOp51
 70
     0
102
RTVSPost2010Prop52
140
1.0
102
RTVSPost2010PropOp52
 70
     0
102
RTVSPost2010Prop53
 90
        2
102
RTVSPost2010PropOp53
 70
     1
102
RTVSPost2010Prop54
  1
strokes_ogs.tif
102
RTVSPost2010PropOp54
 70
     1
102
RTVSPost2010Prop55
280
     0
102
RTVSPost2010PropOp55
 70
     1
102
RTVSPost2010Prop56
140
1.0
102
RTVSPost2010PropOp56
 70
     1
102
RTVSPost2010Prop57
140
1.0
102
RTVSPost2010PropOp57
 70
     1
102
RTVSPropertyOp0
 70
     1
102
RTVSPropertyOp1
 70
     1
102
RTVSPropertyOp2
 70
     1
102
RTVSPropertyOp3
 70
     1
102
RTVSPropertyOp4
 70
     1
102
RTVSPropertyOp5
 70
     1
102
RTVSPropertyOp6
 70
     1
102
RTVSPropertyOp7
 70
     1
102
RTVSPropertyOp8
 70
     1
102
RTVSPropertyOp9
 70
     1
102
RTVSPropertyOp10
 70
     1
102
RTVSPropertyOp11
 70
     1
102
RTVSPropertyOp12
 70
     1
102
RTVSPropertyOp13
 70
     1
102
RTVSPropertyOp14
 70
     1
102
RTVSPropertyOp15
 70
     1
102
RTVSPropertyOp16
 70
     1
102
RTVSPropertyOp17
 70
     1
102
RTVSPropertyOp18
 70
     1
102
RTVSPropertyOp19
 70
     1
102
RTVSPropertyOp20
 70
     1
102
RTVSPropertyOp21
 70
     1
102
RTVSPropertyOp22
 70
     1
102
RTVSPropertyOp23
 70
     1
102
RTVSPropertyOp24
 70
     1
102
RTVSPropertyOp25
 70
     1
102
RTVSPropertyOp26
 70
     1
102
RTVSPropertyOp27
 70
     1
102
RTVSPropertyOp28
 70
     1
102
RTVSPropertyOp29
 70
     1
102
RTVSPropertyOp30
 70
     1
102
RTVSPropertyOp31
 70
     1
102
RTVSPropertyOp32
 70
     1
102
RTVSPropertyOp33
 70
     1
102
RTVSPropertyOp34
 70
     1
102
RTVSPropertyOp35
 70
     1
102
RTVSPropertyOp36
 70
     1
102
RTVSPropertyOp37
 70
     1
102
RTVSPropertyOp38
 70
     1
102
RTVSPropertyOp39
 70
     1
102
RTVSPropertyOp40
 70
     1
102
RTVSPropertyOp41
 70
     1
102
RTVSPropertyOp42
 70
     1
102
RTVSPropertyOp43
 70
     1
102
RTVSPropertyOp44
 70
     1
102
RTVSPropertyOp45
 70
     1
102
RTVSPropertyOp46
 70
     1
102
RTVSPropertyOp47
 70
     1
102
RTVSPropertyOp48
 70
     1
102
RTVSPropertyOp49
 70
     1
102
RTVSPropertyOp50
 70
     1
102
RTVSPropertyOp51
 70
     0
102
RTVSPropertyOp52
 70
     0
102
RTVSPropertyOp53
 70
     1
102
RTVSPropertyOp54
 70
     1
102
RTVSPropertyOp55
 70
     1
102
RTVSPropertyOp56
 70
     1
102
RTVSPropertyOp57
 70
     1
102
RTVSPropertyOp58
 70
     1
102
RTVSPropertyOp59
 70
     1
102
RTVSPropertyOp60
 70
     1
102
RTVSPropertyOp61
 70
     1
102
RTVSPropertyOp62
 70
     1
  0
XRECORD
  5
48F4
102
{ACAD_REACTORS
330
48F3
102
}
330
48F3
100
AcDbXrecord
280
     1
102
RTVSPost2010Prop28
280
     0
102
RTVSPost2010PropOp28
 70
     0
102
RTVSPost2010Prop29
280
     1
102
RTVSPost2010PropOp29
 70
     0
102
RTVSPost2010Prop30
280
     1
102
RTVSPost2010PropOp30
 70
     0
102
RTVSPost2010Prop31
280
     0
102
RTVSPost2010PropOp31
 70
     0
102
RTVSPost2010Prop32
280
     0
102
RTVSPost2010PropOp32
 70
     0
102
RTVSPost2010Prop33
280
     0
102
RTVSPost2010PropOp33
 70
     0
102
RTVSPost2010Prop34
280
     0
102
RTVSPost2010PropOp34
 70
     0
102
RTVSPost2010Prop35
280
     0
102
RTVSPost2010PropOp35
 70
     0
102
RTVSPost2010Prop36
280
     0
102
RTVSPost2010PropOp36
 70
     0
102
RTVSPost2010Prop37
 90
       50
102
RTVSPost2010PropOp37
 70
     0
102
RTVSPost2010Prop38
140
0.0
102
RTVSPost2010PropOp38
 70
     0
102
RTVSPost2010Prop39
140
1.0
102
RTVSPost2010PropOp39
 70
     0
102
RTVSPost2010Prop40
 90
        0
102
RTVSPost2010PropOp40
 70
     0
102
RTVSPost2010Prop41ColorIndex
 90
       18
102
RTVSPost2010Prop41ColorRGB
 90
        0
102
RTVSPost2010PropOp41
 70
     0
102
RTVSPost2010Prop42
 90
       50
102
RTVSPost2010PropOp42
 70
     0
102
RTVSPost2010Prop43
 90
        3
102
RTVSPost2010PropOp43
 70
     0
102
RTVSPost2010Prop44ColorIndex
 90
        5
102
RTVSPost2010Prop44ColorRGB
 90
      255
102
RTVSPost2010PropOp44
 70
     0
102
RTVSPost2010Prop45
280
     0
102
RTVSPost2010PropOp45
 70
     0
102
RTVSPost2010Prop46
 90
       50
102
RTVSPost2010PropOp46
 70
     0
102
RTVSPost2010Prop47
 90
       50
102
RTVSPost2010PropOp47
 70
     0
102
RTVSPost2010Prop48
 90
       50
102
RTVSPost2010PropOp48
 70
     0
102
RTVSPost2010Prop49
280
     0
102
RTVSPost2010PropOp49
 70
     0
102
RTVSPost2010Prop50
 90
       50
102
RTVSPost2010PropOp50
 70
     0
102
RTVSPost2010Prop51ColorIndex
 90
      256
102
RTVSPost2010Prop51ColorRGB
 90
-16777216
102
RTVSPost2010PropOp51
 70
     0
102
RTVSPost2010Prop52
140
1.0
102
RTVSPost2010PropOp52
 70
     0
102
RTVSPost2010Prop53
 90
        2
102
RTVSPost2010PropOp53
 70
     0
102
RTVSPost2010Prop54
  1
strokes_ogs.tif
102
RTVSPost2010PropOp54
 70
     0
102
RTVSPost2010Prop55
280
     0
102
RTVSPost2010PropOp55
 70
     0
102
RTVSPost2010Prop56
140
1.0
102
RTVSPost2010PropOp56
 70
     0
102
RTVSPost2010Prop57
140
1.0
102
RTVSPost2010PropOp57
 70
     0
102
RTVSPropertyOp0
 70
     0
102
RTVSPropertyOp1
 70
     0
102
RTVSPropertyOp2
 70
     0
102
RTVSPropertyOp3
 70
     0
102
RTVSPropertyOp4
 70
     0
102
RTVSPropertyOp5
 70
     0
102
RTVSPropertyOp6
 70
     0
102
RTVSPropertyOp7
 70
     0
102
RTVSPropertyOp8
 70
     0
102
RTVSPropertyOp9
 70
     0
102
RTVSPropertyOp10
 70
     0
102
RTVSPropertyOp11
 70
     0
102
RTVSPropertyOp12
 70
     0
102
RTVSPropertyOp13
 70
     0
102
RTVSPropertyOp14
 70
     2
102
RTVSPropertyOp15
 70
     0
102
RTVSPropertyOp16
 70
     0
102
RTVSPropertyOp17
 70
     0
102
RTVSPropertyOp18
 70
     0
102
RTVSPropertyOp19
 70
     0
102
RTVSPropertyOp20
 70
     0
102
RTVSPropertyOp21
 70
     0
102
RTVSPropertyOp22
 70
     0
102
RTVSPropertyOp23
 70
     0
102
RTVSPropertyOp24
 70
     0
102
RTVSPropertyOp25
 70
     0
102
RTVSPropertyOp26
 70
     0
102
RTVSPropertyOp27
 70
     0
102
RTVSPropertyOp28
 70
     0
102
RTVSPropertyOp29
 70
     0
102
RTVSPropertyOp30
 70
     0
102
RTVSPropertyOp31
 70
     0
102
RTVSPropertyOp32
 70
     0
102
RTVSPropertyOp33
 70
     0
102
RTVSPropertyOp34
 70
     0
102
RTVSPropertyOp35
 70
     0
102
RTVSPropertyOp36
 70
     0
102
RTVSPropertyOp37
 70
     0
102
RTVSPropertyOp38
 70
     0
102
RTVSPropertyOp39
 70
     0
102
RTVSPropertyOp40
 70
     0
102
RTVSPropertyOp41
 70
     0
102
RTVSPropertyOp42
 70
     0
102
RTVSPropertyOp43
 70
     0
102
RTVSPropertyOp44
 70
     0
102
RTVSPropertyOp45
 70
     0
102
RTVSPropertyOp46
 70
     0
102
RTVSPropertyOp47
 70
     0
102
RTVSPropertyOp48
 70
     0
102
RTVSPropertyOp49
 70
     0
102
RTVSPropertyOp50
 70
     0
102
RTVSPropertyOp51
 70
     0
102
RTVSPropertyOp52
 70
     0
102
RTVSPropertyOp53
 70
     0
102
RTVSPropertyOp54
 70
     0
102
RTVSPropertyOp55
 70
     0
102
RTVSPropertyOp56
 70
     0
102
RTVSPropertyOp57
 70
     0
102
RTVSPropertyOp58
 70
     1
102
RTVSPropertyOp59
 70
     1
102
RTVSPropertyOp60
 70
     1
102
RTVSPropertyOp61
 70
     1
102
RTVSPropertyOp62
 70
     1
  0
XRECORD
  5
48DA
102
{ACAD_REACTORS
330
48D9
102
}
330
48D9
100
AcDbXrecord
280
     1
102
RTVSPost2010Prop28
280
     0
102
RTVSPost2010PropOp28
 70
     1
102
RTVSPost2010Prop29
280
     1
102
RTVSPost2010PropOp29
 70
     1
102
RTVSPost2010Prop30
280
     1
102
RTVSPost2010PropOp30
 70
     1
102
RTVSPost2010Prop31
280
     0
102
RTVSPost2010PropOp31
 70
     1
102
RTVSPost2010Prop32
280
     0
102
RTVSPost2010PropOp32
 70
     1
102
RTVSPost2010Prop33
280
     0
102
RTVSPost2010PropOp33
 70
     1
102
RTVSPost2010Prop34
280
     0
102
RTVSPost2010PropOp34
 70
     1
102
RTVSPost2010Prop35
280
     0
102
RTVSPost2010PropOp35
 70
     1
102
RTVSPost2010Prop36
280
     0
102
RTVSPost2010PropOp36
 70
     1
102
RTVSPost2010Prop37
 90
       50
102
RTVSPost2010PropOp37
 70
     1
102
RTVSPost2010Prop38
140
0.0
102
RTVSPost2010PropOp38
 70
     1
102
RTVSPost2010Prop39
140
1.0
102
RTVSPost2010PropOp39
 70
     1
102
RTVSPost2010Prop40
 90
        0
102
RTVSPost2010PropOp40
 70
     1
102
RTVSPost2010Prop41ColorIndex
 90
       18
102
RTVSPost2010Prop41ColorRGB
 90
        0
102
RTVSPost2010PropOp41
 70
     1
102
RTVSPost2010Prop42
 90
       50
102
RTVSPost2010PropOp42
 70
     1
102
RTVSPost2010Prop43
 90
        3
102
RTVSPost2010PropOp43
 70
     1
102
RTVSPost2010Prop44ColorIndex
 90
        5
102
RTVSPost2010Prop44ColorRGB
 90
      255
102
RTVSPost2010PropOp44
 70
     1
102
RTVSPost2010Prop45
280
     0
102
RTVSPost2010PropOp45
 70
     1
102
RTVSPost2010Prop46
 90
       50
102
RTVSPost2010PropOp46
 70
     1
102
RTVSPost2010Prop47
 90
       50
102
RTVSPost2010PropOp47
 70
     1
102
RTVSPost2010Prop48
 90
       50
102
RTVSPost2010PropOp48
 70
     1
102
RTVSPost2010Prop49
280
     0
102
RTVSPost2010PropOp49
 70
     1
102
RTVSPost2010Prop50
 90
       50
102
RTVSPost2010PropOp50
 70
     1
102
RTVSPost2010Prop51ColorIndex
 90
      256
102
RTVSPost2010Prop51ColorRGB
 90
-16777216
102
RTVSPost2010PropOp51
 70
     0
102
RTVSPost2010Prop52
140
1.0
102
RTVSPost2010PropOp52
 70
     0
102
RTVSPost2010Prop53
 90
        2
102
RTVSPost2010PropOp53
 70
     1
102
RTVSPost2010Prop54
  1
strokes_ogs.tif
102
RTVSPost2010PropOp54
 70
     1
102
RTVSPost2010Prop55
280
     0
102
RTVSPost2010PropOp55
 70
     1
102
RTVSPost2010Prop56
140
1.0
102
RTVSPost2010PropOp56
 70
     1
102
RTVSPost2010Prop57
140
1.0
102
RTVSPost2010PropOp57
 70
     1
102
RTVSPropertyOp0
 70
     1
102
RTVSPropertyOp1
 70
     1
102
RTVSPropertyOp2
 70
     1
102
RTVSPropertyOp3
 70
     1
102
RTVSPropertyOp4
 70
     1
102
RTVSPropertyOp5
 70
     1
102
RTVSPropertyOp6
 70
     1
102
RTVSPropertyOp7
 70
     1
102
RTVSPropertyOp8
 70
     1
102
RTVSPropertyOp9
 70
     1
102
RTVSPropertyOp10
 70
     1
102
RTVSPropertyOp11
 70
     1
102
RTVSPropertyOp12
 70
     1
102
RTVSPropertyOp13
 70
     1
102
RTVSPropertyOp14
 70
     1
102
RTVSPropertyOp15
 70
     1
102
RTVSPropertyOp16
 70
     1
102
RTVSPropertyOp17
 70
     1
102
RTVSPropertyOp18
 70
     1
102
RTVSPropertyOp19
 70
     1
102
RTVSPropertyOp20
 70
     1
102
RTVSPropertyOp21
 70
     1
102
RTVSPropertyOp22
 70
     1
102
RTVSPropertyOp23
 70
     1
102
RTVSPropertyOp24
 70
     1
102
RTVSPropertyOp25
 70
     1
102
RTVSPropertyOp26
 70
     1
102
RTVSPropertyOp27
 70
     1
102
RTVSPropertyOp28
 70
     1
102
RTVSPropertyOp29
 70
     1
102
RTVSPropertyOp30
 70
     1
102
RTVSPropertyOp31
 70
     1
102
RTVSPropertyOp32
 70
     1
102
RTVSPropertyOp33
 70
     1
102
RTVSPropertyOp34
 70
     1
102
RTVSPropertyOp35
 70
     1
102
RTVSPropertyOp36
 70
     1
102
RTVSPropertyOp37
 70
     1
102
RTVSPropertyOp38
 70
     1
102
RTVSPropertyOp39
 70
     1
102
RTVSPropertyOp40
 70
     1
102
RTVSPropertyOp41
 70
     1
102
RTVSPropertyOp42
 70
     1
102
RTVSPropertyOp43
 70
     1
102
RTVSPropertyOp44
 70
     1
102
RTVSPropertyOp45
 70
     1
102
RTVSPropertyOp46
 70
     1
102
RTVSPropertyOp47
 70
     1
102
RTVSPropertyOp48
 70
     1
102
RTVSPropertyOp49
 70
     1
102
RTVSPropertyOp50
 70
     1
102
RTVSPropertyOp51
 70
     0
102
RTVSPropertyOp52
 70
     0
102
RTVSPropertyOp53
 70
     1
102
RTVSPropertyOp54
 70
     1
102
RTVSPropertyOp55
 70
     1
102
RTVSPropertyOp56
 70
     1
102
RTVSPropertyOp57
 70
     1
102
RTVSPropertyOp58
 70
     1
102
RTVSPropertyOp59
 70
     1
102
RTVSPropertyOp60
 70
     1
102
RTVSPropertyOp61
 70
     1
102
RTVSPropertyOp62
 70
     1
  0
XRECORD
  5
48F0
102
{ACAD_REACTORS
330
48EF
102
}
330
48EF
100
AcDbXrecord
280
     1
102
RTVSPost2010Prop28
280
     0
102
RTVSPost2010PropOp28
 70
     1
102
RTVSPost2010Prop29
280
     1
102
RTVSPost2010PropOp29
 70
     1
102
RTVSPost2010Prop30
280
     1
102
RTVSPost2010PropOp30
 70
     1
102
RTVSPost2010Prop31
280
     0
102
RTVSPost2010PropOp31
 70
     1
102
RTVSPost2010Prop32
280
     0
102
RTVSPost2010PropOp32
 70
     1
102
RTVSPost2010Prop33
280
     0
102
RTVSPost2010PropOp33
 70
     1
102
RTVSPost2010Prop34
280
     0
102
RTVSPost2010PropOp34
 70
     1
102
RTVSPost2010Prop35
280
     0
102
RTVSPost2010PropOp35
 70
     1
102
RTVSPost2010Prop36
280
     0
102
RTVSPost2010PropOp36
 70
     1
102
RTVSPost2010Prop37
 90
       50
102
RTVSPost2010PropOp37
 70
     1
102
RTVSPost2010Prop38
140
0.0
102
RTVSPost2010PropOp38
 70
     1
102
RTVSPost2010Prop39
140
1.0
102
RTVSPost2010PropOp39
 70
     1
102
RTVSPost2010Prop40
 90
        0
102
RTVSPost2010PropOp40
 70
     1
102
RTVSPost2010Prop41ColorIndex
 90
       18
102
RTVSPost2010Prop41ColorRGB
 90
        0
102
RTVSPost2010PropOp41
 70
     1
102
RTVSPost2010Prop42
 90
       50
102
RTVSPost2010PropOp42
 70
     1
102
RTVSPost2010Prop43
 90
        3
102
RTVSPost2010PropOp43
 70
     1
102
RTVSPost2010Prop44ColorIndex
 90
        5
102
RTVSPost2010Prop44ColorRGB
 90
      255
102
RTVSPost2010PropOp44
 70
     1
102
RTVSPost2010Prop45
280
     0
102
RTVSPost2010PropOp45
 70
     1
102
RTVSPost2010Prop46
 90
       50
102
RTVSPost2010PropOp46
 70
     1
102
RTVSPost2010Prop47
 90
       50
102
RTVSPost2010PropOp47
 70
     1
102
RTVSPost2010Prop48
 90
       50
102
RTVSPost2010PropOp48
 70
     1
102
RTVSPost2010Prop49
280
     0
102
RTVSPost2010PropOp49
 70
     1
102
RTVSPost2010Prop50
 90
       50
102
RTVSPost2010PropOp50
 70
     1
102
RTVSPost2010Prop51ColorIndex
 90
      256
102
RTVSPost2010Prop51ColorRGB
 90
-16777216
102
RTVSPost2010PropOp51
 70
     0
102
RTVSPost2010Prop52
140
1.0
102
RTVSPost2010PropOp52
 70
     0
102
RTVSPost2010Prop53
 90
        2
102
RTVSPost2010PropOp53
 70
     1
102
RTVSPost2010Prop54
  1
strokes_ogs.tif
102
RTVSPost2010PropOp54
 70
     1
102
RTVSPost2010Prop55
280
     0
102
RTVSPost2010PropOp55
 70
     1
102
RTVSPost2010Prop56
140
1.0
102
RTVSPost2010PropOp56
 70
     1
102
RTVSPost2010Prop57
140
1.0
102
RTVSPost2010PropOp57
 70
     1
102
RTVSPropertyOp0
 70
     1
102
RTVSPropertyOp1
 70
     1
102
RTVSPropertyOp2
 70
     1
102
RTVSPropertyOp3
 70
     1
102
RTVSPropertyOp4
 70
     1
102
RTVSPropertyOp5
 70
     1
102
RTVSPropertyOp6
 70
     1
102
RTVSPropertyOp7
 70
     1
102
RTVSPropertyOp8
 70
     1
102
RTVSPropertyOp9
 70
     1
102
RTVSPropertyOp10
 70
     1
102
RTVSPropertyOp11
 70
     1
102
RTVSPropertyOp12
 70
     1
102
RTVSPropertyOp13
 70
     1
102
RTVSPropertyOp14
 70
     1
102
RTVSPropertyOp15
 70
     1
102
RTVSPropertyOp16
 70
     1
102
RTVSPropertyOp17
 70
     1
102
RTVSPropertyOp18
 70
     1
102
RTVSPropertyOp19
 70
     1
102
RTVSPropertyOp20
 70
     1
102
RTVSPropertyOp21
 70
     1
102
RTVSPropertyOp22
 70
     1
102
RTVSPropertyOp23
 70
     1
102
RTVSPropertyOp24
 70
     1
102
RTVSPropertyOp25
 70
     1
102
RTVSPropertyOp26
 70
     1
102
RTVSPropertyOp27
 70
     1
102
RTVSPropertyOp28
 70
     1
102
RTVSPropertyOp29
 70
     1
102
RTVSPropertyOp30
 70
     1
102
RTVSPropertyOp31
 70
     1
102
RTVSPropertyOp32
 70
     1
102
RTVSPropertyOp33
 70
     1
102
RTVSPropertyOp34
 70
     1
102
RTVSPropertyOp35
 70
     1
102
RTVSPropertyOp36
 70
     1
102
RTVSPropertyOp37
 70
     1
102
RTVSPropertyOp38
 70
     1
102
RTVSPropertyOp39
 70
     1
102
RTVSPropertyOp40
 70
     1
102
RTVSPropertyOp41
 70
     1
102
RTVSPropertyOp42
 70
     1
102
RTVSPropertyOp43
 70
     1
102
RTVSPropertyOp44
 70
     1
102
RTVSPropertyOp45
 70
     1
102
RTVSPropertyOp46
 70
     1
102
RTVSPropertyOp47
 70
     1
102
RTVSPropertyOp48
 70
     1
102
RTVSPropertyOp49
 70
     1
102
RTVSPropertyOp50
 70
     1
102
RTVSPropertyOp51
 70
     0
102
RTVSPropertyOp52
 70
     0
102
RTVSPropertyOp53
 70
     1
102
RTVSPropertyOp54
 70
     1
102
RTVSPropertyOp55
 70
     1
102
RTVSPropertyOp56
 70
     1
102
RTVSPropertyOp57
 70
     1
102
RTVSPropertyOp58
 70
     1
102
RTVSPropertyOp59
 70
     1
102
RTVSPropertyOp60
 70
     1
102
RTVSPropertyOp61
 70
     1
102
RTVSPropertyOp62
 70
     1
  0
XRECORD
  5
48EE
102
{ACAD_REACTORS
330
48ED
102
}
330
48ED
100
AcDbXrecord
280
     1
102
RTVSPost2010Prop28
280
     0
102
RTVSPost2010PropOp28
 70
     1
102
RTVSPost2010Prop29
280
     1
102
RTVSPost2010PropOp29
 70
     1
102
RTVSPost2010Prop30
280
     1
102
RTVSPost2010PropOp30
 70
     1
102
RTVSPost2010Prop31
280
     0
102
RTVSPost2010PropOp31
 70
     1
102
RTVSPost2010Prop32
280
     0
102
RTVSPost2010PropOp32
 70
     1
102
RTVSPost2010Prop33
280
     0
102
RTVSPost2010PropOp33
 70
     1
102
RTVSPost2010Prop34
280
     0
102
RTVSPost2010PropOp34
 70
     1
102
RTVSPost2010Prop35
280
     0
102
RTVSPost2010PropOp35
 70
     1
102
RTVSPost2010Prop36
280
     0
102
RTVSPost2010PropOp36
 70
     1
102
RTVSPost2010Prop37
 90
       50
102
RTVSPost2010PropOp37
 70
     1
102
RTVSPost2010Prop38
140
0.0
102
RTVSPost2010PropOp38
 70
     1
102
RTVSPost2010Prop39
140
1.0
102
RTVSPost2010PropOp39
 70
     1
102
RTVSPost2010Prop40
 90
        0
102
RTVSPost2010PropOp40
 70
     1
102
RTVSPost2010Prop41ColorIndex
 90
       18
102
RTVSPost2010Prop41ColorRGB
 90
        0
102
RTVSPost2010PropOp41
 70
     1
102
RTVSPost2010Prop42
 90
       50
102
RTVSPost2010PropOp42
 70
     1
102
RTVSPost2010Prop43
 90
        3
102
RTVSPost2010PropOp43
 70
     1
102
RTVSPost2010Prop44ColorIndex
 90
        5
102
RTVSPost2010Prop44ColorRGB
 90
      255
102
RTVSPost2010PropOp44
 70
     1
102
RTVSPost2010Prop45
280
     0
102
RTVSPost2010PropOp45
 70
     1
102
RTVSPost2010Prop46
 90
       50
102
RTVSPost2010PropOp46
 70
     1
102
RTVSPost2010Prop47
 90
       50
102
RTVSPost2010PropOp47
 70
     1
102
RTVSPost2010Prop48
 90
       50
102
RTVSPost2010PropOp48
 70
     1
102
RTVSPost2010Prop49
280
     0
102
RTVSPost2010PropOp49
 70
     1
102
RTVSPost2010Prop50
 90
       50
102
RTVSPost2010PropOp50
 70
     1
102
RTVSPost2010Prop51ColorIndex
 90
      256
102
RTVSPost2010Prop51ColorRGB
 90
-16777216
102
RTVSPost2010PropOp51
 70
     0
102
RTVSPost2010Prop52
140
1.0
102
RTVSPost2010PropOp52
 70
     0
102
RTVSPost2010Prop53
 90
        2
102
RTVSPost2010PropOp53
 70
     1
102
RTVSPost2010Prop54
  1
strokes_ogs.tif
102
RTVSPost2010PropOp54
 70
     1
102
RTVSPost2010Prop55
280
     0
102
RTVSPost2010PropOp55
 70
     1
102
RTVSPost2010Prop56
140
1.0
102
RTVSPost2010PropOp56
 70
     1
102
RTVSPost2010Prop57
140
1.0
102
RTVSPost2010PropOp57
 70
     1
102
RTVSPropertyOp0
 70
     1
102
RTVSPropertyOp1
 70
     1
102
RTVSPropertyOp2
 70
     1
102
RTVSPropertyOp3
 70
     1
102
RTVSPropertyOp4
 70
     1
102
RTVSPropertyOp5
 70
     1
102
RTVSPropertyOp6
 70
     1
102
RTVSPropertyOp7
 70
     1
102
RTVSPropertyOp8
 70
     1
102
RTVSPropertyOp9
 70
     1
102
RTVSPropertyOp10
 70
     1
102
RTVSPropertyOp11
 70
     1
102
RTVSPropertyOp12
 70
     1
102
RTVSPropertyOp13
 70
     1
102
RTVSPropertyOp14
 70
     1
102
RTVSPropertyOp15
 70
     1
102
RTVSPropertyOp16
 70
     1
102
RTVSPropertyOp17
 70
     1
102
RTVSPropertyOp18
 70
     1
102
RTVSPropertyOp19
 70
     1
102
RTVSPropertyOp20
 70
     1
102
RTVSPropertyOp21
 70
     1
102
RTVSPropertyOp22
 70
     1
102
RTVSPropertyOp23
 70
     1
102
RTVSPropertyOp24
 70
     1
102
RTVSPropertyOp25
 70
     1
102
RTVSPropertyOp26
 70
     1
102
RTVSPropertyOp27
 70
     1
102
RTVSPropertyOp28
 70
     1
102
RTVSPropertyOp29
 70
     1
102
RTVSPropertyOp30
 70
     1
102
RTVSPropertyOp31
 70
     1
102
RTVSPropertyOp32
 70
     1
102
RTVSPropertyOp33
 70
     1
102
RTVSPropertyOp34
 70
     1
102
RTVSPropertyOp35
 70
     1
102
RTVSPropertyOp36
 70
     1
102
RTVSPropertyOp37
 70
     1
102
RTVSPropertyOp38
 70
     1
102
RTVSPropertyOp39
 70
     1
102
RTVSPropertyOp40
 70
     1
102
RTVSPropertyOp41
 70
     1
102
RTVSPropertyOp42
 70
     1
102
RTVSPropertyOp43
 70
     1
102
RTVSPropertyOp44
 70
     1
102
RTVSPropertyOp45
 70
     1
102
RTVSPropertyOp46
 70
     1
102
RTVSPropertyOp47
 70
     1
102
RTVSPropertyOp48
 70
     1
102
RTVSPropertyOp49
 70
     1
102
RTVSPropertyOp50
 70
     1
102
RTVSPropertyOp51
 70
     0
102
RTVSPropertyOp52
 70
     0
102
RTVSPropertyOp53
 70
     1
102
RTVSPropertyOp54
 70
     1
102
RTVSPropertyOp55
 70
     1
102
RTVSPropertyOp56
 70
     1
102
RTVSPropertyOp57
 70
     1
102
RTVSPropertyOp58
 70
     1
102
RTVSPropertyOp59
 70
     1
102
RTVSPropertyOp60
 70
     1
102
RTVSPropertyOp61
 70
     1
102
RTVSPropertyOp62
 70
     1
  0
XRECORD
  5
48E8
102
{ACAD_REACTORS
330
48E7
102
}
330
48E7
100
AcDbXrecord
280
     1
102
RTVSPost2010Prop28
280
     0
102
RTVSPost2010PropOp28
 70
     1
102
RTVSPost2010Prop29
280
     1
102
RTVSPost2010PropOp29
 70
     1
102
RTVSPost2010Prop30
280
     1
102
RTVSPost2010PropOp30
 70
     1
102
RTVSPost2010Prop31
280
     0
102
RTVSPost2010PropOp31
 70
     1
102
RTVSPost2010Prop32
280
     0
102
RTVSPost2010PropOp32
 70
     1
102
RTVSPost2010Prop33
280
     0
102
RTVSPost2010PropOp33
 70
     1
102
RTVSPost2010Prop34
280
     0
102
RTVSPost2010PropOp34
 70
     1
102
RTVSPost2010Prop35
280
     0
102
RTVSPost2010PropOp35
 70
     1
102
RTVSPost2010Prop36
280
     0
102
RTVSPost2010PropOp36
 70
     1
102
RTVSPost2010Prop37
 90
       50
102
RTVSPost2010PropOp37
 70
     1
102
RTVSPost2010Prop38
140
0.0
102
RTVSPost2010PropOp38
 70
     1
102
RTVSPost2010Prop39
140
1.0
102
RTVSPost2010PropOp39
 70
     1
102
RTVSPost2010Prop40
 90
        0
102
RTVSPost2010PropOp40
 70
     1
102
RTVSPost2010Prop41ColorIndex
 90
       18
102
RTVSPost2010Prop41ColorRGB
 90
        0
102
RTVSPost2010PropOp41
 70
     1
102
RTVSPost2010Prop42
 90
       50
102
RTVSPost2010PropOp42
 70
     1
102
RTVSPost2010Prop43
 90
        3
102
RTVSPost2010PropOp43
 70
     1
102
RTVSPost2010Prop44ColorIndex
 90
        5
102
RTVSPost2010Prop44ColorRGB
 90
      255
102
RTVSPost2010PropOp44
 70
     1
102
RTVSPost2010Prop45
280
     0
102
RTVSPost2010PropOp45
 70
     1
102
RTVSPost2010Prop46
 90
       50
102
RTVSPost2010PropOp46
 70
     1
102
RTVSPost2010Prop47
 90
       50
102
RTVSPost2010PropOp47
 70
     1
102
RTVSPost2010Prop48
 90
       50
102
RTVSPost2010PropOp48
 70
     1
102
RTVSPost2010Prop49
280
     0
102
RTVSPost2010PropOp49
 70
     1
102
RTVSPost2010Prop50
 90
       50
102
RTVSPost2010PropOp50
 70
     1
102
RTVSPost2010Prop51ColorIndex
 90
      256
102
RTVSPost2010Prop51ColorRGB
 90
-16777216
102
RTVSPost2010PropOp51
 70
     0
102
RTVSPost2010Prop52
140
1.0
102
RTVSPost2010PropOp52
 70
     0
102
RTVSPost2010Prop53
 90
        2
102
RTVSPost2010PropOp53
 70
     1
102
RTVSPost2010Prop54
  1
strokes_ogs.tif
102
RTVSPost2010PropOp54
 70
     1
102
RTVSPost2010Prop55
280
     0
102
RTVSPost2010PropOp55
 70
     1
102
RTVSPost2010Prop56
140
1.0
102
RTVSPost2010PropOp56
 70
     1
102
RTVSPost2010Prop57
140
1.0
102
RTVSPost2010PropOp57
 70
     1
102
RTVSPropertyOp0
 70
     1
102
RTVSPropertyOp1
 70
     1
102
RTVSPropertyOp2
 70
     1
102
RTVSPropertyOp3
 70
     1
102
RTVSPropertyOp4
 70
     1
102
RTVSPropertyOp5
 70
     1
102
RTVSPropertyOp6
 70
     1
102
RTVSPropertyOp7
 70
     1
102
RTVSPropertyOp8
 70
     1
102
RTVSPropertyOp9
 70
     1
102
RTVSPropertyOp10
 70
     1
102
RTVSPropertyOp11
 70
     1
102
RTVSPropertyOp12
 70
     1
102
RTVSPropertyOp13
 70
     1
102
RTVSPropertyOp14
 70
     1
102
RTVSPropertyOp15
 70
     1
102
RTVSPropertyOp16
 70
     1
102
RTVSPropertyOp17
 70
     1
102
RTVSPropertyOp18
 70
     1
102
RTVSPropertyOp19
 70
     1
102
RTVSPropertyOp20
 70
     1
102
RTVSPropertyOp21
 70
     1
102
RTVSPropertyOp22
 70
     1
102
RTVSPropertyOp23
 70
     1
102
RTVSPropertyOp24
 70
     1
102
RTVSPropertyOp25
 70
     1
102
RTVSPropertyOp26
 70
     1
102
RTVSPropertyOp27
 70
     1
102
RTVSPropertyOp28
 70
     1
102
RTVSPropertyOp29
 70
     1
102
RTVSPropertyOp30
 70
     1
102
RTVSPropertyOp31
 70
     1
102
RTVSPropertyOp32
 70
     1
102
RTVSPropertyOp33
 70
     1
102
RTVSPropertyOp34
 70
     1
102
RTVSPropertyOp35
 70
     1
102
RTVSPropertyOp36
 70
     1
102
RTVSPropertyOp37
 70
     1
102
RTVSPropertyOp38
 70
     1
102
RTVSPropertyOp39
 70
     1
102
RTVSPropertyOp40
 70
     1
102
RTVSPropertyOp41
 70
     1
102
RTVSPropertyOp42
 70
     1
102
RTVSPropertyOp43
 70
     1
102
RTVSPropertyOp44
 70
     1
102
RTVSPropertyOp45
 70
     1
102
RTVSPropertyOp46
 70
     1
102
RTVSPropertyOp47
 70
     1
102
RTVSPropertyOp48
 70
     1
102
RTVSPropertyOp49
 70
     1
102
RTVSPropertyOp50
 70
     1
102
RTVSPropertyOp51
 70
     0
102
RTVSPropertyOp52
 70
     0
102
RTVSPropertyOp53
 70
     1
102
RTVSPropertyOp54
 70
     1
102
RTVSPropertyOp55
 70
     1
102
RTVSPropertyOp56
 70
     1
102
RTVSPropertyOp57
 70
     1
102
RTVSPropertyOp58
 70
     1
102
RTVSPropertyOp59
 70
     1
102
RTVSPropertyOp60
 70
     1
102
RTVSPropertyOp61
 70
     1
102
RTVSPropertyOp62
 70
     1
  0
XRECORD
  5
48EA
102
{ACAD_REACTORS
330
48E9
102
}
330
48E9
100
AcDbXrecord
280
     1
102
RTVSPost2010Prop28
280
     0
102
RTVSPost2010PropOp28
 70
     1
102
RTVSPost2010Prop29
280
     1
102
RTVSPost2010PropOp29
 70
     1
102
RTVSPost2010Prop30
280
     1
102
RTVSPost2010PropOp30
 70
     1
102
RTVSPost2010Prop31
280
     0
102
RTVSPost2010PropOp31
 70
     1
102
RTVSPost2010Prop32
280
     0
102
RTVSPost2010PropOp32
 70
     1
102
RTVSPost2010Prop33
280
     0
102
RTVSPost2010PropOp33
 70
     1
102
RTVSPost2010Prop34
280
     0
102
RTVSPost2010PropOp34
 70
     1
102
RTVSPost2010Prop35
280
     0
102
RTVSPost2010PropOp35
 70
     1
102
RTVSPost2010Prop36
280
     0
102
RTVSPost2010PropOp36
 70
     1
102
RTVSPost2010Prop37
 90
       50
102
RTVSPost2010PropOp37
 70
     1
102
RTVSPost2010Prop38
140
0.0
102
RTVSPost2010PropOp38
 70
     1
102
RTVSPost2010Prop39
140
1.0
102
RTVSPost2010PropOp39
 70
     1
102
RTVSPost2010Prop40
 90
        0
102
RTVSPost2010PropOp40
 70
     1
102
RTVSPost2010Prop41ColorIndex
 90
       18
102
RTVSPost2010Prop41ColorRGB
 90
        0
102
RTVSPost2010PropOp41
 70
     1
102
RTVSPost2010Prop42
 90
       50
102
RTVSPost2010PropOp42
 70
     1
102
RTVSPost2010Prop43
 90
        3
102
RTVSPost2010PropOp43
 70
     1
102
RTVSPost2010Prop44ColorIndex
 90
        5
102
RTVSPost2010Prop44ColorRGB
 90
      255
102
RTVSPost2010PropOp44
 70
     1
102
RTVSPost2010Prop45
280
     0
102
RTVSPost2010PropOp45
 70
     1
102
RTVSPost2010Prop46
 90
       50
102
RTVSPost2010PropOp46
 70
     1
102
RTVSPost2010Prop47
 90
       50
102
RTVSPost2010PropOp47
 70
     1
102
RTVSPost2010Prop48
 90
       50
102
RTVSPost2010PropOp48
 70
     1
102
RTVSPost2010Prop49
280
     0
102
RTVSPost2010PropOp49
 70
     1
102
RTVSPost2010Prop50
 90
       50
102
RTVSPost2010PropOp50
 70
     1
102
RTVSPost2010Prop51ColorIndex
 90
      256
102
RTVSPost2010Prop51ColorRGB
 90
-16777216
102
RTVSPost2010PropOp51
 70
     0
102
RTVSPost2010Prop52
140
1.0
102
RTVSPost2010PropOp52
 70
     0
102
RTVSPost2010Prop53
 90
        2
102
RTVSPost2010PropOp53
 70
     1
102
RTVSPost2010Prop54
  1
strokes_ogs.tif
102
RTVSPost2010PropOp54
 70
     1
102
RTVSPost2010Prop55
280
     0
102
RTVSPost2010PropOp55
 70
     1
102
RTVSPost2010Prop56
140
1.0
102
RTVSPost2010PropOp56
 70
     1
102
RTVSPost2010Prop57
140
1.0
102
RTVSPost2010PropOp57
 70
     1
102
RTVSPropertyOp0
 70
     1
102
RTVSPropertyOp1
 70
     1
102
RTVSPropertyOp2
 70
     1
102
RTVSPropertyOp3
 70
     1
102
RTVSPropertyOp4
 70
     1
102
RTVSPropertyOp5
 70
     1
102
RTVSPropertyOp6
 70
     1
102
RTVSPropertyOp7
 70
     1
102
RTVSPropertyOp8
 70
     1
102
RTVSPropertyOp9
 70
     1
102
RTVSPropertyOp10
 70
     1
102
RTVSPropertyOp11
 70
     1
102
RTVSPropertyOp12
 70
     1
102
RTVSPropertyOp13
 70
     1
102
RTVSPropertyOp14
 70
     1
102
RTVSPropertyOp15
 70
     1
102
RTVSPropertyOp16
 70
     1
102
RTVSPropertyOp17
 70
     1
102
RTVSPropertyOp18
 70
     1
102
RTVSPropertyOp19
 70
     1
102
RTVSPropertyOp20
 70
     1
102
RTVSPropertyOp21
 70
     1
102
RTVSPropertyOp22
 70
     1
102
RTVSPropertyOp23
 70
     1
102
RTVSPropertyOp24
 70
     1
102
RTVSPropertyOp25
 70
     1
102
RTVSPropertyOp26
 70
     1
102
RTVSPropertyOp27
 70
     1
102
RTVSPropertyOp28
 70
     1
102
RTVSPropertyOp29
 70
     1
102
RTVSPropertyOp30
 70
     1
102
RTVSPropertyOp31
 70
     1
102
RTVSPropertyOp32
 70
     1
102
RTVSPropertyOp33
 70
     1
102
RTVSPropertyOp34
 70
     1
102
RTVSPropertyOp35
 70
     1
102
RTVSPropertyOp36
 70
     1
102
RTVSPropertyOp37
 70
     1
102
RTVSPropertyOp38
 70
     1
102
RTVSPropertyOp39
 70
     1
102
RTVSPropertyOp40
 70
     1
102
RTVSPropertyOp41
 70
     1
102
RTVSPropertyOp42
 70
     1
102
RTVSPropertyOp43
 70
     1
102
RTVSPropertyOp44
 70
     1
102
RTVSPropertyOp45
 70
     1
102
RTVSPropertyOp46
 70
     1
102
RTVSPropertyOp47
 70
     1
102
RTVSPropertyOp48
 70
     1
102
RTVSPropertyOp49
 70
     1
102
RTVSPropertyOp50
 70
     1
102
RTVSPropertyOp51
 70
     0
102
RTVSPropertyOp52
 70
     0
102
RTVSPropertyOp53
 70
     1
102
RTVSPropertyOp54
 70
     1
102
RTVSPropertyOp55
 70
     1
102
RTVSPropertyOp56
 70
     1
102
RTVSPropertyOp57
 70
     1
102
RTVSPropertyOp58
 70
     1
102
RTVSPropertyOp59
 70
     1
102
RTVSPropertyOp60
 70
     1
102
RTVSPropertyOp61
 70
     1
102
RTVSPropertyOp62
 70
     1
  0
XRECORD
  5
48E0
102
{ACAD_REACTORS
330
48DF
102
}
330
48DF
100
AcDbXrecord
280
     1
102
RTVSPost2010Prop28
280
     0
102
RTVSPost2010PropOp28
 70
     1
102
RTVSPost2010Prop29
280
     1
102
RTVSPost2010PropOp29
 70
     1
102
RTVSPost2010Prop30
280
     1
102
RTVSPost2010PropOp30
 70
     1
102
RTVSPost2010Prop31
280
     0
102
RTVSPost2010PropOp31
 70
     1
102
RTVSPost2010Prop32
280
     0
102
RTVSPost2010PropOp32
 70
     1
102
RTVSPost2010Prop33
280
     0
102
RTVSPost2010PropOp33
 70
     1
102
RTVSPost2010Prop34
280
     0
102
RTVSPost2010PropOp34
 70
     1
102
RTVSPost2010Prop35
280
     0
102
RTVSPost2010PropOp35
 70
     1
102
RTVSPost2010Prop36
280
     0
102
RTVSPost2010PropOp36
 70
     1
102
RTVSPost2010Prop37
 90
       50
102
RTVSPost2010PropOp37
 70
     1
102
RTVSPost2010Prop38
140
0.0
102
RTVSPost2010PropOp38
 70
     1
102
RTVSPost2010Prop39
140
1.0
102
RTVSPost2010PropOp39
 70
     1
102
RTVSPost2010Prop40
 90
        0
102
RTVSPost2010PropOp40
 70
     1
102
RTVSPost2010Prop41ColorIndex
 90
       18
102
RTVSPost2010Prop41ColorRGB
 90
        0
102
RTVSPost2010PropOp41
 70
     1
102
RTVSPost2010Prop42
 90
       50
102
RTVSPost2010PropOp42
 70
     1
102
RTVSPost2010Prop43
 90
        3
102
RTVSPost2010PropOp43
 70
     1
102
RTVSPost2010Prop44ColorIndex
 90
        5
102
RTVSPost2010Prop44ColorRGB
 90
      255
102
RTVSPost2010PropOp44
 70
     1
102
RTVSPost2010Prop45
280
     0
102
RTVSPost2010PropOp45
 70
     1
102
RTVSPost2010Prop46
 90
       50
102
RTVSPost2010PropOp46
 70
     1
102
RTVSPost2010Prop47
 90
       50
102
RTVSPost2010PropOp47
 70
     1
102
RTVSPost2010Prop48
 90
       50
102
RTVSPost2010PropOp48
 70
     1
102
RTVSPost2010Prop49
280
     0
102
RTVSPost2010PropOp49
 70
     1
102
RTVSPost2010Prop50
 90
       50
102
RTVSPost2010PropOp50
 70
     1
102
RTVSPost2010Prop51ColorIndex
 90
      256
102
RTVSPost2010Prop51ColorRGB
 90
-16777216
102
RTVSPost2010PropOp51
 70
     0
102
RTVSPost2010Prop52
140
1.0
102
RTVSPost2010PropOp52
 70
     0
102
RTVSPost2010Prop53
 90
        2
102
RTVSPost2010PropOp53
 70
     1
102
RTVSPost2010Prop54
  1
strokes_ogs.tif
102
RTVSPost2010PropOp54
 70
     1
102
RTVSPost2010Prop55
280
     0
102
RTVSPost2010PropOp55
 70
     1
102
RTVSPost2010Prop56
140
1.0
102
RTVSPost2010PropOp56
 70
     1
102
RTVSPost2010Prop57
140
1.0
102
RTVSPost2010PropOp57
 70
     1
102
RTVSPropertyOp0
 70
     1
102
RTVSPropertyOp1
 70
     1
102
RTVSPropertyOp2
 70
     1
102
RTVSPropertyOp3
 70
     1
102
RTVSPropertyOp4
 70
     1
102
RTVSPropertyOp5
 70
     1
102
RTVSPropertyOp6
 70
     1
102
RTVSPropertyOp7
 70
     1
102
RTVSPropertyOp8
 70
     1
102
RTVSPropertyOp9
 70
     1
102
RTVSPropertyOp10
 70
     1
102
RTVSPropertyOp11
 70
     1
102
RTVSPropertyOp12
 70
     1
102
RTVSPropertyOp13
 70
     1
102
RTVSPropertyOp14
 70
     1
102
RTVSPropertyOp15
 70
     1
102
RTVSPropertyOp16
 70
     1
102
RTVSPropertyOp17
 70
     1
102
RTVSPropertyOp18
 70
     1
102
RTVSPropertyOp19
 70
     1
102
RTVSPropertyOp20
 70
     1
102
RTVSPropertyOp21
 70
     1
102
RTVSPropertyOp22
 70
     1
102
RTVSPropertyOp23
 70
     1
102
RTVSPropertyOp24
 70
     1
102
RTVSPropertyOp25
 70
     1
102
RTVSPropertyOp26
 70
     1
102
RTVSPropertyOp27
 70
     1
102
RTVSPropertyOp28
 70
     1
102
RTVSPropertyOp29
 70
     1
102
RTVSPropertyOp30
 70
     1
102
RTVSPropertyOp31
 70
     1
102
RTVSPropertyOp32
 70
     1
102
RTVSPropertyOp33
 70
     1
102
RTVSPropertyOp34
 70
     1
102
RTVSPropertyOp35
 70
     1
102
RTVSPropertyOp36
 70
     1
102
RTVSPropertyOp37
 70
     1
102
RTVSPropertyOp38
 70
     1
102
RTVSPropertyOp39
 70
     1
102
RTVSPropertyOp40
 70
     1
102
RTVSPropertyOp41
 70
     1
102
RTVSPropertyOp42
 70
     1
102
RTVSPropertyOp43
 70
     1
102
RTVSPropertyOp44
 70
     1
102
RTVSPropertyOp45
 70
     1
102
RTVSPropertyOp46
 70
     1
102
RTVSPropertyOp47
 70
     1
102
RTVSPropertyOp48
 70
     1
102
RTVSPropertyOp49
 70
     1
102
RTVSPropertyOp50
 70
     1
102
RTVSPropertyOp51
 70
     0
102
RTVSPropertyOp52
 70
     0
102
RTVSPropertyOp53
 70
     1
102
RTVSPropertyOp54
 70
     1
102
RTVSPropertyOp55
 70
     1
102
RTVSPropertyOp56
 70
     1
102
RTVSPropertyOp57
 70
     1
102
RTVSPropertyOp58
 70
     1
102
RTVSPropertyOp59
 70
     1
102
RTVSPropertyOp60
 70
     1
102
RTVSPropertyOp61
 70
     1
102
RTVSPropertyOp62
 70
     1
  0
XRECORD
  5
48D4
102
{ACAD_REACTORS
330
48D3
102
}
330
48D3
100
AcDbXrecord
280
     1
102
RTVSPost2010Prop28
280
     0
102
RTVSPost2010PropOp28
 70
     1
102
RTVSPost2010Prop29
280
     1
102
RTVSPost2010PropOp29
 70
     1
102
RTVSPost2010Prop30
280
     1
102
RTVSPost2010PropOp30
 70
     1
102
RTVSPost2010Prop31
280
     0
102
RTVSPost2010PropOp31
 70
     1
102
RTVSPost2010Prop32
280
     0
102
RTVSPost2010PropOp32
 70
     1
102
RTVSPost2010Prop33
280
     0
102
RTVSPost2010PropOp33
 70
     1
102
RTVSPost2010Prop34
280
     0
102
RTVSPost2010PropOp34
 70
     1
102
RTVSPost2010Prop35
280
     0
102
RTVSPost2010PropOp35
 70
     1
102
RTVSPost2010Prop36
280
     0
102
RTVSPost2010PropOp36
 70
     1
102
RTVSPost2010Prop37
 90
       50
102
RTVSPost2010PropOp37
 70
     1
102
RTVSPost2010Prop38
140
0.0
102
RTVSPost2010PropOp38
 70
     1
102
RTVSPost2010Prop39
140
1.0
102
RTVSPost2010PropOp39
 70
     1
102
RTVSPost2010Prop40
 90
        0
102
RTVSPost2010PropOp40
 70
     1
102
RTVSPost2010Prop41ColorIndex
 90
       18
102
RTVSPost2010Prop41ColorRGB
 90
        0
102
RTVSPost2010PropOp41
 70
     1
102
RTVSPost2010Prop42
 90
       50
102
RTVSPost2010PropOp42
 70
     1
102
RTVSPost2010Prop43
 90
        3
102
RTVSPost2010PropOp43
 70
     1
102
RTVSPost2010Prop44ColorIndex
 90
        5
102
RTVSPost2010Prop44ColorRGB
 90
      255
102
RTVSPost2010PropOp44
 70
     1
102
RTVSPost2010Prop45
280
     0
102
RTVSPost2010PropOp45
 70
     1
102
RTVSPost2010Prop46
 90
       50
102
RTVSPost2010PropOp46
 70
     1
102
RTVSPost2010Prop47
 90
       50
102
RTVSPost2010PropOp47
 70
     1
102
RTVSPost2010Prop48
 90
       50
102
RTVSPost2010PropOp48
 70
     1
102
RTVSPost2010Prop49
280
     0
102
RTVSPost2010PropOp49
 70
     1
102
RTVSPost2010Prop50
 90
       50
102
RTVSPost2010PropOp50
 70
     1
102
RTVSPost2010Prop51ColorIndex
 90
      256
102
RTVSPost2010Prop51ColorRGB
 90
-16777216
102
RTVSPost2010PropOp51
 70
     0
102
RTVSPost2010Prop52
140
1.0
102
RTVSPost2010PropOp52
 70
     0
102
RTVSPost2010Prop53
 90
        2
102
RTVSPost2010PropOp53
 70
     1
102
RTVSPost2010Prop54
  1
strokes_ogs.tif
102
RTVSPost2010PropOp54
 70
     1
102
RTVSPost2010Prop55
280
     0
102
RTVSPost2010PropOp55
 70
     1
102
RTVSPost2010Prop56
140
1.0
102
RTVSPost2010PropOp56
 70
     1
102
RTVSPost2010Prop57
140
1.0
102
RTVSPost2010PropOp57
 70
     1
102
RTVSPropertyOp0
 70
     1
102
RTVSPropertyOp1
 70
     1
102
RTVSPropertyOp2
 70
     1
102
RTVSPropertyOp3
 70
     1
102
RTVSPropertyOp4
 70
     1
102
RTVSPropertyOp5
 70
     1
102
RTVSPropertyOp6
 70
     1
102
RTVSPropertyOp7
 70
     1
102
RTVSPropertyOp8
 70
     1
102
RTVSPropertyOp9
 70
     1
102
RTVSPropertyOp10
 70
     1
102
RTVSPropertyOp11
 70
     1
102
RTVSPropertyOp12
 70
     1
102
RTVSPropertyOp13
 70
     1
102
RTVSPropertyOp14
 70
     1
102
RTVSPropertyOp15
 70
     1
102
RTVSPropertyOp16
 70
     1
102
RTVSPropertyOp17
 70
     1
102
RTVSPropertyOp18
 70
     1
102
RTVSPropertyOp19
 70
     1
102
RTVSPropertyOp20
 70
     1
102
RTVSPropertyOp21
 70
     1
102
RTVSPropertyOp22
 70
     1
102
RTVSPropertyOp23
 70
     1
102
RTVSPropertyOp24
 70
     1
102
RTVSPropertyOp25
 70
     1
102
RTVSPropertyOp26
 70
     1
102
RTVSPropertyOp27
 70
     1
102
RTVSPropertyOp28
 70
     1
102
RTVSPropertyOp29
 70
     1
102
RTVSPropertyOp30
 70
     1
102
RTVSPropertyOp31
 70
     1
102
RTVSPropertyOp32
 70
     1
102
RTVSPropertyOp33
 70
     1
102
RTVSPropertyOp34
 70
     1
102
RTVSPropertyOp35
 70
     1
102
RTVSPropertyOp36
 70
     1
102
RTVSPropertyOp37
 70
     1
102
RTVSPropertyOp38
 70
     1
102
RTVSPropertyOp39
 70
     1
102
RTVSPropertyOp40
 70
     1
102
RTVSPropertyOp41
 70
     1
102
RTVSPropertyOp42
 70
     1
102
RTVSPropertyOp43
 70
     1
102
RTVSPropertyOp44
 70
     1
102
RTVSPropertyOp45
 70
     1
102
RTVSPropertyOp46
 70
     1
102
RTVSPropertyOp47
 70
     1
102
RTVSPropertyOp48
 70
     1
102
RTVSPropertyOp49
 70
     1
102
RTVSPropertyOp50
 70
     1
102
RTVSPropertyOp51
 70
     0
102
RTVSPropertyOp52
 70
     0
102
RTVSPropertyOp53
 70
     1
102
RTVSPropertyOp54
 70
     1
102
RTVSPropertyOp55
 70
     1
102
RTVSPropertyOp56
 70
     1
102
RTVSPropertyOp57
 70
     1
102
RTVSPropertyOp58
 70
     1
102
RTVSPropertyOp59
 70
     1
102
RTVSPropertyOp60
 70
     1
102
RTVSPropertyOp61
 70
     1
102
RTVSPropertyOp62
 70
     1
  0
XRECORD
  5
48EC
102
{ACAD_REACTORS
330
48EB
102
}
330
48EB
100
AcDbXrecord
280
     1
102
RTVSPost2010Prop28
280
     0
102
RTVSPost2010PropOp28
 70
     1
102
RTVSPost2010Prop29
280
     1
102
RTVSPost2010PropOp29
 70
     1
102
RTVSPost2010Prop30
280
     1
102
RTVSPost2010PropOp30
 70
     1
102
RTVSPost2010Prop31
280
     0
102
RTVSPost2010PropOp31
 70
     1
102
RTVSPost2010Prop32
280
     0
102
RTVSPost2010PropOp32
 70
     1
102
RTVSPost2010Prop33
280
     0
102
RTVSPost2010PropOp33
 70
     1
102
RTVSPost2010Prop34
280
     0
102
RTVSPost2010PropOp34
 70
     1
102
RTVSPost2010Prop35
280
     0
102
RTVSPost2010PropOp35
 70
     1
102
RTVSPost2010Prop36
280
     0
102
RTVSPost2010PropOp36
 70
     1
102
RTVSPost2010Prop37
 90
       50
102
RTVSPost2010PropOp37
 70
     1
102
RTVSPost2010Prop38
140
0.0
102
RTVSPost2010PropOp38
 70
     1
102
RTVSPost2010Prop39
140
1.0
102
RTVSPost2010PropOp39
 70
     1
102
RTVSPost2010Prop40
 90
        0
102
RTVSPost2010PropOp40
 70
     1
102
RTVSPost2010Prop41ColorIndex
 90
       18
102
RTVSPost2010Prop41ColorRGB
 90
        0
102
RTVSPost2010PropOp41
 70
     1
102
RTVSPost2010Prop42
 90
       50
102
RTVSPost2010PropOp42
 70
     1
102
RTVSPost2010Prop43
 90
        3
102
RTVSPost2010PropOp43
 70
     1
102
RTVSPost2010Prop44ColorIndex
 90
        5
102
RTVSPost2010Prop44ColorRGB
 90
      255
102
RTVSPost2010PropOp44
 70
     1
102
RTVSPost2010Prop45
280
     0
102
RTVSPost2010PropOp45
 70
     1
102
RTVSPost2010Prop46
 90
       50
102
RTVSPost2010PropOp46
 70
     1
102
RTVSPost2010Prop47
 90
       50
102
RTVSPost2010PropOp47
 70
     1
102
RTVSPost2010Prop48
 90
       50
102
RTVSPost2010PropOp48
 70
     1
102
RTVSPost2010Prop49
280
     0
102
RTVSPost2010PropOp49
 70
     1
102
RTVSPost2010Prop50
 90
       50
102
RTVSPost2010PropOp50
 70
     1
102
RTVSPost2010Prop51ColorIndex
 90
      256
102
RTVSPost2010Prop51ColorRGB
 90
-16777216
102
RTVSPost2010PropOp51
 70
     0
102
RTVSPost2010Prop52
140
1.0
102
RTVSPost2010PropOp52
 70
     0
102
RTVSPost2010Prop53
 90
        2
102
RTVSPost2010PropOp53
 70
     1
102
RTVSPost2010Prop54
  1
strokes_ogs.tif
102
RTVSPost2010PropOp54
 70
     1
102
RTVSPost2010Prop55
280
     0
102
RTVSPost2010PropOp55
 70
     1
102
RTVSPost2010Prop56
140
1.0
102
RTVSPost2010PropOp56
 70
     1
102
RTVSPost2010Prop57
140
1.0
102
RTVSPost2010PropOp57
 70
     1
102
RTVSPropertyOp0
 70
     1
102
RTVSPropertyOp1
 70
     1
102
RTVSPropertyOp2
 70
     1
102
RTVSPropertyOp3
 70
     1
102
RTVSPropertyOp4
 70
     1
102
RTVSPropertyOp5
 70
     1
102
RTVSPropertyOp6
 70
     1
102
RTVSPropertyOp7
 70
     1
102
RTVSPropertyOp8
 70
     1
102
RTVSPropertyOp9
 70
     1
102
RTVSPropertyOp10
 70
     1
102
RTVSPropertyOp11
 70
     1
102
RTVSPropertyOp12
 70
     1
102
RTVSPropertyOp13
 70
     1
102
RTVSPropertyOp14
 70
     1
102
RTVSPropertyOp15
 70
     1
102
RTVSPropertyOp16
 70
     1
102
RTVSPropertyOp17
 70
     1
102
RTVSPropertyOp18
 70
     1
102
RTVSPropertyOp19
 70
     1
102
RTVSPropertyOp20
 70
     1
102
RTVSPropertyOp21
 70
     1
102
RTVSPropertyOp22
 70
     1
102
RTVSPropertyOp23
 70
     1
102
RTVSPropertyOp24
 70
     1
102
RTVSPropertyOp25
 70
     1
102
RTVSPropertyOp26
 70
     1
102
RTVSPropertyOp27
 70
     1
102
RTVSPropertyOp28
 70
     1
102
RTVSPropertyOp29
 70
     1
102
RTVSPropertyOp30
 70
     1
102
RTVSPropertyOp31
 70
     1
102
RTVSPropertyOp32
 70
     1
102
RTVSPropertyOp33
 70
     1
102
RTVSPropertyOp34
 70
     1
102
RTVSPropertyOp35
 70
     1
102
RTVSPropertyOp36
 70
     1
102
RTVSPropertyOp37
 70
     1
102
RTVSPropertyOp38
 70
     1
102
RTVSPropertyOp39
 70
     1
102
RTVSPropertyOp40
 70
     1
102
RTVSPropertyOp41
 70
     1
102
RTVSPropertyOp42
 70
     1
102
RTVSPropertyOp43
 70
     1
102
RTVSPropertyOp44
 70
     1
102
RTVSPropertyOp45
 70
     1
102
RTVSPropertyOp46
 70
     1
102
RTVSPropertyOp47
 70
     1
102
RTVSPropertyOp48
 70
     1
102
RTVSPropertyOp49
 70
     1
102
RTVSPropertyOp50
 70
     1
102
RTVSPropertyOp51
 70
     0
102
RTVSPropertyOp52
 70
     0
102
RTVSPropertyOp53
 70
     1
102
RTVSPropertyOp54
 70
     1
102
RTVSPropertyOp55
 70
     1
102
RTVSPropertyOp56
 70
     1
102
RTVSPropertyOp57
 70
     1
102
RTVSPropertyOp58
 70
     1
102
RTVSPropertyOp59
 70
     1
102
RTVSPropertyOp60
 70
     1
102
RTVSPropertyOp61
 70
     1
102
RTVSPropertyOp62
 70
     1
  0
ENDSEC
  0
EOF
