  0
SECTION
  2
HEADER
  9
$ACADVER
  1
AC1018
  9
$ACADMAINTVER
 70
   104
  9
$DWGCODEPAGE
  3
ANSI_1250
  9
$LASTSAVEDBY
  1
EVA
  9
$INSBASE
 10
0.0
 20
0.0
 30
0.0
  9
$EXTMIN
 10
114.350323163513
 20
201.5467711123406
 30
0.0
  9
$EXTMAX
 10
1026.16817219795
 20
1328.975914855825
 30
0.0
  9
$LIMMIN
 10
0.0
 20
0.0
  9
$LIMMAX
 10
271.6285070728513
 20
136.3429239280804
  9
$ORTHOMODE
 70
     1
  9
$REGENMODE
 70
     1
  9
$FILLMODE
 70
     1
  9
$QTEXTMODE
 70
     0
  9
$MIRRTEXT
 70
     0
  9
$LTSCALE
 40
15.0
  9
$ATTMODE
 70
     1
  9
$TEXTSIZE
 40
2.5
  9
$TRACEWID
 40
1.0
  9
$TEXTSTYLE
  7
ROMANS
  9
$CLAYER
  8
V25
  9
$CELTYPE
  6
CONTINUOUS
  9
$CECOLOR
 62
   256
  9
$CELTSCALE
 40
5.0
  9
$DISPSILH
 70
     0
  9
$DIMSCALE
 40
5.0
  9
$DIMASZ
 40
3.5
  9
$DIMEXO
 40
0.0
  9
$DIMDLI
 40
3.75
  9
$DIMRND
 40
0.0
  9
$DIMDLE
 40
0.0
  9
$DIMEXE
 40
1.25
  9
$DIMTP
 40
0.0
  9
$DIMTM
 40
0.0
  9
$DIMTXT
 40
3.5
  9
$DIMCEN
 40
3.5
  9
$DIMTSZ
 40
0.0
  9
$DIMTOL
 70
     0
  9
$DIMLIM
 70
     0
  9
$DIMTIH
 70
     0
  9
$DIMTOH
 70
     0
  9
$DIMSE1
 70
     0
  9
$DIMSE2
 70
     0
  9
$DIMTAD
 70
     1
  9
$DIMZIN
 70
     8
  9
$DIMBLK
  1

  9
$DIMASO
 70
     1
  9
$DIMSHO
 70
     1
  9
$DIMPOST
  1

  9
$DIMAPOST
  1

  9
$DIMALT
 70
     0
  9
$DIMALTD
 70
     4
  9
$DIMALTF
 40
0.0394
  9
$DIMLFAC
 40
1.0
  9
$DIMTOFL
 70
     0
  9
$DIMTVP
 40
0.0
  9
$DIMTIX
 70
     0
  9
$DIMSOXD
 70
     0
  9
$DIMSAH
 70
     0
  9
$DIMBLK1
  1

  9
$DIMBLK2
  1

  9
$DIMSTYLE
  2
18
  9
$DIMCLRD
 70
     0
  9
$DIMCLRE
 70
     0
  9
$DIMCLRT
 70
     2
  9
$DIMTFAC
 40
1.0
  9
$DIMGAP
 40
0.625
  9
$DIMJUST
 70
     0
  9
$DIMSD1
 70
     0
  9
$DIMSD2
 70
     0
  9
$DIMTOLJ
 70
     1
  9
$DIMTZIN
 70
     0
  9
$DIMALTZ
 70
     0
  9
$DIMALTTZ
 70
     0
  9
$DIMUPT
 70
     0
  9
$DIMDEC
 70
     0
  9
$DIMTDEC
 70
     4
  9
$DIMALTU
 70
     8
  9
$DIMALTTD
 70
     4
  9
$DIMTXSTY
  7
ROMANS
  9
$DIMAUNIT
 70
     0
  9
$DIMADEC
 70
     0
  9
$DIMALTRND
 40
0.0
  9
$DIMAZIN
 70
     0
  9
$DIMDSEP
 70
    46
  9
$DIMATFIT
 70
     3
  9
$DIMFRAC
 70
     0
  9
$DIMLDRBLK
  1

  9
$DIMLUNIT
 70
     6
  9
$DIMLWD
 70
    -2
  9
$DIMLWE
 70
    -2
  9
$DIMTMOVE
 70
     0
  9
$LUNITS
 70
     2
  9
$LUPREC
 70
     4
  9
$SKETCHINC
 40
1.0
  9
$FILLETRAD
 40
0.0
  9
$AUNITS
 70
     0
  9
$AUPREC
 70
     0
  9
$MENU
  1
.
  9
$ELEVATION
 40
0.0
  9
$PELEVATION
 40
0.0
  9
$THICKNESS
 40
0.0
  9
$LIMCHECK
 70
     0
  9
$CHAMFERA
 40
10.0
  9
$CHAMFERB
 40
10.0
  9
$CHAMFERC
 40
20.0
  9
$CHAMFERD
 40
0.0
  9
$SKPOLY
 70
     0
  9
$TDCREATE
 40
2451600.645418067
  9
$TDUCREATE
 40
2451600.562084734
  9
$TDUPDATE
 40
2457248.485229989
  9
$TDUUPDATE
 40
2457248.401896655
  9
$TDINDWG
 40
2.1269237269
  9
$TDUSRTIMER
 40
2.1269234954
  9
$USRTIMER
 70
     1
  9
$ANGBASE
 50
0.0
  9
$ANGDIR
 70
     0
  9
$PDMODE
 70
     0
  9
$PDSIZE
 40
0.0
  9
$PLINEWID
 40
0.0
  9
$SPLFRAME
 70
     0
  9
$SPLINETYPE
 70
     6
  9
$SPLINESEGS
 70
     8
  9
$HANDSEED
  5
4FF9
  9
$SURFTAB1
 70
     6
  9
$SURFTAB2
 70
     6
  9
$SURFTYPE
 70
     6
  9
$SURFU
 70
     6
  9
$SURFV
 70
     6
  9
$UCSBASE
  2

  9
$UCSNAME
  2

  9
$UCSORG
 10
114.5246346490083
 20
833.4035571075705
 30
0.0
  9
$UCSXDIR
 10
1.0
 20
0.0
 30
0.0
  9
$UCSYDIR
 10
0.0
 20
1.0
 30
0.0
  9
$UCSORTHOREF
  2

  9
$UCSORTHOVIEW
 70
     0
  9
$UCSORGTOP
 10
0.0
 20
0.0
 30
0.0
  9
$UCSORGBOTTOM
 10
0.0
 20
0.0
 30
0.0
  9
$UCSORGLEFT
 10
0.0
 20
0.0
 30
0.0
  9
$UCSORGRIGHT
 10
0.0
 20
0.0
 30
0.0
  9
$UCSORGFRONT
 10
0.0
 20
0.0
 30
0.0
  9
$UCSORGBACK
 10
0.0
 20
0.0
 30
0.0
  9
$PUCSBASE
  2

  9
$PUCSNAME
  2

  9
$PUCSORG
 10
0.0
 20
0.0
 30
0.0
  9
$PUCSXDIR
 10
1.0
 20
0.0
 30
0.0
  9
$PUCSYDIR
 10
0.0
 20
1.0
 30
0.0
  9
$PUCSORTHOREF
  2

  9
$PUCSORTHOVIEW
 70
     0
  9
$PUCSORGTOP
 10
0.0
 20
0.0
 30
0.0
  9
$PUCSORGBOTTOM
 10
0.0
 20
0.0
 30
0.0
  9
$PUCSORGLEFT
 10
0.0
 20
0.0
 30
0.0
  9
$PUCSORGRIGHT
 10
0.0
 20
0.0
 30
0.0
  9
$PUCSORGFRONT
 10
0.0
 20
0.0
 30
0.0
  9
$PUCSORGBACK
 10
0.0
 20
0.0
 30
0.0
  9
$USERI1
 70
     0
  9
$USERI2
 70
     0
  9
$USERI3
 70
     0
  9
$USERI4
 70
     0
  9
$USERI5
 70
     0
  9
$USERR1
 40
0.0
  9
$USERR2
 40
0.0
  9
$USERR3
 40
0.0
  9
$USERR4
 40
0.0
  9
$USERR5
 40
0.0
  9
$WORLDVIEW
 70
     1
  9
$SHADEDGE
 70
     3
  9
$SHADEDIF
 70
    70
  9
$TILEMODE
 70
     0
  9
$MAXACTVP
 70
    48
  9
$PINSBASE
 10
0.0
 20
0.0
 30
0.0
  9
$PLIMCHECK
 70
     0
  9
$PEXTMIN
 10
6.267706897638532
 20
2.237770730918657
 30
0.0
  9
$PEXTMAX
 10
194.9208157801871
 20
280.8711565148491
 30
0.0
  9
$PLIMMIN
 10
-6.043083190917968
 20
-6.762742042541503
  9
$PLIMMAX
 10
203.9302444458008
 20
290.2055807113647
  9
$UNITMODE
 70
     0
  9
$VISRETAIN
 70
     1
  9
$PLINEGEN
 70
     0
  9
$PSLTSCALE
 70
     0
  9
$TREEDEPTH
 70
  3020
  9
$CMLSTYLE
  2
STANDARD
  9
$CMLJUST
 70
     0
  9
$CMLSCALE
 40
20.0
  9
$PROXYGRAPHICS
 70
     1
  9
$MEASUREMENT
 70
     0
  9
$CELWEIGHT
370
    -1
  9
$ENDCAPS
280
     0
  9
$JOINSTYLE
280
     0
  9
$LWDISPLAY
290
     0
  9
$INSUNITS
 70
     0
  9
$HYPERLINKBASE
  1

  9
$STYLESHEET
  1

  9
$XEDIT
290
     1
  9
$CEPSNTYPE
380
     0
  9
$PSTYLEMODE
290
     1
  9
$FINGERPRINTGUID
  2
{9E2E0D10-E48E-11D3-BEBA-006008753510}
  9
$VERSIONGUID
  2
{D72B39DC-0B37-4B26-8CD2-B35A94D1BBDA}
  9
$EXTNAMES
290
     1
  9
$PSVPSCALE
 40
0.0
  9
$OLESTARTUP
290
     0
  9
$SORTENTS
280
    96
  9
$INDEXCTL
280
     0
  9
$HIDETEXT
280
     0
  9
$XCLIPFRAME
290
     0
  9
$HALOGAP
280
     0
  9
$OBSCOLOR
 70
   257
  9
$OBSLTYPE
280
     0
  9
$INTERSECTIONDISPLAY
280
     0
  9
$INTERSECTIONCOLOR
 70
   257
  9
$DIMASSOC
280
     1
  9
$PROJECTNAME
  1

  0
ENDSEC
  0
SECTION
  2
CLASSES
  0
CLASS
  1
ACDBDICTIONARYWDFLT
  2
AcDbDictionaryWithDefault
  3
ObjectDBX Classes
 90
        0
 91
        1
280
     0
281
     0
  0
CLASS
  1
RASTERVARIABLES
  2
AcDbRasterVariables
  3
ISM
 90
        0
 91
        1
280
     0
281
     0
  0
CLASS
  1
IMAGEDEF
  2
AcDbRasterImageDef
  3
ISM
 90
        0
 91
        1
280
     0
281
     0
  0
CLASS
  1
IMAGEDEF_REACTOR
  2
AcDbRasterImageDefReactor
  3
ISM
 90
        1
 91
        0
280
     0
281
     0
  0
CLASS
  1
IMAGE
  2
AcDbRasterImage
  3
ISM
 90
     2175
 91
        0
280
     0
281
     1
  0
CLASS
  1
DICTIONARYVAR
  2
AcDbDictionaryVar
  3
ObjectDBX Classes
 90
        0
 91
       13
280
     0
281
     0
  0
CLASS
  1
PLOTSETTINGS
  2
AcDbPlotSettings
  3
ObjectDBX Classes
 90
        0
 91
        0
280
     0
281
     0
  0
CLASS
  1
MATERIAL
  2
AcDbMaterial
  3
ObjectDBX Classes
 90
     1153
 91
        3
280
     0
281
     0
  0
CLASS
  1
VISUALSTYLE
  2
AcDbVisualStyle
  3
ObjectDBX Classes
 90
     4095
 91
       24
280
     0
281
     0
  0
CLASS
  1
TABLESTYLE
  2
AcDbTableStyle
  3
ObjectDBX Classes
 90
     4095
 91
        1
280
     0
281
     0
  0
CLASS
  1
SCALE
  2
AcDbScale
  3
ObjectDBX Classes
 90
     1153
 91
       17
280
     0
281
     0
  0
CLASS
  1
MLEADERSTYLE
  2
AcDbMLeaderStyle
  3
ACDB_MLEADERSTYLE_CLASS
 90
     4095
 91
        1
280
     0
281
     0
  0
CLASS
  1
ACDBSECTIONVIEWSTYLE
  2
AcDbSectionViewStyle
  3
ObjectDBX Classes
 90
     1025
 91
        1
280
     0
281
     0
  0
CLASS
  1
ACDBDETAILVIEWSTYLE
  2
AcDbDetailViewStyle
  3
ObjectDBX Classes
 90
     1025
 91
        1
280
     0
281
     0
  0
CLASS
  1
CELLSTYLEMAP
  2
AcDbCellStyleMap
  3
ObjectDBX Classes
 90
     1152
 91
        2
280
     0
281
     0
  0
ENDSEC
  0
SECTION
  2
TABLES
  0
TABLE
  2
VPORT
  5
8
330
0
100
AcDbSymbolTable
 70
     1
  0
VPORT
  5
4DEC
330
8
100
AcDbSymbolTableRecord
100
AcDbViewportTableRecord
  2
*Active
 70
     0
 10
0.0
 20
0.0
 11
1.0
 21
1.0
 12
1872.569564305128
 22
628.1155415544169
 13
0.0
 23
0.0
 14
10.0
 24
10.0
 15
10.0
 25
10.0
 16
0.0
 26
0.0
 36
1.0
 17
0.0
 27
0.0
 37
0.0
 40
3303.450421947353
 41
1.581724581724581
 42
50.0
 43
0.0
 44
0.0
 50
0.0
 51
0.0
 71
     0
 72
 20000
 73
     1
 74
     0
 75
     0
 76
     0
 77
     0
 78
     0
281
     0
 65
     1
110
114.5246346490083
120
833.4035571075705
130
0.0
111
1.0
121
0.0
131
0.0
112
0.0
122
1.0
132
0.0
 79
     0
146
0.0
1001
ACAD_NAV_VCDISPLAY
1070
     3
  0
ENDTAB
  0
TABLE
  2
LTYPE
  5
5
330
0
100
AcDbSymbolTable
 70
     7
  0
LTYPE
  5
12
330
5
100
AcDbSymbolTableRecord
100
AcDbLinetypeTableRecord
  2
BYBLOCK
 70
     0
  3

 72
    65
 73
     0
 40
0.0
  0
LTYPE
  5
13
330
5
100
AcDbSymbolTableRecord
100
AcDbLinetypeTableRecord
  2
BYLAYER
 70
     0
  3

 72
    65
 73
     0
 40
0.0
  0
LTYPE
  5
14
330
5
100
AcDbSymbolTableRecord
100
AcDbLinetypeTableRecord
  2
CONTINUOUS
 70
     0
  3
Solid line
 72
    65
 73
     0
 40
0.0
  0
LTYPE
  5
113E
330
5
100
AcDbSymbolTableRecord
100
AcDbLinetypeTableRecord
  2
VERDECKTX2
 70
     0
  3
Verdeckt (2x) ____ ____ ____ ____ ____ ____ ___
 72
    65
 73
     2
 40
19.05
 49
12.7
 74
     0
 49
-6.349999999999999
 74
     0
  0
LTYPE
  5
1205
330
5
100
AcDbSymbolTableRecord
100
AcDbLinetypeTableRecord
  2
GESTRICHELT
 70
     0
  3
__ __ __ __ __ __ __ __ __ __ __ __ __ __ __
 72
    65
 73
     2
 40
0.75
 49
0.5
 74
     0
 49
-0.25
 74
     0
  0
LTYPE
  5
1206
330
5
100
AcDbSymbolTableRecord
100
AcDbLinetypeTableRecord
  2
STRICHPUNKT
 70
     0
  3
__ . __ . __ . __ . __ . __ . __ . __ . __ . __
 72
    65
 73
     4
 40
1.0
 49
0.5
 74
     0
 49
-0.25
 74
     0
 49
0.0
 74
     0
 49
-0.25
 74
     0
  0
LTYPE
  5
1207
330
5
100
AcDbSymbolTableRecord
100
AcDbLinetypeTableRecord
  2
VERDECKT
 70
     0
  3
_ _ _ _ _ _ _ _ _ _ _ _ _ _ _ _ _ _ _ _ _ _ _
 72
    65
 73
     2
 40
0.375
 49
0.25
 74
     0
 49
-0.125
 74
     0
  0
LTYPE
  5
1208
330
5
100
AcDbSymbolTableRecord
100
AcDbLinetypeTableRecord
  2
AUSGEZOGEN
 70
     0
  3
Ausgezogene Linie
 72
    65
 73
     0
 40
0.0
  0
LTYPE
  5
4E38
330
5
100
AcDbSymbolTableRecord
100
AcDbLinetypeTableRecord
  2
PHANTOM2
 70
     0
  3
___ _ _ ___ _ _ ___ _ _ ___ _ _
 72
    65
 73
     6
 40
1.25
 49
0.625
 74
     0
 49
-0.125
 74
     0
 49
0.125
 74
     0
 49
-0.125
 74
     0
 49
0.125
 74
     0
 49
-0.125
 74
     0
  0
ENDTAB
  0
TABLE
  2
LAYER
  5
2
102
{ACAD_XDICTIONARY
360
4E45
102
}
330
0
100
AcDbSymbolTable
 70
    18
  0
LAYER
  5
E
102
{ACAD_XDICTIONARY
360
4E4A
102
}
330
2
100
AcDbSymbolTableRecord
100
AcDbLayerTableRecord
  2
0
 70
     0
 62
     7
  6
CONTINUOUS
370
    -3
390
5E8
  0
LAYER
  5
28
330
2
100
AcDbSymbolTableRecord
100
AcDbLayerTableRecord
  2
DEFPOINTS
 70
     0
 62
     7
  6
CONTINUOUS
290
     0
370
    -3
390
5E8
  0
LAYER
  5
B7
102
{ACAD_XDICTIONARY
360
4E4C
102
}
330
2
100
AcDbSymbolTableRecord
100
AcDbLayerTableRecord
  2
V5
 70
     0
 62
     7
  6
CONTINUOUS
370
    -3
390
5E8
  0
LAYER
  5
8F4
102
{ACAD_XDICTIONARY
360
4E4E
102
}
330
2
100
AcDbSymbolTableRecord
100
AcDbLayerTableRecord
  2
Mansfen
 70
     0
 62
     4
  6
CONTINUOUS
290
     0
370
    -3
390
5E8
  0
LAYER
  5
9AF
102
{ACAD_XDICTIONARY
360
4E50
102
}
330
2
100
AcDbSymbolTableRecord
100
AcDbLayerTableRecord
  2
TXT-E
 70
     0
 62
     1
  6
CONTINUOUS
370
    -3
390
5E8
  0
LAYER
  5
1209
102
{ACAD_XDICTIONARY
360
4E52
102
}
330
2
100
AcDbSymbolTableRecord
100
AcDbLayerTableRecord
  2
V7
 70
     0
 62
     5
  6
CONTINUOUS
370
    -3
390
5E8
  0
LAYER
  5
120A
102
{ACAD_XDICTIONARY
360
4E54
102
}
330
2
100
AcDbSymbolTableRecord
100
AcDbLayerTableRecord
  2
V35
 70
     0
 62
     3
  6
CONTINUOUS
370
    -3
390
5E8
  0
LAYER
  5
120B
102
{ACAD_XDICTIONARY
360
4E56
102
}
330
2
100
AcDbSymbolTableRecord
100
AcDbLayerTableRecord
  2
V25
 70
     0
 62
     4
  6
CONTINUOUS
370
    -3
390
5E8
  0
LAYER
  5
120C
102
{ACAD_XDICTIONARY
360
4E58
102
}
330
2
100
AcDbSymbolTableRecord
100
AcDbLayerTableRecord
  2
SV35
 70
     0
 62
     6
  6
VERDECKT
370
    -3
390
5E8
  0
LAYER
  5
120D
102
{ACAD_XDICTIONARY
360
4E5A
102
}
330
2
100
AcDbSymbolTableRecord
100
AcDbLayerTableRecord
  2
ACHS
 70
     0
 62
     7
  6
STRICHPUNKT
370
    -3
390
5E8
  0
LAYER
  5
120E
102
{ACAD_XDICTIONARY
360
4E5C
102
}
330
2
100
AcDbSymbolTableRecord
100
AcDbLayerTableRecord
  2
TXT-D
 70
     0
 62
     7
  6
CONTINUOUS
370
    -3
390
5E8
  0
LAYER
  5
1211
102
{ACAD_XDICTIONARY
360
4E5E
102
}
330
2
100
AcDbSymbolTableRecord
100
AcDbLayerTableRecord
  2
ISO
 70
     0
 62
     4
  6
AUSGEZOGEN
370
    -3
390
5E8
  0
LAYER
  5
231F
102
{ACAD_XDICTIONARY
360
4E60
102
}
330
2
100
AcDbSymbolTableRecord
100
AcDbLayerTableRecord
  2
KLIPP
 70
     0
 62
     7
  6
CONTINUOUS
370
    -3
390
5E8
  0
LAYER
  5
2320
102
{ACAD_XDICTIONARY
360
4E62
102
}
330
2
100
AcDbSymbolTableRecord
100
AcDbLayerTableRecord
  2
ISOTRI46
 70
     0
 62
     4
  6
AUSGEZOGEN
370
    -3
390
5E8
  0
LAYER
  5
294A
102
{ACAD_XDICTIONARY
360
4E64
102
}
330
2
100
AcDbSymbolTableRecord
100
AcDbLayerTableRecord
  2
BEM
 70
     0
 62
     1
  6
CONTINUOUS
370
    -3
390
5E8
  0
LAYER
  5
294C
102
{ACAD_XDICTIONARY
360
4E66
102
}
330
2
100
AcDbSymbolTableRecord
100
AcDbLayerTableRecord
  2
TXT
 70
     0
 62
     7
  6
CONTINUOUS
370
    -3
390
5E8
  0
LAYER
  5
3456
102
{ACAD_XDICTIONARY
360
4E68
102
}
330
2
100
AcDbSymbolTableRecord
100
AcDbLayerTableRecord
  2
_INSULATION
 70
     0
 62
     4
  6
CONTINUOUS
370
    -3
390
5E8
  0
LAYER
  5
3457
102
{ACAD_XDICTIONARY
360
4E6A
102
}
330
2
100
AcDbSymbolTableRecord
100
AcDbLayerTableRecord
  2
INSULATION
 70
     0
 62
     4
  6
CONTINUOUS
370
    -3
390
5E8
  0
ENDTAB
  0
TABLE
  2
STYLE
  5
3
330
0
100
AcDbSymbolTable
 70
     4
  0
STYLE
  5
F
330
3
100
AcDbSymbolTableRecord
100
AcDbTextStyleTableRecord
  2
STANDARD
 70
     0
 40
0.0
 41
1.0
 50
0.0
 71
     0
 42
2.5
  3
txt
  4

  0
STYLE
  5
BF
330
3
100
AcDbSymbolTableRecord
100
AcDbTextStyleTableRecord
  2
ROMANS
 70
     0
 40
14.0
 41
1.0
 50
0.0
 71
     0
 42
2.5
  3
arial.ttf
  4

1001
ACAD
1000
Arial
1071
       34
  0
STYLE
  5
91F
330
3
100
AcDbSymbolTableRecord
100
AcDbTextStyleTableRecord
  2
Stil1
 70
     0
 40
3.0
 41
1.0
 50
0.0
 71
     0
 42
3.0
  3
arial.ttf
  4

1001
ACAD
1000
Arial
1071
       34
  0
STYLE
  5
2950
330
3
100
AcDbSymbolTableRecord
100
AcDbTextStyleTableRecord
  2
35
 70
     0
 40
0.0
 41
1.0
 50
0.0
 71
     0
 42
3.5
  3
ROMANS8
  4

  0
ENDTAB
  0
TABLE
  2
VIEW
  5
6
330
0
100
AcDbSymbolTable
 70
     0
  0
ENDTAB
  0
TABLE
  2
UCS
  5
7
330
0
100
AcDbSymbolTable
 70
     0
  0
ENDTAB
  0
TABLE
  2
APPID
  5
9
330
0
100
AcDbSymbolTable
 70
     8
  0
APPID
  5
10
330
9
100
AcDbSymbolTableRecord
100
AcDbRegAppTableRecord
  2
ACAD
 70
     0
  0
APPID
  5
1D3F
330
9
100
AcDbSymbolTableRecord
100
AcDbRegAppTableRecord
  2
CONTENTBLOCKICON
 70
     0
  0
APPID
  5
1FA6
330
9
100
AcDbSymbolTableRecord
100
AcDbRegAppTableRecord
  2
_APP0
 70
     0
  0
APPID
  5
2DEE
330
9
100
AcDbSymbolTableRecord
100
AcDbRegAppTableRecord
  2
DCO15
 70
     0
  0
APPID
  5
3A2A
330
9
100
AcDbSymbolTableRecord
100
AcDbRegAppTableRecord
  2
AME_SOL
 70
     0
  0
APPID
  5
4E6C
330
9
100
AcDbSymbolTableRecord
100
AcDbRegAppTableRecord
  2
ACAD_NAV_VCDISPLAY
 70
     0
  0
APPID
  5
4EB3
330
9
100
AcDbSymbolTableRecord
100
AcDbRegAppTableRecord
  2
ACAD_EXEMPT_FROM_CAD_STANDARDS
 70
     0
  0
APPID
  5
4FE5
330
9
100
AcDbSymbolTableRecord
100
AcDbRegAppTableRecord
  2
ACAD_MLEADERVER
 70
     0
  0
ENDTAB
  0
TABLE
  2
DIMSTYLE
  5
A
330
0
100
AcDbSymbolTable
 70
     5
100
AcDbDimStyleTable
 71
     1
340
280
  0
DIMSTYLE
105
280
330
A
100
AcDbSymbolTableRecord
100
AcDbDimStyleTableRecord
  2
18
 70
     0
 40
5.0
 41
3.5
 42
0.0
 43
3.75
 44
1.25
 73
     0
 74
     0
 77
     1
 78
     8
140
3.5
141
3.5
143
0.0394
147
0.625
171
     4
178
     2
271
     0
273
     8
274
     4
277
     6
340
BF
  0
DIMSTYLE
105
4D4C
330
A
100
AcDbSymbolTableRecord
100
AcDbDimStyleTableRecord
  2
70
 70
     0
 40
20.0
 41
3.5
 42
0.0
 43
3.75
 44
1.25
 73
     0
 74
     0
 77
     1
 78
     8
140
3.5
141
3.5
143
0.0394
147
0.625
171
     4
178
     2
271
     0
272
     0
273
     8
274
     4
277
     6
340
BF
  0
DIMSTYLE
105
4D4D
330
A
100
AcDbSymbolTableRecord
100
AcDbDimStyleTableRecord
  2
3
 70
     0
 40
0.0
 41
3.5
 42
0.0
 43
7.0
 44
1.8
 73
     0
 74
     0
 78
     8
140
3.5
141
1.5
147
1.0
178
     2
340
BF
  0
DIMSTYLE
105
4D4E
330
A
100
AcDbSymbolTableRecord
100
AcDbDimStyleTableRecord
  2
125
 70
     0
 40
35.0
 41
3.5
 42
0.0
 43
3.75
 44
1.25
 73
     0
 74
     0
 77
     1
 78
     8
140
3.5
141
3.5
143
0.0394
147
0.625
171
     4
178
     2
271
     0
272
     0
273
     8
274
     4
277
     6
340
BF
  0
DIMSTYLE
105
4D4F
330
A
100
AcDbSymbolTableRecord
100
AcDbDimStyleTableRecord
  2
350
 70
     0
 40
100.0
 41
3.5
 42
0.0
 43
3.75
 44
1.25
 73
     0
 74
     0
 77
     1
 78
     8
140
3.5
141
3.5
143
0.0394
147
0.625
171
     4
178
     2
271
     0
273
     8
274
     4
277
     6
340
BF
  0
ENDTAB
  0
TABLE
  2
BLOCK_RECORD
  5
1
330
0
100
AcDbSymbolTable
 70
    11
  0
BLOCK_RECORD
  5
18
102
{ACAD_XDICTIONARY
360
81C
102
}
330
1
100
AcDbSymbolTableRecord
100
AcDbBlockTableRecord
  2
*MODEL_SPACE
340
5EB
  0
BLOCK_RECORD
  5
15
102
{ACAD_XDICTIONARY
360
81A
102
}
330
1
100
AcDbSymbolTableRecord
100
AcDbBlockTableRecord
  2
*PAPER_SPACE
340
5EC
  0
BLOCK_RECORD
  5
1194
330
1
100
AcDbSymbolTableRecord
100
AcDbBlockTableRecord
  2
Z45-6
340
0
102
{BLKREFS
331
1AFB
102
}
  0
BLOCK_RECORD
  5
11A2
330
1
100
AcDbSymbolTableRecord
100
AcDbBlockTableRecord
  2
*X1
340
0
102
{BLKREFS
331
298C
102
}
  0
BLOCK_RECORD
  5
1810
330
1
100
AcDbSymbolTableRecord
100
AcDbBlockTableRecord
  2
HOLZ
340
0
102
{BLKREFS
331
1BBA
102
}
  0
BLOCK_RECORD
  5
343B
330
1
100
AcDbSymbolTableRecord
100
AcDbBlockTableRecord
  2
DAEMM
340
0
  0
BLOCK_RECORD
  5
38FB
330
1
100
AcDbSymbolTableRecord
100
AcDbBlockTableRecord
  2
L25
340
0
  0
BLOCK_RECORD
  5
391C
330
1
100
AcDbSymbolTableRecord
100
AcDbBlockTableRecord
  2
PA140 Quer
340
0
310
2800000020000000200000000100080000000000000400000000000000000000000000000000000000000000000080000080000000808000800000008000800080800000C0C0C000C0DCC000F0CAA6000020400000206000002080000020A0000020C0000020E00000400000004020000040400000406000004080000040A0
310
000040C0000040E00000600000006020000060400000606000006080000060A0000060C0000060E00000800000008020000080400000806000008080000080A0000080C0000080E00000A0000000A0200000A0400000A0600000A0800000A0A00000A0C00000A0E00000C0000000C0200000C0400000C0600000C0800000C0
310
A00000C0C00000C0E00000E0000000E0200000E0400000E0600000E0800000E0A00000E0C00000E0E00040000000400020004000400040006000400080004000A0004000C0004000E00040200000402020004020400040206000402080004020A0004020C0004020E000404000004040200040404000404060004040800040
310
40A0004040C0004040E00040600000406020004060400040606000406080004060A0004060C0004060E00040800000408020004080400040806000408080004080A0004080C0004080E00040A0000040A0200040A0400040A0600040A0800040A0A00040A0C00040A0E00040C0000040C0200040C0400040C0600040C08000
310
40C0A00040C0C00040C0E00040E0000040E0200040E0400040E0600040E0800040E0A00040E0C00040E0E00080000000800020008000400080006000800080008000A0008000C0008000E00080200000802020008020400080206000802080008020A0008020C0008020E00080400000804020008040400080406000804080
310
008040A0008040C0008040E00080600000806020008060400080606000806080008060A0008060C0008060E00080800000808020008080400080806000808080008080A0008080C0008080E00080A0000080A0200080A0400080A0600080A0800080A0A00080A0C00080A0E00080C0000080C0200080C0400080C0600080C0
310
800080C0A00080C0C00080C0E00080E0000080E0200080E0400080E0600080E0800080E0A00080E0C00080E0E000C0000000C0002000C0004000C0006000C0008000C000A000C000C000C000E000C0200000C0202000C0204000C0206000C0208000C020A000C020C000C020E000C0400000C0402000C0404000C0406000C0
310
408000C040A000C040C000C040E000C0600000C0602000C0604000C0606000C0608000C060A000C060C000C060E000C0800000C0802000C0804000C0806000C0808000C080A000C080C000C080E000C0A00000C0A02000C0A04000C0A06000C0A08000C0A0A000C0A0C000C0A0E000C0C00000C0C02000C0C04000C0C06000
310
C0C08000C0C0A000F0FBFF00A4A0A000808080000000FF0000FF000000FFFF00FF000000FF00FF00FFFF0000FFFFFF0000000000000000000000000000000000000000000000000000000000000000000000000000000000000000FFFFFFFFFFFFFFFFFF00000000000000000000000000000000000000000000FFFFFFFFFF
310
00FFFFFF00FF00000000000000000000000000000000000000000000FF0000FF00FF0000FF0000000000000000000000000000000000000000000000FF0000FF00FF0000FF000000000000000000000000000000000000000000000000FF0000000000FF00000000000000000000000000000000000000000000000000FF00
310
00FF0000FF00000000000000000000000000000000000000000000000000FF0000FF0000FF00000000000000000000000000000000000000000000000000FF0000FF0000FF00000000000000000000000000000000000000000000000000FF0000FF0000FF0000000000000000000000000000000000000000000000000000
310
FF00FF00FF000000000000000000000000000000000000000000000000000000FF00FF00FF000000000000000000000000000000000000000000000000000000FF00FF00FF000000000000000000000000000000000000000000000000000000FF00FF00FF0000000000000000000000000000000000000000000000000000
310
0000FFFFFF0000000000000000000000000000000000000000000000000000000000FFFFFF0000000000000000000000000000000000000000000000000000000000FFFFFF0000000000000000000000000000000000000000000000000000000000FFFFFF0000000000000000000000000000000000000000000000000000
310
000000FFFFFF000000000000000000000000000000000000000000000000000000000000FF00000000000000000000000000000000000000000000000000000000000000FF00000000000000000000000000000000000000000000000000000000000000FF0000000000000000000000000000000000000000000000000000
310
0000000000FF00000000000000000000000000000000000000000000000000000000000000FF00000000000000000000000000000000000000000000000000000000000000FF00000000000000000000000000000000000000000000000000000000000000FF00000000000000000000000000000000000000000000000000
310
000000000000FF00000000000000000000000000000000000000000000000000000000000000FF000000000000000000000000000000000000000000000000000000000000FFFFFF00000000000000000000000000000000000000000000000000000000000000000000000000000000000000000000000000000000000000
310
0000000000000000000000000000000000000000000000000000000000000000000000000000000000000000000000000000000000000000
  0
BLOCK_RECORD
  5
3940
330
1
100
AcDbSymbolTableRecord
100
AcDbBlockTableRecord
  2
AluPers
340
0
  0
BLOCK_RECORD
  5
3981
330
1
100
AcDbSymbolTableRecord
100
AcDbBlockTableRecord
  2
E140s
340
0
  0
BLOCK_RECORD
  5
399A
330
1
100
AcDbSymbolTableRecord
100
AcDbBlockTableRecord
  2
e140
340
0
  0
BLOCK_RECORD
  5
4ED7
102
{ACAD_XDICTIONARY
360
4EF4
102
}
330
1
100
AcDbSymbolTableRecord
100
AcDbBlockTableRecord
  2
A$C564459C5
340
0
  0
BLOCK_RECORD
  5
4EFE
102
{ACAD_XDICTIONARY
360
4F00
102
}
330
1
100
AcDbSymbolTableRecord
100
AcDbBlockTableRecord
  2
A$C35F5568E
340
0
  0
ENDTAB
  0
ENDSEC
  0
SECTION
  2
BLOCKS
  0
BLOCK
  5
19
330
18
100
AcDbEntity
  8
0
100
AcDbBlockBegin
  2
*MODEL_SPACE
 70
     0
 10
0.0
 20
0.0
 30
0.0
  3
*MODEL_SPACE
  1

  0
ENDBLK
  5
1A
330
18
100
AcDbEntity
  8
0
100
AcDbBlockEnd
  0
BLOCK
  5
16
330
15
100
AcDbEntity
 67
     1
  8
0
100
AcDbBlockBegin
  2
*PAPER_SPACE
 70
     0
 10
0.0
 20
0.0
 30
0.0
  3
*PAPER_SPACE
  1

  0
ENDBLK
  5
17
330
15
100
AcDbEntity
 67
     1
  8
0
100
AcDbBlockEnd
  0
BLOCK
  5
119A
330
1194
100
AcDbEntity
  8
0
100
AcDbBlockBegin
  2
Z45-6
 70
     0
 10
0.0
 20
0.0
 30
0.0
  3
Z45-6
  1

  0
LWPOLYLINE
  5
1195
330
1194
100
AcDbEntity
  8
V5
100
AcDbPolyline
 90
        2
 70
     0
 43
2.0
 10
-41.4486353224944
 20
-3.402324215511953
 10
-41.18716809425143
 20
-6.390908309787164
  0
LWPOLYLINE
  5
1196
330
1194
100
AcDbEntity
  8
V5
100
AcDbPolyline
 90
        2
 70
     0
 43
1.5
 10
1.085739767587028
 20
-1.939643219442814
 10
-41.25253490131217
 20
-5.643762286218361
  0
LWPOLYLINE
  5
1197
330
1194
100
AcDbEntity
  8
V5
100
AcDbPolyline
 90
        2
 70
     0
 43
3.0
 10
0.6281721181618423
 20
3.290378945538805
 10
1.151106574647769
 20
-2.686789243011617
  0
LWPOLYLINE
  5
1198
330
1194
100
AcDbEntity
  8
V5
100
AcDbPolyline
 90
        2
 70
     0
 43
1.5
 10
44.02800829221348
 20
6.334507731492976
 10
0.6935389252225832
 20
2.543232921970002
  0
LWPOLYLINE
  5
1199
330
1194
100
AcDbEntity
  8
V5
100
AcDbPolyline
 90
        2
 70
     0
 43
2.0
 10
43.22791401530401
 20
4.005913918038913
 10
43.03181359412178
 20
6.247351988745322
  0
ENDBLK
  5
119B
330
1194
100
AcDbEntity
  8
0
100
AcDbBlockEnd
  0
BLOCK
  5
11B6
330
11A2
100
AcDbEntity
  8
0
100
AcDbBlockBegin
  2
*X1
 70
     1
 10
0.0
 20
0.0
 30
0.0
  3
*X1
  1

  0
LINE
  5
11A3
330
11A2
100
AcDbEntity
  8
0
 62
     0
380
     1
100
AcDbLine
 10
400.3929631487156
 20
418.0706326783792
 30
0.0
 11
423.9673170016094
 21
441.6449865312731
 31
0.0
  0
LINE
  5
11A4
330
11A2
100
AcDbEntity
  8
0
 62
     0
380
     1
100
AcDbLine
 10
400.3929631487156
 20
426.9094674432111
 30
0.0
 11
423.9673170016094
 21
450.483821296105
 31
0.0
  0
LINE
  5
11A5
330
11A2
100
AcDbEntity
  8
0
 62
     0
380
     1
100
AcDbLine
 10
400.3929631487156
 20
435.7483022080429
 30
0.0
 11
423.9673170016094
 21
459.3226560609368
 31
0.0
  0
LINE
  5
11A6
330
11A2
100
AcDbEntity
  8
0
 62
     0
380
     1
100
AcDbLine
 10
400.3929631487156
 20
444.5871369728748
 30
0.0
 11
419.7887208586543
 21
463.9828946828136
 31
0.0
  0
LINE
  5
11A7
330
11A2
100
AcDbEntity
  8
0
 62
     0
380
     1
100
AcDbLine
 10
400.3929631487156
 20
453.4259717377066
 30
0.0
 11
410.9498860938225
 21
463.9828946828136
 31
0.0
  0
LINE
  5
11A8
330
11A2
100
AcDbEntity
  8
0
 62
     0
380
     1
100
AcDbLine
 10
400.3929631487156
 20
462.2648065025385
 30
0.0
 11
402.1110513289906
 21
463.9828946828136
 31
0.0
  0
LINE
  5
11A9
330
11A2
100
AcDbEntity
  8
0
 62
     0
380
     1
100
AcDbLine
 10
400.3929631487156
 20
409.2317979135474
 30
0.0
 11
423.9673170016094
 21
432.8061517664413
 31
0.0
  0
LINE
  5
11AA
330
11A2
100
AcDbEntity
  8
0
 62
     0
380
     1
100
AcDbLine
 10
404.5301302529932
 20
404.5301302529932
 30
0.0
 11
423.9673170016094
 21
423.9673170016094
 31
0.0
  0
LINE
  5
11AB
330
11A2
100
AcDbEntity
  8
0
 62
     0
380
     1
100
AcDbLine
 10
413.3689650178251
 20
404.5301302529932
 30
0.0
 11
423.9673170016094
 21
415.1284822367776
 31
0.0
  0
LINE
  5
11AC
330
11A2
100
AcDbEntity
  8
0
 62
     0
380
     1
100
AcDbLine
 10
422.2077997826568
 20
404.5301302529932
 30
0.0
 11
423.9673170016094
 21
406.2896474719457
 31
0.0
  0
LINE
  5
11AD
330
11A2
100
AcDbEntity
  8
0
 62
     0
380
     1
100
AcDbLine
 10
423.9673170016094
 20
415.7219856574158
 30
0.0
 11
400.3929631487156
 21
439.2963395103097
 31
0.0
  0
LINE
  5
11AE
330
11A2
100
AcDbEntity
  8
0
 62
     0
380
     1
100
AcDbLine
 10
423.9673170016094
 20
406.883150892584
 30
0.0
 11
400.3929631487156
 21
430.4575047454779
 31
0.0
  0
LINE
  5
11AF
330
11A2
100
AcDbEntity
  8
0
 62
     0
380
     1
100
AcDbLine
 10
417.4815028763684
 20
404.5301302529932
 30
0.0
 11
400.3929631487156
 21
421.6186699806461
 31
0.0
  0
LINE
  5
11B0
330
11A2
100
AcDbEntity
  8
0
 62
     0
380
     1
100
AcDbLine
 10
408.6426681115366
 20
404.5301302529932
 30
0.0
 11
400.3929631487156
 21
412.7798352158142
 31
0.0
  0
LINE
  5
11B1
330
11A2
100
AcDbEntity
  8
0
 62
     0
380
     1
100
AcDbLine
 10
423.9673170016094
 20
424.5608204222476
 30
0.0
 11
400.3929631487156
 21
448.1351742751416
 31
0.0
  0
LINE
  5
11B2
330
11A2
100
AcDbEntity
  8
0
 62
     0
380
     1
100
AcDbLine
 10
423.9673170016094
 20
433.3996551870796
 30
0.0
 11
400.3929631487156
 21
456.9740090399734
 31
0.0
  0
LINE
  5
11B3
330
11A2
100
AcDbEntity
  8
0
 62
     0
380
     1
100
AcDbLine
 10
423.9673170016094
 20
442.2384899519114
 30
0.0
 11
402.2229122707072
 21
463.9828946828136
 31
0.0
  0
LINE
  5
11B4
330
11A2
100
AcDbEntity
  8
0
 62
     0
380
     1
100
AcDbLine
 10
423.9673170016094
 20
451.0773247167432
 30
0.0
 11
411.0617470355391
 21
463.9828946828136
 31
0.0
  0
LINE
  5
11B5
330
11A2
100
AcDbEntity
  8
0
 62
     0
380
     1
100
AcDbLine
 10
423.9673170016094
 20
459.916159481575
 30
0.0
 11
419.9005818003709
 21
463.9828946828136
 31
0.0
  0
ENDBLK
  5
11B7
330
11A2
100
AcDbEntity
  8
0
100
AcDbBlockEnd
  0
BLOCK
  5
1846
330
1810
100
AcDbEntity
  8
0
100
AcDbBlockBegin
  2
HOLZ
 70
     0
 10
0.0
 20
0.0
 30
0.0
  3
HOLZ
  1

  0
LINE
  5
1811
330
1810
100
AcDbEntity
  8
V25
100
AcDbLine
 10
134.2753376758139
 20
0.0669714036830556
 30
0.0
 11
150.0
 21
8.817610495073722
 31
0.0
  0
LINE
  5
1812
330
1810
100
AcDbEntity
  8
V25
100
AcDbLine
 10
136.7919707710957
 20
36.16753295237527
 30
0.0
 11
142.9699331868824
 21
40.0
 31
0.0
  0
LINE
  5
1813
330
1810
100
AcDbEntity
  8
V25
100
AcDbLine
 10
128.5743933171145
 20
30.62150073721341
 30
0.0
 11
136.7919707710957
 21
36.16753295237527
 31
0.0
  0
LINE
  5
1814
330
1810
100
AcDbEntity
  8
V25
100
AcDbLine
 10
119.2268989632111
 20
24.51059487050725
 30
0.0
 11
128.5743933171145
 21
30.62150073721341
 31
0.0
  0
LINE
  5
1815
330
1810
100
AcDbEntity
  8
V25
100
AcDbLine
 10
110.0334841865699
 20
18.60509760436275
 30
0.0
 11
119.2268989632111
 21
24.51059487050725
 31
0.0
  0
LINE
  5
1816
330
1810
100
AcDbEntity
  8
V25
100
AcDbLine
 10
100.3264708190547
 20
11.72390948555085
 30
0.0
 11
110.0334841865699
 21
18.60509760436275
 31
0.0
  0
LINE
  5
1817
330
1810
100
AcDbEntity
  8
V25
100
AcDbLine
 10
92.10889336507376
 20
6.383285870950658
 30
0.0
 11
100.3264708190547
 21
11.72390948555085
 31
0.0
  0
LINE
  5
1818
330
1810
100
AcDbEntity
  8
V25
100
AcDbLine
 10
82.76139901117039
 20
0.2723800042444964
 30
0.0
 11
92.10889336507376
 21
6.383285870950658
 31
0.0
  0
LINE
  5
1819
330
1810
100
AcDbEntity
  8
V25
100
AcDbLine
 10
73.56798423452892
 20
38.27297110813106
 30
0.0
 11
75.72176328847627
 21
40.0
 31
0.0
  0
LINE
  5
181A
330
1810
100
AcDbEntity
  8
V25
100
AcDbLine
 10
66.32624410320818
 20
33.08640394395184
 30
0.0
 11
73.56798423452892
 21
38.27297110813106
 31
0.0
  0
LINE
  5
181B
330
1810
100
AcDbEntity
  8
V25
100
AcDbLine
 10
60.62529974450876
 20
28.51606258145739
 30
0.0
 11
66.32624410320818
 21
33.08640394395184
 31
0.0
  0
LINE
  5
181C
330
1810
100
AcDbEntity
  8
V25
100
AcDbLine
 10
55.07843496307168
 20
23.7403126184015
 30
0.0
 11
60.62529974450876
 21
28.51606258145739
 31
0.0
  0
LINE
  5
181D
330
1810
100
AcDbEntity
  8
V25
100
AcDbLine
 10
50.71284694064434
 20
19.73484490745136
 30
0.0
 11
55.07843496307168
 21
23.7403126184015
 31
0.0
  0
LINE
  5
181E
330
1810
100
AcDbEntity
  8
V25
100
AcDbLine
 10
44.75510328650807
 20
15.16450354495691
 30
0.0
 11
50.71284694064434
 21
19.73484490745136
 31
0.0
  0
LINE
  5
181F
330
1810
100
AcDbEntity
  8
V25
100
AcDbLine
 10
36.17800681891527
 20
9.053597678250753
 30
0.0
 11
44.75510328650807
 21
15.16450354495691
 31
0.0
  0
LINE
  5
1820
330
1810
100
AcDbEntity
  8
V25
100
AcDbLine
 10
32.17193781009951
 20
38.83784475967536
 30
0.0
 11
33.35087222234552
 21
40.0
 31
0.0
  0
LINE
  5
1821
330
1810
100
AcDbEntity
  8
V25
100
AcDbLine
 10
27.80634978767216
 20
35.3972507002693
 30
0.0
 11
32.17193781009951
 21
38.83784475967536
 31
0.0
  0
LINE
  5
1822
330
1810
100
AcDbEntity
  8
V25
100
AcDbLine
 10
23.38940190615722
 20
31.75124804030179
 30
0.0
 11
27.80634978767216
 21
35.3972507002693
 31
0.0
  0
LINE
  5
1823
330
1810
100
AcDbEntity
  8
V25
100
AcDbLine
 10
18.61293501103068
 20
26.82144162682471
 30
0.0
 11
23.38940190615722
 21
31.75124804030179
 31
0.0
  0
LINE
  5
1824
330
1810
100
AcDbEntity
  8
V25
100
AcDbLine
 10
15.01774487491411
 20
23.1754389668572
 30
0.0
 11
18.61293501103068
 21
26.82144162682471
 31
0.0
  0
LINE
  5
1825
330
1810
100
AcDbEntity
  8
V25
100
AcDbLine
 10
10.39535755704969
 20
19.52943630688969
 30
0.0
 11
15.01774487491411
 21
23.1754389668572
 31
0.0
  0
LINE
  5
1826
330
1810
100
AcDbEntity
  8
V25
100
AcDbLine
 10
4.899852634699982
 20
14.39422129285094
 30
0.0
 11
10.39535755704969
 21
19.52943630688969
 31
0.0
  0
LINE
  5
1827
330
1810
100
AcDbEntity
  8
V25
100
AcDbLine
 10
0.1233857395734503
 20
9.259006278812194
 30
0.0
 11
4.899852634699982
 21
14.39422129285094
 31
0.0
  0
LINE
  5
1828
330
1810
100
AcDbEntity
  8
V25
100
AcDbLine
 10
146.4989841386107
 20
30.82690933777485
 30
0.0
 11
150.0
 21
28.60784847799914
 31
0.0
  0
LINE
  5
1829
330
1810
100
AcDbEntity
  8
V25
100
AcDbLine
 10
140.2330813299502
 20
34.26750339718092
 30
0.0
 11
146.4989841386107
 21
30.82690933777485
 31
0.0
  0
LINE
  5
182A
330
1810
100
AcDbEntity
  8
V25
100
AcDbLine
 10
133.5049397895031
 20
37.50268885602532
 30
0.0
 11
140.2330813299502
 21
34.26750339718092
 31
0.0
  0
LINE
  5
182B
330
1810
100
AcDbEntity
  8
V25
100
AcDbLine
 10
129.0158554230347
 20
40.0
 30
0.0
 11
133.5049397895031
 21
37.50268885602532
 31
0.0
  0
LINE
  5
182C
330
1810
100
AcDbEntity
  8
V25
100
AcDbLine
 10
146.9098630113099
 20
1.248070856911908
 30
0.0
 11
148.5950116034373
 21
0.0
 31
0.0
  0
LINE
  5
182D
330
1810
100
AcDbEntity
  8
V25
100
AcDbLine
 10
142.1333961161833
 20
4.277847715194639
 30
0.0
 11
146.9098630113099
 21
1.248070856911908
 31
0.0
  0
LINE
  5
182E
330
1810
100
AcDbEntity
  8
V25
100
AcDbLine
 10
136.586531334746
 20
7.513033174039037
 30
0.0
 11
142.1333961161833
 21
4.277847715194639
 31
0.0
  0
LINE
  5
182F
330
1810
100
AcDbEntity
  8
V25
100
AcDbLine
 10
131.0396665533089
 20
11.51850088498941
 30
0.0
 11
136.586531334746
 21
7.513033174039037
 31
0.0
  0
LINE
  5
1830
330
1810
100
AcDbEntity
  8
V25
100
AcDbLine
 10
123.7979264219882
 20
16.1401943976241
 30
0.0
 11
131.0396665533089
 21
11.51850088498941
 31
0.0
  0
LINE
  5
1831
330
1810
100
AcDbEntity
  8
V25
100
AcDbLine
 10
115.9912278407062
 20
20.86459221053974
 30
0.0
 11
123.7979264219882
 21
16.1401943976241
 31
0.0
  0
LINE
  5
1832
330
1810
100
AcDbEntity
  8
V25
100
AcDbLine
 10
107.0032525004144
 20
25.64034217359586
 30
0.0
 11
115.9912278407062
 21
20.86459221053974
 31
0.0
  0
LINE
  5
1833
330
1810
100
AcDbEntity
  8
V25
100
AcDbLine
 10
98.42615603282162
 20
30.98096578819605
 30
0.0
 11
107.0032525004144
 21
25.64034217359586
 31
0.0
  0
LINE
  5
1834
330
1810
100
AcDbEntity
  8
V25
100
AcDbLine
 10
88.30826379260747
 20
36.16753295237527
 30
0.0
 11
98.42615603282162
 21
30.98096578819605
 31
0.0
  0
LINE
  5
1835
330
1810
100
AcDbEntity
  8
V25
100
AcDbLine
 10
79.506462783904
 20
40.0
 30
0.0
 11
88.30826379260747
 21
36.16753295237527
 31
0.0
  0
LINE
  5
1836
330
1810
100
AcDbEntity
  8
V25
100
AcDbLine
 10
83.53179689748094
 20
3.712974063650563
 30
0.0
 11
87.84428503596677
 21
0.0
 31
0.0
  0
LINE
  5
1837
330
1810
100
AcDbEntity
  8
V25
100
AcDbLine
 10
77.00909479338361
 20
8.488724026706449
 30
0.0
 11
83.53179689748094
 21
3.712974063650563
 31
0.0
  0
LINE
  5
1838
330
1810
100
AcDbEntity
  8
V25
100
AcDbLine
 10
69.97279409841235
 20
13.6239390407452
 30
0.0
 11
77.00909479338361
 21
8.488724026706449
 31
0.0
  0
LINE
  5
1839
330
1810
100
AcDbEntity
  8
V25
100
AcDbLine
 10
62.5256145307419
 20
18.81050620492442
 30
0.0
 11
69.97279409841235
 21
13.6239390407452
 31
0.0
  0
LINE
  5
183A
330
1810
100
AcDbEntity
  8
V25
100
AcDbLine
 10
54.51347651311039
 20
23.7403126184015
 30
0.0
 11
62.5256145307419
 21
18.81050620492442
 31
0.0
  0
LINE
  5
183B
330
1810
100
AcDbEntity
  8
V25
100
AcDbLine
 10
47.27173638178965
 20
28.51606258145739
 30
0.0
 11
54.51347651311039
 21
23.7403126184015
 31
0.0
  0
LINE
  5
183C
330
1810
100
AcDbEntity
  8
V25
100
AcDbLine
 10
39.82455681411943
 20
33.08640394395184
 30
0.0
 11
47.27173638178965
 21
28.51606258145739
 31
0.0
  0
LINE
  5
183D
330
1810
100
AcDbEntity
  8
V25
100
AcDbLine
 10
33.30185471002187
 20
37.09187165490221
 30
0.0
 11
39.82455681411943
 21
33.08640394395184
 31
0.0
  0
LINE
  5
183E
330
1810
100
AcDbEntity
  8
V25
100
AcDbLine
 10
26.28436476557522
 20
40.0
 30
0.0
 11
33.30185471002187
 21
37.09187165490221
 31
0.0
  0
LINE
  5
183F
330
1810
100
AcDbEntity
  8
V25
100
AcDbLine
 10
31.81241879648792
 20
0.6318450552273589
 30
0.0
 11
32.62897036215486
 21
0.0
 31
0.0
  0
LINE
  5
1840
330
1810
100
AcDbEntity
  8
V25
100
AcDbLine
 10
24.15979979246799
 20
4.842721366738942
 30
0.0
 11
31.81241879648792
 21
0.6318450552273589
 31
0.0
  0
LINE
  5
1841
330
1810
100
AcDbEntity
  8
V25
100
AcDbLine
 10
18.2534159974191
 20
8.283315426145009
 30
0.0
 11
24.15979979246799
 21
4.842721366738942
 31
0.0
  0
LINE
  5
1842
330
1810
100
AcDbEntity
  8
V25
100
AcDbLine
 10
10.96031600701099
 20
11.36444443456821
 30
0.0
 11
18.2534159974191
 21
8.283315426145009
 31
0.0
  0
LINE
  5
1843
330
1810
100
AcDbEntity
  8
V25
100
AcDbLine
 10
5.259371648311571
 20
14.1888126922895
 30
0.0
 11
10.96031600701099
 21
11.36444443456821
 31
0.0
  0
LINE
  5
1844
330
1810
100
AcDbEntity
  8
V25
100
AcDbLine
 10
0.0
 20
16.24651878378267
 30
0.0
 11
5.259371648311571
 21
14.1888126922895
 31
0.0
  0
LWPOLYLINE
  5
1845
330
1810
100
AcDbEntity
  8
V5
100
AcDbPolyline
 90
        4
 70
     1
 43
0.0
 10
0.0
 20
40.0
 10
150.0
 20
40.0
 10
150.0
 20
0.0
 10
0.0
 20
0.0
  0
ENDBLK
  5
1847
330
1810
100
AcDbEntity
  8
0
100
AcDbBlockEnd
  0
BLOCK
  5
343D
330
343B
100
AcDbEntity
  8
0
 48
5.0
100
AcDbBlockBegin
  2
DAEMM
 70
     0
 10
0.0
 20
0.0
 30
0.0
  3
DAEMM
  1

  0
LWPOLYLINE
  5
343C
330
343B
100
AcDbEntity
  8
INSULATION
100
AcDbPolyline
 90
        6
 70
     0
 43
0.0
 10
0.0
 20
0.0
 42
0.5249926553343702
 10
1.869693845669928
 20
2.710102051443413
 10
0.1303061543300714
 20
7.289897948556586
 42
-1.449489742783175
 10
3.869693845669928
 20
7.289897948556586
 10
2.130306154330071
 20
2.710102051443413
 42
0.5249926553343702
 10
4.0
 20
0.0
  0
ENDBLK
  5
343E
330
343B
100
AcDbEntity
  8
0
 48
5.0
100
AcDbBlockEnd
  0
BLOCK
  5
391A
330
38FB
100
AcDbEntity
  8
0
100
AcDbBlockBegin
  2
L25
 70
     0
 10
0.0
 20
0.0
 30
0.0
  3
L25
  1

  0
LINE
  5
38FC
330
38FB
100
AcDbEntity
  8
V5
 62
     7
100
AcDbLine
 10
29.79268579799634
 20
0.9181486771002482
 30
0.0
 11
29.79268579799634
 21
6.918148677100248
 31
0.0
  0
ARC
  5
38FD
330
38FB
100
AcDbEntity
  8
V5
 62
     7
100
AcDbCircle
 10
-0.2073042020036837
 20
78.91814867710002
 30
0.0
 40
3.0
100
AcDbArc
 50
0.0
 51
90.0
  0
ARC
  5
38FE
330
38FB
100
AcDbEntity
  8
V5
 62
     7
100
AcDbCircle
 10
-0.2073042020036837
 20
78.91814867710002
 30
0.0
 40
3.0
100
AcDbArc
 50
90.0
 51
180.0
  0
ARC
  5
38FF
330
38FB
100
AcDbEntity
  8
V5
 62
     7
100
AcDbCircle
 10
4.792687797996109
 20
74.50393867710011
 30
0.0
 40
1.0
100
AcDbArc
 50
359.9948
 51
43.71048
  0
ARC
  5
3900
330
38FB
100
AcDbEntity
  8
V5
 62
     7
100
AcDbCircle
 10
4.792687797996109
 20
71.91815067710002
 30
0.0
 40
1.0
100
AcDbArc
 50
270.0
 51
0.000008651422
  0
LINE
  5
3901
330
38FB
100
AcDbEntity
  8
V5
 62
     7
100
AcDbLine
 10
5.792691797996326
 20
71.91815067710002
 30
0.0
 11
5.792691797996326
 21
74.50393867710011
 31
0.0
  0
LINE
  5
3902
330
38FB
100
AcDbEntity
  8
V5
 62
     7
100
AcDbLine
 10
2.042686797996225
 20
70.9181476770999
 30
0.0
 11
4.792687797996109
 21
70.9181476770999
 31
0.0
  0
ARC
  5
3903
330
38FB
100
AcDbEntity
  8
V5
 62
     7
100
AcDbCircle
 10
2.042686797996225
 20
69.91814867710002
 30
0.0
 40
1.0
100
AcDbArc
 50
90.00002
 51
180.0
  0
ARC
  5
3904
330
38FB
100
AcDbEntity
  8
V5
 62
     7
100
AcDbCircle
 10
4.792687797996109
 20
74.50393867710011
 30
0.0
 40
1.0
100
AcDbArc
 50
45.0
 51
45.0
  0
LINE
  5
3905
330
38FB
100
AcDbEntity
  8
V5
 62
     7
100
AcDbLine
 10
5.499798797996277
 20
75.21103867709996
 30
0.0
 11
2.792689797996104
 21
77.91814567710014
 31
0.0
  0
ARC
  5
3906
330
38FB
100
AcDbEntity
  8
V5
 62
     7
100
AcDbCircle
 10
-5.20731220200389
 20
74.50393867710011
 30
0.0
 40
1.0
100
AcDbArc
 50
136.2895
 51
180.0052
  0
ARC
  5
3907
330
38FB
100
AcDbEntity
  8
V5
 62
     7
100
AcDbCircle
 10
-5.20731220200389
 20
71.91815067710002
 30
0.0
 40
1.0
100
AcDbArc
 50
180.0
 51
270.0
  0
LINE
  5
3908
330
38FB
100
AcDbEntity
  8
V5
 62
     7
100
AcDbLine
 10
-6.207311202003779
 20
71.91815067710002
 30
0.0
 11
-6.207311202003779
 21
74.50393867710011
 31
0.0
  0
LINE
  5
3909
330
38FB
100
AcDbEntity
  8
V5
 62
     7
100
AcDbLine
 10
-2.457311202003779
 20
70.9181476770999
 30
0.0
 11
-5.20731220200389
 21
70.9181476770999
 31
0.0
  0
ARC
  5
390A
330
38FB
100
AcDbEntity
  8
V5
 62
     7
100
AcDbCircle
 10
-2.457311202003779
 20
69.91814867710002
 30
0.0
 40
1.0
100
AcDbArc
 50
0.000006830186
 51
89.99998000000001
  0
ARC
  5
390B
330
38FB
100
AcDbEntity
  8
V5
 62
     7
100
AcDbCircle
 10
-5.20731220200389
 20
74.50393867710011
 30
0.0
 40
1.0
100
AcDbArc
 50
135.0
 51
135.0
  0
LINE
  5
390C
330
38FB
100
AcDbEntity
  8
V5
 62
     7
100
AcDbLine
 10
-5.914423202003831
 20
75.21103867709996
 30
0.0
 11
-3.207309202003671
 21
77.91814567710014
 31
0.0
  0
LINE
  5
390D
330
38FB
100
AcDbEntity
  8
V5
 62
     7
100
AcDbLine
 10
2.792689797996104
 20
77.91814567710014
 30
0.0
 11
2.792689797996104
 21
78.91814867710002
 31
0.0
  0
LINE
  5
390E
330
38FB
100
AcDbEntity
  8
V5
 62
     7
100
AcDbLine
 10
-3.207309202003671
 20
77.91814567710014
 30
0.0
 11
-3.207309202003671
 21
78.91814867710002
 31
0.0
  0
ARC
  5
390F
330
38FB
100
AcDbEntity
  8
V5
 62
     7
100
AcDbCircle
 10
5.541646797996122
 20
9.91814867710002
 30
0.0
 40
2.999999
100
AcDbArc
 50
185.0006
 51
270.0
  0
ARC
  5
3910
330
38FB
100
AcDbEntity
  8
V5
 62
     7
100
AcDbCircle
 10
-5.956271202003676
 20
9.91814867710002
 30
0.0
 40
2.999999
100
AcDbArc
 50
270.0
 51
354.9994
  0
LINE
  5
3911
330
38FB
100
AcDbEntity
  8
V5
 62
     7
100
AcDbLine
 10
2.553069797996158
 20
9.656648677099951
 30
0.0
 11
1.042687797996109
 21
26.91814867710025
 31
0.0
  0
LINE
  5
3912
330
38FB
100
AcDbEntity
  8
V5
 62
     7
100
AcDbLine
 10
-2.967694202003713
 20
9.656648677099951
 30
0.0
 11
-1.45731220200389
 21
26.91814867710025
 31
0.0
  0
LINE
  5
3913
330
38FB
100
AcDbEntity
  8
V5
 62
     7
100
AcDbLine
 10
-30.20731420200366
 20
0.9181486771002482
 30
0.0
 11
-30.20731420200366
 21
6.918148677100248
 31
0.0
  0
LINE
  5
3914
330
38FB
100
AcDbEntity
  8
V5
 62
     7
100
AcDbLine
 10
-30.20731420200366
 20
6.918148677100248
 30
0.0
 11
-5.956271202003676
 21
6.918148677100248
 31
0.0
  0
LINE
  5
3915
330
38FB
100
AcDbEntity
  8
V5
 62
     7
100
AcDbLine
 10
-30.20731420200366
 20
0.9181486771002482
 30
0.0
 11
-0.2073042020036837
 21
0.9181486771002482
 31
0.0
  0
LINE
  5
3916
330
38FB
100
AcDbEntity
  8
V5
 62
     7
100
AcDbLine
 10
1.042687797996109
 20
69.91814867710002
 30
0.0
 11
1.042687797996109
 21
26.91814867710025
 31
0.0
  0
LINE
  5
3917
330
38FB
100
AcDbEntity
  8
V5
 62
     7
100
AcDbLine
 10
-1.45731220200389
 20
69.91814867710002
 30
0.0
 11
-1.45731220200389
 21
26.91814867710025
 31
0.0
  0
LINE
  5
3918
330
38FB
100
AcDbEntity
  8
V5
 62
     7
100
AcDbLine
 10
29.79268579799634
 20
6.918148677100248
 30
0.0
 11
5.541646797996122
 21
6.918148677100248
 31
0.0
  0
LINE
  5
3919
330
38FB
100
AcDbEntity
  8
V5
 62
     7
100
AcDbLine
 10
29.79268579799634
 20
0.9181486771002482
 30
0.0
 11
-0.2073042020036837
 21
0.9181486771002482
 31
0.0
  0
ENDBLK
  5
391B
330
38FB
100
AcDbEntity
  8
0
100
AcDbBlockEnd
  0
BLOCK
  5
393E
330
391C
100
AcDbEntity
  8
0
100
AcDbBlockBegin
  2
PA140 Quer
 70
     0
 10
0.0
 20
0.0
 30
0.0
  3
PA140 Quer
  1

  0
LINE
  5
391D
330
391C
100
AcDbEntity
  8
0
100
AcDbLine
 10
1.761882177942034
 20
146.0000000000004
 30
0.0
 11
2.0
 21
29.0
 31
0.0
  0
LINE
  5
391E
330
391C
100
AcDbEntity
  8
0
100
AcDbLine
 10
-1.761882177942048
 20
146.0000000000001
 30
0.0
 11
-2.0
 21
29.0
 31
0.0
  0
LINE
  5
391F
330
391C
100
AcDbEntity
  8
0
100
AcDbLine
 10
1.761882177942034
 20
146.0000000000004
 30
0.0
 11
25.4873318024891
 21
11.0
 31
0.0
  0
LINE
  5
3920
330
391C
100
AcDbEntity
  8
0
100
AcDbLine
 10
-1.761882177942048
 20
146.0000000000001
 30
0.0
 11
-25.48733180248819
 21
11.0
 31
0.0
  0
LINE
  5
3921
330
391C
100
AcDbEntity
  8
0
100
AcDbLine
 10
32.50000000000091
 20
10.5
 30
0.0
 11
32.50000000000091
 21
0.0
 31
0.0
  0
LINE
  5
3922
330
391C
100
AcDbEntity
  8
0
100
AcDbLine
 10
-32.5
 20
10.5
 30
0.0
 11
-32.5
 21
0.0
 31
0.0
  0
LINE
  5
3923
330
391C
100
AcDbEntity
  8
0
100
AcDbLine
 10
0.0
 20
0.0
 30
0.0
 11
-32.5
 21
0.0
 31
0.0
  0
LINE
  5
3924
330
391C
100
AcDbEntity
  8
0
100
AcDbLine
 10
0.0
 20
0.0
 30
0.0
 11
32.50000000000091
 21
0.0
 31
0.0
  0
LINE
  5
3925
330
391C
100
AcDbEntity
  8
0
100
AcDbLine
 10
-6.684068191505222
 20
10.99999999999997
 30
0.0
 11
-32.0
 21
11.0
 31
0.0
  0
ARC
  5
3926
330
391C
100
AcDbEntity
  8
0
100
AcDbCircle
 10
-32.0
 20
10.5
 30
0.0
 40
0.5
100
AcDbArc
 50
90.0
 51
180.0
  0
ARC
  5
3927
330
391C
100
AcDbEntity
  8
0
100
AcDbCircle
 10
-6.684068191505222
 20
12.99999999999997
 30
0.0
 40
2.0
100
AcDbArc
 50
270.0
 51
351.5866003291716
  0
LINE
  5
3928
330
391C
100
AcDbEntity
  8
0
100
AcDbLine
 10
-4.705591908087203
 20
12.70737123184409
 30
0.0
 11
-2.0
 21
29.0
 31
0.0
  0
LINE
  5
3929
330
391C
100
AcDbEntity
  8
0
100
AcDbLine
 10
6.684068191506096
 20
10.99999999999997
 30
0.0
 11
32.00000000000091
 21
11.0
 31
0.0
  0
ARC
  5
392A
330
391C
100
AcDbEntity
  8
0
100
AcDbCircle
 10
6.684068191506096
 20
12.99999999999997
 30
0.0
 40
2.0
100
AcDbArc
 50
188.4133996708317
 51
270.0
  0
LINE
  5
392B
330
391C
100
AcDbEntity
  8
0
100
AcDbLine
 10
4.705591908088091
 20
12.70737123184401
 30
0.0
 11
2.0
 21
29.0
 31
0.0
  0
ARC
  5
392C
330
391C
100
AcDbEntity
  8
0
100
AcDbCircle
 10
32.00000000000091
 20
10.5
 30
0.0
 40
0.5
100
AcDbArc
 50
0.0
 51
90.0
  0
LINE
  5
392D
330
391C
100
AcDbEntity
  8
0
100
AcDbLine
 10
1.749919344384228
 20
189.1996768554512
 30
0.0
 11
1.761882177942034
 21
146.0000000000004
 31
0.0
  0
LINE
  5
392E
330
391C
100
AcDbEntity
  8
0
100
AcDbLine
 10
-1.749919344384224
 20
189.1996768554512
 30
0.0
 11
-1.761882177942048
 21
146.0000000000001
 31
0.0
  0
ARC
  5
392F
330
391C
100
AcDbEntity
  8
0
100
AcDbCircle
 10
0.0
 20
198.0
 30
0.0
 40
3.0
100
AcDbArc
 50
0.0
 51
180.0
  0
ARC
  5
3930
330
391C
100
AcDbEntity
  8
0
100
AcDbCircle
 10
-2.549919279120221
 20
189.2
 30
0.0
 40
0.8
100
AcDbArc
 50
359.9768564758476
 51
90.0
  0
LINE
  5
3931
330
391C
100
AcDbEntity
  8
0
100
AcDbLine
 10
-3.0
 20
197.1484321246121
 30
0.0
 11
-3.0
 21
198.0
 31
0.0
  0
ARC
  5
3932
330
391C
100
AcDbEntity
  8
0
100
AcDbCircle
 10
-3.5
 20
197.1484321246121
 30
0.0
 40
0.5
100
AcDbArc
 50
322.9999999999953
 51
0.0000000000032569
  0
ARC
  5
3933
330
391C
100
AcDbEntity
  8
0
100
AcDbCircle
 10
-3.999999999999996
 20
192.330809360996
 30
0.0
 40
2.0
100
AcDbArc
 50
142.9999999999953
 51
180.0
  0
LINE
  5
3934
330
391C
100
AcDbEntity
  8
0
100
AcDbLine
 10
-6.0
 20
190.0
 30
0.0
 11
-5.999999999999996
 21
192.330809360996
 31
0.0
  0
LINE
  5
3935
330
391C
100
AcDbEntity
  8
0
100
AcDbLine
 10
-5.597271020094499
 20
193.5344394073002
 30
0.0
 11
-3.100682244976269
 21
196.847524613036
 31
0.0
  0
LINE
  5
3936
330
391C
100
AcDbEntity
  8
0
100
AcDbLine
 10
-2.549919279120221
 20
190.0
 30
0.0
 11
-6.0
 21
190.0
 31
0.0
  0
ARC
  5
3937
330
391C
100
AcDbEntity
  8
0
100
AcDbCircle
 10
3.5
 20
197.1484321246121
 30
0.0
 40
0.5
100
AcDbArc
 50
179.9999999999967
 51
217.0000000000047
  0
LINE
  5
3938
330
391C
100
AcDbEntity
  8
0
100
AcDbLine
 10
3.0
 20
197.1484321246121
 30
0.0
 11
3.0
 21
198.0
 31
0.0
  0
ARC
  5
3939
330
391C
100
AcDbEntity
  8
0
100
AcDbCircle
 10
4.0
 20
192.330809360996
 30
0.0
 40
2.0
100
AcDbArc
 50
0.0
 51
37.00000000000466
  0
LINE
  5
393A
330
391C
100
AcDbEntity
  8
0
100
AcDbLine
 10
6.0
 20
190.0
 30
0.0
 11
6.0
 21
192.330809360996
 31
0.0
  0
LINE
  5
393B
330
391C
100
AcDbEntity
  8
0
100
AcDbLine
 10
2.549919279120224
 20
190.0
 30
0.0
 11
6.0
 21
190.0
 31
0.0
  0
ARC
  5
393C
330
391C
100
AcDbEntity
  8
0
100
AcDbCircle
 10
2.549919279120224
 20
189.2
 30
0.0
 40
0.8
100
AcDbArc
 50
90.0
 51
180.0231435241524
  0
LINE
  5
393D
330
391C
100
AcDbEntity
  8
0
100
AcDbLine
 10
5.597271020094503
 20
193.5344394073003
 30
0.0
 11
3.100682244976269
 21
196.847524613036
 31
0.0
  0
ENDBLK
  5
393F
330
391C
100
AcDbEntity
  8
0
100
AcDbBlockEnd
  0
BLOCK
  5
397F
330
3940
100
AcDbEntity
  8
0
 62
     6
 48
5.0
100
AcDbBlockBegin
  2
AluPers
 70
     0
 10
0.0
 20
0.0
 30
0.0
  3
AluPers
  1

  0
LINE
  5
3941
330
3940
100
AcDbEntity
  8
V35
100
AcDbLine
 10
-29.89554808916626
 20
25.04589002863531
 30
0.0
 11
-29.89554808916648
 21
95.39626789880129
 31
0.0
  0
LINE
  5
3942
330
3940
100
AcDbEntity
  8
V35
100
AcDbLine
 10
-33.18447226191722
 20
95.39626789881811
 30
0.0
 11
-33.18447226191722
 21
26.99863392913034
 31
0.0
  0
LINE
  5
3943
330
3940
100
AcDbEntity
  8
V35
100
AcDbLine
 10
31.38800736035182
 20
76.46889880355854
 30
0.0
 11
31.3880073603516
 21
146.8192766737187
 31
0.0
  0
LINE
  5
3944
330
3940
100
AcDbEntity
  8
V35
100
AcDbLine
 10
-29.89554808916626
 20
25.04589002863531
 30
0.0
 11
31.38800736035182
 21
76.46889880355854
 31
0.0
  0
LINE
  5
3945
330
3940
100
AcDbEntity
  8
V35
100
AcDbLine
 10
-27.92160851914321
 20
22.22681216627757
 30
0.0
 11
33.36194693037487
 21
73.64982094120074
 31
0.0
  0
LINE
  5
3946
330
3940
100
AcDbEntity
  8
V35
100
AcDbLine
 10
-0.9999999999998863
 20
12.42814800674205
 30
0.0
 11
60.28355544951842
 21
63.85115678166505
 31
0.0
  0
LINE
  5
3947
330
3940
100
AcDbEntity
  8
V35
100
AcDbLine
 10
-0.1464739196949267
 20
9.690403305361883
 30
0.0
 11
65.61652019934718
 21
64.87210741576387
 31
0.0
  0
LINE
  5
3948
330
3940
100
AcDbEntity
  8
V35
100
AcDbLine
 10
0.0
 20
-0.0000000000000568
 30
0.0
 11
65.61652019934718
 21
55.05879789840879
 31
0.0
  0
LINE
  5
3949
330
3940
100
AcDbEntity
  8
V35
100
AcDbLine
 10
-27.92160851914321
 20
22.22681216627757
 30
0.0
 11
-0.9999999999998863
 21
12.42814800674205
 31
0.0
  0
LINE
  5
394A
330
3940
100
AcDbEntity
  8
V35
100
AcDbLine
 10
-67.11484273953193
 20
34.06489619314334
 30
0.0
 11
-0.1464739196949267
 21
9.690403305361883
 31
0.0
  0
LINE
  5
394B
330
3940
100
AcDbEntity
  8
V35
100
AcDbLine
 10
-67.11484273953203
 20
24.42780503464684
 30
0.0
 11
0.0
 21
0.0
 31
0.0
  0
LINE
  5
394C
330
3940
100
AcDbEntity
  8
V35
100
AcDbLine
 10
-62.08002035108382
 20
34.65945732291044
 30
0.0
 11
-35.86851254856856
 21
25.11924868755853
 31
0.0
  0
LINE
  5
394D
330
3940
100
AcDbEntity
  8
V35
100
AcDbLine
 10
-67.11484273953193
 20
34.06489619314334
 30
0.0
 11
-67.11484273953203
 21
24.42780503464684
 31
0.0
  0
LINE
  5
394E
330
3940
100
AcDbEntity
  8
V35
100
AcDbLine
 10
-35.86851254856856
 20
25.11924868755853
 30
0.0
 11
-27.92160851914321
 21
22.22681216627757
 31
0.0
  0
ARC
  5
394F
330
3940
100
AcDbEntity
  8
V35
100
AcDbCircle
 10
-35.18447226191722
 20
26.99863392913034
 30
0.0
 40
2.0
100
AcDbArc
 50
250.0000000000035
 51
0.0
  0
ARC
  5
3950
330
3940
100
AcDbEntity
  8
V35
100
AcDbCircle
 10
-26.89554808916625
 20
25.04589002863531
 30
0.0
 40
3.0
100
AcDbArc
 50
180.0
 51
250.0000000000035
  0
LINE
  5
3951
330
3940
100
AcDbEntity
  8
V35
100
AcDbLine
 10
-62.08002035108382
 20
34.65945732291044
 30
0.0
 11
-34.20199861847334
 21
58.05189507669609
 31
0.0
  0
LINE
  5
3952
330
3940
100
AcDbEntity
  8
V35
100
AcDbLine
 10
-67.11484273953193
 20
34.06489619314334
 30
0.0
 11
-33.18447226191734
 21
62.53585754661816
 31
0.0
  0
ARC
  5
3953
330
3940
100
AcDbEntity
  8
V35
100
AcDbCircle
 10
-43.66265221110109
 20
34.94144441771295
 30
0.0
 40
5.587272100864986
100
AcDbArc
 50
66.91493608821812
 51
133.0850639117745
  0
ARC
  5
3954
330
3940
100
AcDbEntity
  8
V35
100
AcDbCircle
 10
-44.62229184647583
 20
40.38383123519821
 30
0.0
 40
5.32650415555179
100
AcDbArc
 50
245.0676949625394
 51
314.9323050374571
  0
ARC
  5
3955
330
3940
100
AcDbEntity
  8
V35
100
AcDbCircle
 10
-46.40075828556939
 20
37.42413426265926
 30
0.0
 40
1.927807214538352
100
AcDbArc
 50
124.0161584341247
 51
255.9838415658691
  0
ARC
  5
3956
330
3940
100
AcDbEntity
  8
V35
100
AcDbCircle
 10
-41.89968360636669
 20
38.21779517078648
 30
0.0
 40
1.911984123920333
100
AcDbArc
 50
302.9287501961396
 51
77.07124980385343
  0
LINE
  5
3957
330
3940
100
AcDbEntity
  8
V35
100
AcDbLine
 10
0.0000000000001137
 20
9.637091158496616
 30
0.0
 11
0.0
 21
0.0
 31
0.0
  0
ARC
  5
3958
330
3940
100
AcDbEntity
  8
V35
100
AcDbCircle
 10
-3.275816531895884
 20
25.33494492886877
 30
0.0
 40
5.32650415555179
100
AcDbArc
 50
245.0676949625394
 51
314.9323050374571
  0
ARC
  5
3959
330
3940
100
AcDbEntity
  8
V35
100
AcDbCircle
 10
-2.316176896521142
 20
19.89255811138349
 30
0.0
 40
5.587272100864986
100
AcDbArc
 50
66.91493608821812
 51
133.0850639117745
  0
ARC
  5
395A
330
3940
100
AcDbEntity
  8
V35
100
AcDbCircle
 10
-5.054282970989447
 20
22.37524795632993
 30
0.0
 40
1.927807214538352
100
AcDbArc
 50
124.0161584341247
 51
255.9838415658691
  0
ARC
  5
395B
330
3940
100
AcDbEntity
  8
V35
100
AcDbCircle
 10
-0.5532082917867456
 20
23.16890886445702
 30
0.0
 40
1.911984123920333
100
AcDbArc
 50
302.9287501961396
 51
77.07124980385343
  0
ARC
  5
395C
330
3940
100
AcDbEntity
  8
V35
100
AcDbCircle
 10
14.14091640935157
 20
46.74176639261526
 30
0.0
 40
6.391804986662148
100
AcDbArc
 50
245.0676949625394
 51
314.9323050374571
  0
ARC
  5
395D
330
3940
100
AcDbEntity
  8
V35
100
AcDbCircle
 10
15.29248397180129
 20
40.21090221163291
 30
0.0
 40
6.704726521037983
100
AcDbArc
 50
66.91493608821812
 51
133.0850639117745
  0
ARC
  5
395E
330
3940
100
AcDbEntity
  8
V35
100
AcDbCircle
 10
12.00675668243934
 20
43.19013002556864
 30
0.0
 40
2.313368657446023
100
AcDbArc
 50
124.0161584341247
 51
255.9838415658691
  0
ARC
  5
395F
330
3940
100
AcDbEntity
  8
V35
100
AcDbCircle
 10
17.40804629748254
 20
44.14252311532112
 30
0.0
 40
2.294380948704399
100
AcDbArc
 50
302.9287501961396
 51
77.07124980385343
  0
LINE
  5
3960
330
3940
100
AcDbEntity
  8
V35
100
AcDbLine
 10
33.36194693037487
 20
73.64982094120074
 30
0.0
 11
60.28355544951842
 21
63.85115678166505
 31
0.0
  0
LINE
  5
3961
330
3940
100
AcDbEntity
  8
V35
100
AcDbLine
 10
32.46440736352543
 20
76.93848969103743
 30
0.0
 11
65.61652019934718
 21
64.87210741576387
 31
0.0
  0
ARC
  5
3962
330
3940
100
AcDbEntity
  8
V35
100
AcDbCircle
 10
40.14233917303033
 20
60.29971692783573
 30
0.0
 40
1.927807214538352
100
AcDbArc
 50
124.0161584341247
 51
255.9838415658691
  0
ARC
  5
3963
330
3940
100
AcDbEntity
  8
V35
100
AcDbCircle
 10
41.9208056121239
 20
63.25941390037456
 30
0.0
 40
5.32650415555179
100
AcDbArc
 50
245.0676949625394
 51
314.9323050374571
  0
ARC
  5
3964
330
3940
100
AcDbEntity
  8
V35
100
AcDbCircle
 10
42.88044524749864
 20
57.81702708288929
 30
0.0
 40
5.587272100864986
100
AcDbArc
 50
66.91493608821812
 51
133.0850639117745
  0
ARC
  5
3965
330
3940
100
AcDbEntity
  8
V35
100
AcDbCircle
 10
34.38800736035182
 20
76.46889880355849
 30
0.0
 40
3.0
100
AcDbArc
 50
180.0
 51
250.0000000000035
  0
ARC
  5
3966
330
3940
100
AcDbEntity
  8
V35
100
AcDbCircle
 10
44.64341385223304
 20
61.09337783596282
 30
0.0
 40
1.911984123920333
100
AcDbArc
 50
302.9287501961396
 51
77.07124980385343
  0
LINE
  5
3967
330
3940
100
AcDbEntity
  8
V35
100
AcDbLine
 10
65.61652019934718
 20
64.87210741576382
 30
0.0
 11
65.61652019934718
 21
55.05879789840879
 31
0.0
  0
ARC
  5
3968
330
3940
100
AcDbEntity
  8
V35
100
AcDbCircle
 10
29.57621969208992
 20
230.2859305362722
 30
0.0
 40
2.661261520716134
100
AcDbArc
 50
86.39517671061895
 51
130.0000000000047
  0
LINE
  5
3969
330
3940
100
AcDbEntity
  8
V35
100
AcDbLine
 10
35.38170099869183
 20
222.8898057288926
 30
0.0
 11
-25.90185445082636
 21
171.4667969539694
 31
0.0
  0
LINE
  5
396A
330
3940
100
AcDbEntity
  8
V35
100
AcDbLine
 10
-25.90185445082636
 20
168.4667969539694
 30
0.0
 11
35.38170099869183
 21
219.8898057288925
 31
0.0
  0
LINE
  5
396B
330
3940
100
AcDbEntity
  8
V35
100
AcDbLine
 10
-28.72093231318411
 20
176.5860282948338
 30
0.0
 11
32.56262313633409
 21
228.0090370697569
 31
0.0
  0
LINE
  5
396C
330
3940
100
AcDbEntity
  8
V35
100
AcDbLine
 10
-33.41796168908024
 20
180.9015663609801
 30
0.0
 11
27.86559376043795
 21
232.3245751359032
 31
0.0
  0
LINE
  5
396D
330
3940
100
AcDbEntity
  8
V35
100
AcDbLine
 10
-30.22331497154198
 20
120.596676658276
 30
0.0
 11
-30.22331497154198
 21
170.0396799520664
 31
0.0
  0
LINE
  5
396E
330
3940
100
AcDbEntity
  8
V35
100
AcDbLine
 10
-32.85670537954172
 20
120.596676658276
 30
0.0
 11
-32.85670537954184
 21
170.9981556757805
 31
0.0
  0
LINE
  5
396F
330
3940
100
AcDbEntity
  8
V35
100
AcDbLine
 10
-29.89554808916648
 20
95.39626789880129
 30
0.0
 11
-30.22331497154198
 21
120.596676658276
 31
0.0
  0
LINE
  5
3970
330
3940
100
AcDbEntity
  8
V35
100
AcDbLine
 10
-33.18447226191722
 20
95.39626789881811
 30
0.0
 11
-32.85670537954172
 21
120.596676658276
 31
0.0
  0
LINE
  5
3971
330
3940
100
AcDbEntity
  8
V35
100
AcDbLine
 10
-37.17816590025734
 20
172.5710386738774
 30
0.0
 11
-37.17816590025734
 21
175.5710386738774
 31
0.0
  0
LINE
  5
3972
330
3940
100
AcDbEntity
  8
V35
100
AcDbLine
 10
-28.72093231318411
 20
176.5860282948338
 30
0.0
 11
-25.90185445082636
 21
171.4667969539694
 31
0.0
  0
LINE
  5
3973
330
3940
100
AcDbEntity
  8
V35
100
AcDbLine
 10
-37.17816590025734
 20
172.5710386738774
 30
0.0
 11
-32.85670537954184
 21
170.9981556757805
 31
0.0
  0
LINE
  5
3974
330
3940
100
AcDbEntity
  8
V35
100
AcDbLine
 10
-30.22331497154198
 20
170.0396799520664
 30
0.0
 11
-25.90185445082636
 21
168.4667969539694
 31
0.0
  0
LINE
  5
3975
330
3940
100
AcDbEntity
  8
V35
100
AcDbLine
 10
-25.90185445082636
 20
168.4667969539694
 30
0.0
 11
-25.90185445082636
 21
171.4667969539694
 31
0.0
  0
ARC
  5
3976
330
3940
100
AcDbEntity
  8
V35
100
AcDbCircle
 10
-31.7073357574285
 20
178.8629217613491
 30
0.0
 40
2.661261520716134
100
AcDbArc
 50
86.39517671061895
 51
184.8450266065807
  0
LINE
  5
3977
330
3940
100
AcDbEntity
  8
V35
100
AcDbLine
 10
-37.17816590025734
 20
175.5710386738774
 30
0.0
 11
-34.3590880378996
 21
178.6381491547877
 31
0.0
  0
ARC
  5
3978
330
3940
100
AcDbEntity
  8
V35
100
AcDbCircle
 10
-31.54001017554276
 20
181.5189178139233
 30
0.0
 40
0.0000000000008962
100
AcDbArc
 50
3.632950739488309
 51
14.70830632344464
  0
ARC
  5
3979
330
3940
100
AcDbEntity
  8
V35
100
AcDbCircle
 10
-32.79909271064673
 20
177.527392942712
 30
0.0
 40
4.185398383392873
100
AcDbArc
 50
347.0020390188705
 51
72.49269423793923
  0
LINE
  5
397A
330
3940
100
AcDbEntity
  8
V35
100
AcDbLine
 10
31.06024047797609
 20
172.0196854331993
 30
0.0
 11
31.06024047797609
 21
216.2636697998127
 31
0.0
  0
LINE
  5
397B
330
3940
100
AcDbEntity
  8
V35
100
AcDbLine
 10
31.3880073603516
 20
146.8192766737187
 30
0.0
 11
31.06024047797609
 21
172.0196854331993
 31
0.0
  0
LINE
  5
397C
330
3940
100
AcDbEntity
  8
V35
100
AcDbLine
 10
32.56262313633409
 20
228.009037069757
 30
0.0
 11
35.38170099869183
 21
222.8898057288926
 31
0.0
  0
LINE
  5
397D
330
3940
100
AcDbEntity
  8
V35
100
AcDbLine
 10
35.38170099869183
 20
219.8898057288925
 30
0.0
 11
35.38170099869183
 21
222.8898057288926
 31
0.0
  0
ARC
  5
397E
330
3940
100
AcDbEntity
  8
V35
100
AcDbCircle
 10
28.48446273887146
 20
228.9504017176351
 30
0.0
 40
4.185398383392873
100
AcDbArc
 50
347.0020390188705
 51
72.49269423793923
  0
ENDBLK
  5
3980
330
3940
100
AcDbEntity
  8
0
 62
     6
 48
5.0
100
AcDbBlockEnd
  0
BLOCK
  5
3998
330
3981
100
AcDbEntity
  8
0
 62
     6
 48
5.0
100
AcDbBlockBegin
  2
E140s
 70
     0
 10
0.0
 20
0.0
 30
0.0
  3
E140s
  1

  0
LINE
  5
3982
330
3981
100
AcDbEntity
  8
0
 62
     3
100
AcDbLine
 10
9.0
 20
11.0
 30
0.0
 11
9.0
 21
141.8479032521526
 31
0.0
  0
LINE
  5
3983
330
3981
100
AcDbEntity
  8
0
 62
     3
100
AcDbLine
 10
12.0
 20
11.0
 30
0.0
 11
12.0
 21
141.8479032521526
 31
0.0
  0
LINE
  5
3984
330
3981
100
AcDbEntity
  8
0
 62
     3
100
AcDbLine
 10
-12.0
 20
11.0
 30
0.0
 11
-12.0
 21
141.8479032521526
 31
0.0
  0
LINE
  5
3985
330
3981
100
AcDbEntity
  8
0
 62
     3
100
AcDbLine
 10
-9.0
 20
11.0
 30
0.0
 11
-9.0
 21
141.8479032521526
 31
0.0
  0
LINE
  5
3986
330
3981
100
AcDbEntity
  8
0
 62
     3
100
AcDbLine
 10
-40.0
 20
0.0
 30
0.0
 11
-40.0
 21
141.8479032521526
 31
0.0
  0
LINE
  5
3987
330
3981
100
AcDbEntity
  8
0
 62
     3
100
AcDbLine
 10
40.0
 20
0.0
 30
0.0
 11
40.00000000000002
 21
141.8479032521526
 31
0.0
  0
LINE
  5
3988
330
3981
100
AcDbEntity
  8
0
 62
     4
100
AcDbLine
 10
29.49999654473504
 20
18.7027298060523
 30
0.0
 11
29.49999654473504
 21
-27.55512269151402
 31
0.0
  0
LINE
  5
3989
330
3981
100
AcDbEntity
  8
0
 62
     4
100
AcDbLine
 10
-29.50000345526496
 20
18.7027298060523
 30
0.0
 11
-29.50000345526495
 21
-27.55512269151402
 31
0.0
  0
LINE
  5
398A
330
3981
100
AcDbEntity
  8
0
 62
     3
100
AcDbLine
 10
-40.0
 20
0.0
 30
0.0
 11
40.0
 21
0.0
 31
0.0
  0
LINE
  5
398B
330
3981
100
AcDbEntity
  8
0
 62
     3
100
AcDbLine
 10
-40.0
 20
11.0
 30
0.0
 11
40.0
 21
11.0
 31
0.0
  0
LINE
  5
398C
330
3981
100
AcDbEntity
  8
0
 62
     3
100
AcDbLine
 10
-9.0
 20
29.00000000000003
 30
0.0
 11
9.0
 21
29.00000000000003
 31
0.0
  0
LINE
  5
398D
330
3981
100
AcDbEntity
  8
0
 62
     3
100
AcDbLine
 10
-40.0
 20
29.0
 30
0.0
 11
-12.0
 21
29.0
 31
0.0
  0
LINE
  5
398E
330
3981
100
AcDbEntity
  8
0
 62
     3
100
AcDbLine
 10
12.0
 20
29.0
 30
0.0
 11
40.0
 21
29.0
 31
0.0
  0
LINE
  5
398F
330
3981
100
AcDbEntity
  8
0
  6
VERDECKT
 62
     6
100
AcDbLine
 10
-40.0
 20
146.0000000000004
 30
0.0
 11
40.0
 21
146.0000000000009
 31
0.0
  0
LINE
  5
3990
330
3981
100
AcDbEntity
  8
0
  6
VERDECKT
 62
     6
100
AcDbLine
 10
-40.0
 20
190.0
 30
0.0
 11
40.0
 21
190.0
 31
0.0
  0
LINE
  5
3991
330
3981
100
AcDbEntity
  8
0
  6
VERDECKT
 62
     6
100
AcDbLine
 10
-39.99999999999999
 20
201.0
 30
0.0
 11
40.00000000000002
 21
201.0
 31
0.0
  0
LINE
  5
3992
330
3981
100
AcDbEntity
  8
0
  6
VERDECKT
 62
     6
100
AcDbLine
 10
-40.0
 20
141.8479032521527
 30
0.0
 11
-39.99999999999999
 21
201.0
 31
0.0
  0
LINE
  5
3993
330
3981
100
AcDbEntity
  8
0
  6
VERDECKT
 62
     6
100
AcDbLine
 10
-12.0
 20
141.8479032521527
 30
0.0
 11
-12.0
 21
146.0000000000004
 31
0.0
  0
LINE
  5
3994
330
3981
100
AcDbEntity
  8
0
  6
VERDECKT
 62
     6
100
AcDbLine
 10
-9.0
 20
141.8479032521527
 30
0.0
 11
-9.0
 21
146.0000000000004
 31
0.0
  0
LINE
  5
3995
330
3981
100
AcDbEntity
  8
0
  6
VERDECKT
 62
     6
100
AcDbLine
 10
40.00000000000002
 20
141.8479032521527
 30
0.0
 11
40.00000000000002
 21
201.0
 31
0.0
  0
LINE
  5
3996
330
3981
100
AcDbEntity
  8
0
  6
VERDECKT
 62
     6
100
AcDbLine
 10
12.0
 20
141.8479032521527
 30
0.0
 11
12.0
 21
146.0000000000004
 31
0.0
  0
LINE
  5
3997
330
3981
100
AcDbEntity
  8
0
  6
VERDECKT
 62
     6
100
AcDbLine
 10
9.0
 20
141.8479032521527
 30
0.0
 11
9.0
 21
146.0000000000004
 31
0.0
  0
ENDBLK
  5
3999
330
3981
100
AcDbEntity
  8
0
 62
     6
 48
5.0
100
AcDbBlockEnd
  0
BLOCK
  5
39BD
330
399A
100
AcDbEntity
  8
0
 62
     6
 48
10.0
100
AcDbBlockBegin
  2
e140
 70
     0
 10
0.0
 20
0.0
 30
0.0
  3
e140
  1

  0
LINE
  5
399B
330
399A
100
AcDbEntity
  8
0
 62
     3
100
AcDbLine
 10
1.761882177941579
 20
146.0000000000004
 30
0.0
 11
25.48733180248865
 21
11.0
 31
0.0
  0
LINE
  5
399C
330
399A
100
AcDbEntity
  8
0
 62
     3
100
AcDbLine
 10
-1.761882177942503
 20
146.0000000000001
 30
0.0
 11
-25.48733180248864
 21
11.0
 31
0.0
  0
LINE
  5
399D
330
399A
100
AcDbEntity
  8
0
 62
     3
100
AcDbLine
 10
-4.705591908087658
 20
12.70737123184409
 30
0.0
 11
-2.000000000000454
 21
29.0
 31
0.0
  0
LINE
  5
399E
330
399A
100
AcDbEntity
  8
0
 62
     3
100
AcDbLine
 10
4.705591908087637
 20
12.70737123184401
 30
0.0
 11
1.999999999999545
 21
29.0
 31
0.0
  0
LINE
  5
399F
330
399A
100
AcDbEntity
  8
0
 62
     4
100
AcDbLine
 10
-21.99999999999864
 20
18.45272980605568
 30
0.0
 11
-21.99999999999973
 21
-19.91791965098093
 31
0.0
  0
LINE
  5
39A0
330
399A
100
AcDbEntity
  8
0
 62
     4
100
AcDbLine
 10
21.99999999999954
 20
18.45272980605341
 30
0.0
 11
21.99999999999954
 21
-19.91791965098093
 31
0.0
  0
LINE
  5
39A1
330
399A
100
AcDbEntity
  8
0
 62
     3
100
AcDbLine
 10
-32.50000000000046
 20
0.0
 30
0.0
 11
32.50000000000046
 21
0.0
 31
0.0
  0
LINE
  5
39A2
330
399A
100
AcDbEntity
  8
0
 62
     3
100
AcDbLine
 10
-6.684068191505676
 20
10.99999999999997
 30
0.0
 11
-32.00000000000045
 21
11.0
 31
0.0
  0
LINE
  5
39A3
330
399A
100
AcDbEntity
  8
0
 62
     3
100
AcDbLine
 10
-32.50000000000046
 20
10.5
 30
0.0
 11
-32.50000000000046
 21
0.0
 31
0.0
  0
ARC
  5
39A4
330
399A
100
AcDbEntity
  8
0
 62
     3
100
AcDbCircle
 10
-32.00000000000045
 20
10.5
 30
0.0
 40
0.5
100
AcDbArc
 50
90.0
 51
180.0
  0
LINE
  5
39A5
330
399A
100
AcDbEntity
  8
0
 62
     3
100
AcDbLine
 10
6.684068191505641
 20
10.99999999999997
 30
0.0
 11
32.00000000000045
 21
11.0
 31
0.0
  0
ARC
  5
39A6
330
399A
100
AcDbEntity
  8
0
 62
     3
100
AcDbCircle
 10
-6.684068191505676
 20
12.99999999999997
 30
0.0
 40
2.0
100
AcDbArc
 50
270.0
 51
351.5866003291716
  0
ARC
  5
39A7
330
399A
100
AcDbEntity
  8
0
 62
     3
100
AcDbCircle
 10
6.684068191505641
 20
12.99999999999997
 30
0.0
 40
2.0
100
AcDbArc
 50
188.4133996708317
 51
270.0
  0
LINE
  5
39A8
330
399A
100
AcDbEntity
  8
0
 62
     3
100
AcDbLine
 10
32.50000000000046
 20
10.5
 30
0.0
 11
32.50000000000046
 21
0.0
 31
0.0
  0
ARC
  5
39A9
330
399A
100
AcDbEntity
  8
0
 62
     3
100
AcDbCircle
 10
32.00000000000045
 20
10.5
 30
0.0
 40
0.5
100
AcDbArc
 50
0.0
 51
90.0
  0
LINE
  5
39AA
330
399A
100
AcDbEntity
  8
0
 62
     3
100
AcDbLine
 10
1.761882177941579
 20
146.0000000000004
 30
0.0
 11
1.999999999999545
 21
29.0
 31
0.0
  0
LINE
  5
39AB
330
399A
100
AcDbEntity
  8
0
 62
     3
100
AcDbLine
 10
-1.761882177942503
 20
146.0000000000001
 30
0.0
 11
-2.000000000000454
 21
29.0
 31
0.0
  0
ARC
  5
39AC
330
399A
100
AcDbEntity
  8
0
 62
     3
100
AcDbCircle
 10
-2.549919279120675
 20
189.2
 30
0.0
 40
0.8
100
AcDbArc
 50
359.9768564758476
 51
90.0
  0
ARC
  5
39AD
330
399A
100
AcDbEntity
  8
0
 62
     3
100
AcDbCircle
 10
2.54991927911977
 20
189.2
 30
0.0
 40
0.8
100
AcDbArc
 50
90.0
 51
180.0231435241524
  0
LINE
  5
39AE
330
399A
100
AcDbEntity
  8
0
 62
     3
100
AcDbLine
 10
1.749919344383773
 20
189.1996768554512
 30
0.0
 11
1.761882177941579
 21
146.0000000000004
 31
0.0
  0
LINE
  5
39AF
330
399A
100
AcDbEntity
  8
0
 62
     3
100
AcDbLine
 10
-1.749919344384679
 20
189.1996768554512
 30
0.0
 11
-1.761882177942503
 21
146.0000000000001
 31
0.0
  0
ARC
  5
39B0
330
399A
100
AcDbEntity
  8
0
 62
     3
100
AcDbCircle
 10
-0.0000000000004547
 20
198.0
 30
0.0
 40
3.0
100
AcDbArc
 50
0.0
 51
180.0
  0
LINE
  5
39B1
330
399A
100
AcDbEntity
  8
0
 62
     3
100
AcDbLine
 10
-2.549919279120675
 20
190.0
 30
0.0
 11
-6.000000000000454
 21
190.0
 31
0.0
  0
LINE
  5
39B2
330
399A
100
AcDbEntity
  8
0
 62
     3
100
AcDbLine
 10
-5.597271020094954
 20
193.5344394073002
 30
0.0
 11
-3.100682244976724
 21
196.847524613036
 31
0.0
  0
ARC
  5
39B3
330
399A
100
AcDbEntity
  8
0
 62
     3
100
AcDbCircle
 10
-4.000000000000451
 20
192.330809360996
 30
0.0
 40
2.0
100
AcDbArc
 50
142.9999999999953
 51
180.0
  0
LINE
  5
39B4
330
399A
100
AcDbEntity
  8
0
 62
     3
100
AcDbLine
 10
-6.000000000000454
 20
190.0
 30
0.0
 11
-6.000000000000451
 21
192.330809360996
 31
0.0
  0
LINE
  5
39B5
330
399A
100
AcDbEntity
  8
0
 62
     3
100
AcDbLine
 10
-3.000000000000454
 20
197.1484321246121
 30
0.0
 11
-3.000000000000454
 21
198.0
 31
0.0
  0
ARC
  5
39B6
330
399A
100
AcDbEntity
  8
0
 62
     3
100
AcDbCircle
 10
-3.500000000000454
 20
197.1484321246121
 30
0.0
 40
0.5
100
AcDbArc
 50
322.9999999999953
 51
0.0000000000032569
  0
ARC
  5
39B7
330
399A
100
AcDbEntity
  8
0
 62
     3
100
AcDbCircle
 10
3.999999999999545
 20
192.330809360996
 30
0.0
 40
2.0
100
AcDbArc
 50
0.0
 51
37.00000000000466
  0
LINE
  5
39B8
330
399A
100
AcDbEntity
  8
0
 62
     3
100
AcDbLine
 10
2.54991927911977
 20
190.0
 30
0.0
 11
5.999999999999545
 21
190.0
 31
0.0
  0
LINE
  5
39B9
330
399A
100
AcDbEntity
  8
0
 62
     3
100
AcDbLine
 10
5.597271020094048
 20
193.5344394073003
 30
0.0
 11
3.100682244975814
 21
196.847524613036
 31
0.0
  0
ARC
  5
39BA
330
399A
100
AcDbEntity
  8
0
 62
     3
100
AcDbCircle
 10
3.499999999999545
 20
197.1484321246121
 30
0.0
 40
0.5
100
AcDbArc
 50
179.9999999999967
 51
217.0000000000047
  0
LINE
  5
39BB
330
399A
100
AcDbEntity
  8
0
 62
     3
100
AcDbLine
 10
2.999999999999545
 20
197.1484321246121
 30
0.0
 11
2.999999999999545
 21
198.0
 31
0.0
  0
LINE
  5
39BC
330
399A
100
AcDbEntity
  8
0
 62
     3
100
AcDbLine
 10
5.999999999999545
 20
190.0
 30
0.0
 11
5.999999999999545
 21
192.330809360996
 31
0.0
  0
ENDBLK
  5
39BE
330
399A
100
AcDbEntity
  8
0
 62
     6
 48
10.0
100
AcDbBlockEnd
  0
BLOCK
  5
4EF5
330
4ED7
100
AcDbEntity
  8
0
 48
5.0
100
AcDbBlockBegin
  2
A$C564459C5
 70
     0
 10
0.0
 20
0.0
 30
0.0
  3
A$C564459C5
  1

  0
TEXT
  5
4ED8
330
4ED7
100
AcDbEntity
  8
TXT-D
100
AcDbText
 10
461.5585752347678
 20
725.6607553554963
 30
0.0
 40
14.0
  1
uzávěra hř.
  7
ROMANS
100
AcDbText
  0
TEXT
  5
4ED9
330
4ED7
100
AcDbEntity
  8
TXT-D
100
AcDbText
 10
136.2215791237545
 20
813.8257352209839
 30
0.0
 40
14.0
  1
Kalzip
  7
ROMANS
100
AcDbText
  0
TEXT
  5
4EDA
330
4ED7
100
AcDbEntity
  8
TXT-D
100
AcDbText
 10
423.9507089712142
 20
268.9819026035815
 30
0.0
 40
14.0
  1
trapézový plech
  7
ROMANS
100
AcDbText
  0
TEXT
  5
4EDB
330
4ED7
100
AcDbEntity
  8
TXT-D
100
AcDbText
 10
889.0489095162434
 20
88.05574861755941
 30
0.0
 40
14.0
  1
těsnící pásek
  7
ROMANS
100
AcDbText
  0
TEXT
  5
4EDC
330
4ED7
100
AcDbEntity
  8
TXT-D
100
AcDbText
 10
889.0489095162434
 20
208.2831874201393
 30
0.0
 40
14.0
  1
C profil
  7
ROMANS
100
AcDbText
  0
TEXT
  5
4EDD
330
4ED7
100
AcDbEntity
  8
TXT-D
100
AcDbText
 10
889.0489095162434
 20
268.3969068214292
 30
0.0
 40
14.0
  1
trapézový plech
  7
ROMANS
100
AcDbText
  0
TEXT
  5
4EDE
330
4ED7
100
AcDbEntity
  8
TXT-D
100
AcDbText
 10
889.0489095162434
 20
148.1694680188493
 30
0.0
 40
14.0
  1
tepelná izolace
  7
ROMANS
100
AcDbText
  0
MTEXT
  5
4EDF
102
{ACAD_XDICTIONARY
360
4FEA
102
}
330
4ED7
100
AcDbEntity
  8
TXT-D
100
AcDbMText
 10
889.0489095162434
 20
42.32413366926448
 30
0.0
 40
14.0
 41
147.3781
 71
     1
 72
     5
  1
p\U+00E1s tepeln\U+00E9 izolace
  7
ROMANS
 73
     1
 44
1.0
  0
MTEXT
  5
4EE0
102
{ACAD_XDICTIONARY
360
4FEC
102
}
330
4ED7
100
AcDbEntity
  8
TXT-D
100
AcDbMText
 10
889.0489095162436
 20
537.0143986770059
 30
0.0
 40
14.0
 41
162.0782460002058
 71
     1
 72
     5
  1
uzav\U+00EDrac\U+00ED profil
  7
ROMANS
 73
     1
 44
1.0
1001
ACAD
1000
ACAD_MTEXT_DEFINED_HEIGHT_BEGIN
1070
    46
1040
1.819186803003503
1000
ACAD_MTEXT_DEFINED_HEIGHT_END
  0
MTEXT
  5
4EE1
102
{ACAD_XDICTIONARY
360
4FEE
102
}
330
4ED7
100
AcDbEntity
  8
TXT-D
100
AcDbMText
 10
423.9507089712142
 20
181.130429567927
 30
0.0
 40
14.0
 41
184.628
 71
     7
 72
     5
  1
vnit\U+0159n\U+00ED uzav\U+00EDrac\U+00ED oplechov\U+00E1n\U+00ED
  7
ROMANS
 73
     1
 44
1.0
  0
TEXT
  5
4EE2
330
4ED7
100
AcDbEntity
  8
TXT-D
100
AcDbText
 10
890.1569242894421
 20
819.786383481933
 30
0.0
 40
14.0
  1
výztužný profil
  7
ROMANS
100
AcDbText
  0
MTEXT
  5
4EE3
102
{ACAD_XDICTIONARY
360
4FF0
102
}
330
4ED7
100
AcDbEntity
  8
TXT-D
100
AcDbMText
 10
889.0489095162434
 20
473.398611269353
 30
0.0
 40
14.0
 41
147.3781
 71
     1
 72
     5
  1
t\U+011Bsn\U+00EDc\U+00ED p\U+00E1sek 2x
  7
ROMANS
 73
     1
 44
1.0
  0
TEXT
  5
4EE4
330
4ED7
100
AcDbEntity
  8
TXT-D
100
AcDbText
 10
52.08305652608942
 20
872.1615448418884
 30
0.0
 40
14.0
  1
poplastovaná klipsa*
  7
ROMANS
100
AcDbText
  0
TEXT
  5
4EE5
330
4ED7
100
AcDbEntity
  8
TXT-D
100
AcDbText
 10
138.1646682392573
 20
891.0251748611761
 30
0.0
 40
14.0
  1
alternativa:
  7
ROMANS
100
AcDbText
  0
TEXT
  5
4EE6
330
4ED7
100
AcDbEntity
  8
TXT-D
100
AcDbText
 10
476.995132266642
 20
940.1896695356397
 30
0.0
 40
14.0
  1
v hřebeni
  7
ROMANS
100
AcDbText
  0
TEXT
  5
4EE7
330
4ED7
100
AcDbEntity
  8
TXT-D
100
AcDbText
 10
902.9738063531155
 20
591.0754009195096
 30
0.0
 40
14.0
  1
tepelná izolace - tvrdá
  7
ROMANS
100
AcDbText
  0
TEXT
  5
4EE8
330
4ED7
100
AcDbEntity
  8
TXT-D
100
AcDbText
 10
200.8969684672607
 20
708.219485996716
 30
0.0
 40
14.0
  1
parotěsná vrstva
  7
ROMANS
100
AcDbText
  0
MTEXT
  5
4EE9
102
{ACAD_XDICTIONARY
360
4EEA
102
}
330
4ED7
100
AcDbEntity
  8
TXT-D
100
AcDbMText
 10
438.5815190188118
 20
748.4563088608383
 30
0.0
 40
14.0
 41
156.1007834499264
 71
     7
 72
     5
  1
\pi76.414;kotven\U+00ED \P\pi25.895;h\U+0159ebenov\U+00E9ho \P\pi29.515;oplechov\U+00E1n\U+00ED:\P\pi98.674;max. \P\pi44.957;vzd\U+00E1lenost \P\pi9.6704;400mm, jen do \P\pi47.736;h\U+0159ebenov\U+00E9 \P\pi71.009;uz\U+00E1v\U+011Bry\P
  7
ROMANS
 73
     1
 44
1.0
  0
TEXT
  5
4EEB
330
4ED7
100
AcDbEntity
  8
TXT-D
100
AcDbText
 10
5.392197946109945
 20
770.994212526586
 30
0.0
 40
14.0
  1
tepelná izolace - minerální vlna
  7
ROMANS
100
AcDbText
  0
TEXT
  5
4EEC
330
4ED7
100
AcDbEntity
  8
TXT-D
100
AcDbText
 10
899.5829188529311
 20
942.048795032371
 30
0.0
 40
14.0
  1
Z profil
  7
ROMANS
100
AcDbText
  0
TEXT
  5
4EED
330
4ED7
100
AcDbEntity
  8
TXT-D
100
AcDbText
 10
900.1129269527583
 20
902.0627998589993
 30
0.0
 40
14.0
  1
zahnutí v hřebeni
  7
ROMANS
100
AcDbText
  0
TEXT
  5
4EEE
330
4ED7
100
AcDbEntity
  8
TXT-D
100
AcDbText
 10
899.4271395956657
 20
855.3280593447791
 30
0.0
 40
14.0
  1
oplechování
  7
ROMANS
100
AcDbText
  0
TEXT
  5
4EEF
330
4ED7
100
AcDbEntity
  8
TXT-D
100
AcDbText
 10
122.9733126665533
 20
940.3802689453131
 30
0.0
 40
14.0
  1
pevný bod na klipse
  7
ROMANS
100
AcDbText
  0
TEXT
  5
4EF0
330
4ED7
100
AcDbEntity
  8
TXT-D
100
AcDbText
 10
6.333290449198784
 20
918.7476396239508
 30
0.0
 40
14.0
  1
hliníková klipsa s termopodložkou
  7
ROMANS
100
AcDbText
  0
MTEXT
  5
4EF1
102
{ACAD_XDICTIONARY
360
4FF3
102
}
330
4ED7
100
AcDbEntity
  8
TXT-D
100
AcDbMText
 10
138.0454618817757
 20
1003.337452843889
 30
0.0
 40
14.0
 41
231.5306
 71
     7
 72
     5
  1
typ pevn\U+00E9ho bodu stanoven\U+00FD v\U+00FDpo\U+010Dtem
  7
ROMANS
 73
     1
 44
1.0
  0
TEXT
  5
4EF2
330
4ED7
100
AcDbEntity
  8
TXT-D
100
AcDbText
 10
899.4271395956657
 20
873.4289589197144
 30
0.0
 40
14.0
  1
hřebenové 
  7
ROMANS
100
AcDbText
  0
TEXT
  5
4EF3
330
4ED7
100
AcDbEntity
  8
TXT-D
100
AcDbText
 10
475.0023679301739
 20
962.0997288114962
 30
0.0
 40
14.0
  1
ucpávka
  7
ROMANS
100
AcDbText
  0
ENDBLK
  5
4EF6
330
4ED7
100
AcDbEntity
  8
0
 48
5.0
100
AcDbBlockEnd
  0
BLOCK
  5
4F01
330
4EFE
100
AcDbEntity
  8
0
 48
5.0
100
AcDbBlockBegin
  2
A$C35F5568E
 70
     0
 10
0.0
 20
0.0
 30
0.0
  3
A$C35F5568E
  1

  0
MTEXT
  5
4EFF
102
{ACAD_XDICTIONARY
360
4FF7
102
}
330
4EFE
100
AcDbEntity
  8
TXT-D
100
AcDbMText
 10
2.018523547789167
 20
-2.342959022199124
 30
0.0
 40
2.8
 41
106.1716
 71
     1
 72
     5
  1
{\C7;* Poplastovan\U+00E9 klipsy nejsou vyr\U+00E1b\U+011Bny ve v\U+0161ech rozm\U+011Brech}
  7
ROMANS
 73
     1
 44
1.0
  0
ENDBLK
  5
4F02
330
4EFE
100
AcDbEntity
  8
0
 48
5.0
100
AcDbBlockEnd
  0
ENDSEC
  0
SECTION
  2
ENTITIES
  0
LINE
  5
1AD3
330
18
100
AcDbEntity
  8
V5
100
AcDbLine
 10
114.5246346490083
 20
833.4035571075705
 30
0.0
 11
382.4420640242771
 21
856.8432949389142
 31
0.0
  0
LINE
  5
1AD4
330
18
100
AcDbEntity
  8
V5
100
AcDbLine
 10
114.5246346490083
 20
813.3271603567035
 30
0.0
 11
384.8781905143478
 21
836.9800316388436
 31
0.0
  0
LINE
  5
1AD5
330
18
100
AcDbEntity
  8
V5
100
AcDbLine
 10
618.7373037187157
 20
877.5164496573182
 30
0.0
 11
621.5293883320637
 21
847.0719861427159
 31
0.0
  0
LINE
  5
1AD6
330
18
100
AcDbEntity
  8
V5
100
AcDbLine
 10
114.5246346490083
 20
774.1781866925135
 30
0.0
 11
387.4245064947963
 21
798.053831756697
 31
0.0
  0
LINE
  5
1ADD
330
18
100
AcDbEntity
  8
V5
100
AcDbLine
 10
393.3488667856163
 20
798.5721461207861
 30
0.0
 11
414.75642703014
 21
800.4450649559306
 31
0.0
  0
LINE
  5
1ADE
330
18
100
AcDbEntity
  8
V5
100
AcDbLine
 10
389.9497928184576
 20
837.4237393463644
 30
0.0
 11
411.253109814988
 21
839.28753807906
 31
0.0
  0
LINE
  5
1ADF
330
18
100
AcDbEntity
  8
V5
100
AcDbLine
 10
409.5099949600349
 20
859.2114320408949
 30
0.0
 11
388.2066779635045
 21
857.3476333081993
 31
0.0
  0
LINE
  5
1AE1
330
18
100
AcDbEntity
  8
V5
100
AcDbLine
 10
414.7873665036124
 20
859.6731422241724
 30
0.0
 11
618.7373037187157
 21
877.5164496573182
 31
0.0
  0
LINE
  5
1AE2
330
18
100
AcDbEntity
  8
V5
100
AcDbLine
 10
442.7579478099501
 20
842.0438542498404
 30
0.0
 11
620.4804185736687
 21
857.5925556954834
 31
0.0
  0
LINE
  5
1AE3
330
18
100
AcDbEntity
  8
V5
100
AcDbLine
 10
447.1594648958928
 20
803.2305493198794
 30
0.0
 11
582.1453336644301
 21
815.4123843128697
 31
0.0
  0
LINE
  5
1AE6
330
18
100
AcDbEntity
  8
V25
100
AcDbLine
 10
684.9868367696127
 20
204.0210715385608
 30
0.0
 11
684.9868367696127
 21
534.1758040109158
 31
0.0
  0
LINE
  5
1AE7
330
18
100
AcDbEntity
  8
V25
100
AcDbLine
 10
680.2218805637441
 20
543.7971227361384
 30
0.0
 11
419.9271734902226
 21
521.0242866914041
 31
0.0
  0
LINE
  5
1AE8
330
18
100
AcDbEntity
  8
V25
100
AcDbLine
 10
674.9868367696127
 20
204.0210715385608
 30
0.0
 11
674.9868367696127
 21
533.3009173756567
 31
0.0
  0
LINE
  5
1AE9
330
18
100
AcDbEntity
  8
V25
100
AcDbLine
 10
684.9868367696127
 20
534.1758040109158
 30
0.0
 11
414.9868367696127
 21
510.5538648589164
 31
0.0
  0
LINE
  5
1AEA
330
18
100
AcDbEntity
  8
V25
100
AcDbLine
 10
394.9868367696128
 20
247.8109338271275
 30
0.0
 11
394.9868367696128
 21
518.8422899638315
 31
0.0
  0
LINE
  5
1AEB
330
18
100
AcDbEntity
  8
V25
100
AcDbLine
 10
394.9868367696128
 20
518.8422899638315
 30
0.0
 11
115.3373625358026
 21
494.3761312073881
 31
0.0
  0
LINE
  5
1AEC
330
18
100
AcDbEntity
  8
V25
100
AcDbLine
 10
420.7987309176992
 20
511.0623397104866
 30
0.0
 11
419.9271734902226
 21
521.0242866914041
 31
0.0
  0
LINE
  5
1AED
330
18
100
AcDbEntity
  8
V25
100
AcDbLine
 10
394.9868367696128
 20
514.6400757812516
 30
0.0
 11
414.9868367696127
 21
514.6400757812516
 31
0.0
  0
LINE
  5
1AEE
330
18
100
AcDbEntity
  8
V25
100
AcDbLine
 10
394.9868367696128
 20
508.8040915883978
 30
0.0
 11
115.3373625358026
 21
484.3379328319547
 31
0.0
  0
LINE
  5
1AEF
330
18
100
AcDbEntity
  8
V25
100
AcDbLine
 10
394.9868367696128
 20
247.8109338271275
 30
0.0
 11
115.3373625358026
 21
223.3447750706844
 31
0.0
  0
LINE
  5
1AF0
330
18
100
AcDbEntity
  8
V25
100
AcDbLine
 10
394.9868367696128
 20
257.8491322025611
 30
0.0
 11
115.3373625358026
 21
233.3829734461178
 31
0.0
  0
LINE
  5
1AF1
330
18
100
AcDbEntity
  8
V25
100
AcDbLine
 10
394.9868367696128
 20
252.2591372324249
 30
0.0
 11
414.9868367696127
 21
252.2591372324248
 31
0.0
  0
LINE
  5
1AF2
330
18
100
AcDbEntity
  8
V25
100
AcDbLine
 10
378.9109530635033
 20
479.0993175191105
 30
0.0
 11
440.8074311200253
 21
479.0993175191105
 31
0.0
  0
LINE
  5
1AF3
330
18
100
AcDbEntity
  8
V25
100
AcDbLine
 10
378.9109530635033
 20
283.9366583960552
 30
0.0
 11
440.8074311200253
 21
283.9366583960552
 31
0.0
  0
LINE
  5
1AF4
330
18
100
AcDbEntity
  8
ACHS
 62
     3
 48
4.0
100
AcDbLine
 10
114.5246346490083
 20
850.5669150644266
 30
0.0
 11
114.5246346490085
 21
201.5467711123406
 31
0.0
  0
LINE
  5
1AF6
330
18
100
AcDbEntity
  8
V25
100
AcDbLine
 10
424.9868367696127
 20
257.8610612375834
 30
0.0
 11
674.9399378125026
 21
257.8610612375834
 31
0.0
  0
LINE
  5
1AF7
330
18
100
AcDbEntity
  8
V25
100
AcDbLine
 10
424.9868367696127
 20
247.8610612375834
 30
0.0
 11
674.9399378125026
 21
247.8610612375834
 31
0.0
  0
INSERT
  5
1AFB
330
18
100
AcDbEntity
  8
V25
100
AcDbBlockReference
  2
Z45-6
 10
615.2559014663054
 20
882.3577606521636
 30
0.0
  0
TEXT
  5
1AFF
330
18
100
AcDbEntity
  8
TXT-D
100
AcDbText
 10
150.6605595042306
 20
923.4631633712305
 30
0.0
 40
14.0
  1
uzávěra hřebene
  7
ROMANS
100
AcDbText
  0
TEXT
  5
1B00
330
18
100
AcDbEntity
  8
TXT-D
100
AcDbText
 10
190.6990110375359
 20
881.4328455880787
 30
0.0
 40
14.0
  1
Kalzip
  7
ROMANS
100
AcDbText
  0
TEXT
  5
1B01
330
18
100
AcDbEntity
  8
TXT-D
100
AcDbText
 10
190.6990110375359
 20
1159.003127793245
 30
0.0
 40
14.0
  1
alternativa: hliníková
  7
ROMANS
100
AcDbText
  0
TEXT
  5
1B02
330
18
100
AcDbEntity
  8
TXT-D
100
AcDbText
 10
191.7579335131606
 20
1139.139800217495
 30
0.0
 40
14.0
  1
klipsa s termopodložkou
  7
ROMANS
100
AcDbText
  0
LINE
  5
1B0C
330
18
100
AcDbEntity
  8
TXT-D
100
AcDbLine
 10
552.3800290361796
 20
1270.533869167624
 30
0.0
 11
624.5189923482544
 21
1270.533869167624
 31
0.0
  0
LINE
  5
1B11
330
18
100
AcDbEntity
  8
TXT-D
100
AcDbLine
 10
552.3800290361796
 20
1245.918465950343
 30
0.0
 11
603.3981929947241
 21
1245.918465950343
 31
0.0
  0
LINE
  5
1B1C
330
18
100
AcDbEntity
  8
TXT-D
100
AcDbLine
 10
333.5862746356431
 20
841.5975270017211
 30
0.0
 11
333.586274635643
 21
886.7061254833522
 31
0.0
  0
LWPOLYLINE
  5
1B1D
330
18
100
AcDbEntity
  8
V35
100
AcDbPolyline
 90
        2
 70
     1
 43
2.9
 10
332.0362746356432
 20
841.5975270017211
 42
1.0
 10
335.1362746356431
 20
841.5975270017211
 42
1.0
  0
LINE
  5
1B1E
330
18
100
AcDbEntity
  8
TXT-D
100
AcDbLine
 10
433.6888526417797
 20
1105.360816532358
 30
0.0
 11
304.325925953286
 21
1105.360816532358
 31
0.0
  0
TEXT
  5
1B1F
330
18
100
AcDbEntity
  8
TXT-D
100
AcDbText
 10
132.3965900246717
 20
1099.83335526561
 30
0.0
 40
14.0
  1
ucpávka hřebene
  7
ROMANS
100
AcDbText
  0
LINE
  5
1B20
330
18
100
AcDbEntity
  8
TXT-D
100
AcDbLine
 10
333.586274635643
 20
886.7061254833522
 30
0.0
 11
262.0641934829489
 21
886.7061254833521
 31
0.0
  0
LINE
  5
1B22
330
18
100
AcDbEntity
  8
TXT-D
100
AcDbLine
 10
382.6520215021521
 20
866.0837180100408
 30
0.0
 11
382.6520215021521
 21
929.3758914096825
 31
0.0
  0
LINE
  5
1B23
330
18
100
AcDbEntity
  8
TXT-D
100
AcDbLine
 10
382.6520215021521
 20
929.3758914096825
 30
0.0
 11
318.0370905002192
 21
929.3758914096825
 31
0.0
  0
LINE
  5
1B24
330
18
100
AcDbEntity
  8
TXT-D
100
AcDbLine
 10
433.6888526417795
 20
845.1618433452834
 30
0.0
 11
433.6888526417797
 21
1105.360816532358
 31
0.0
  0
LINE
  5
1B25
330
18
100
AcDbEntity
  8
TXT-D
100
AcDbLine
 10
603.3981929947241
 20
837.0096563662032
 30
0.0
 11
603.3981929947241
 21
921.1236431829616
 31
0.0
  0
LINE
  5
1B26
330
18
100
AcDbEntity
  8
TXT-D
100
AcDbLine
 10
688.5274235765322
 20
962.5360591254986
 30
0.0
 11
643.6061193076376
 21
994.6945434282408
 31
0.0
  0
LINE
  5
1B27
330
18
100
AcDbEntity
  8
TXT-D
100
AcDbLine
 10
643.6061193076376
 20
994.6945434282408
 30
0.0
 11
643.6061193076377
 21
1295.149272384905
 31
0.0
  0
LINE
  5
1B28
330
18
100
AcDbEntity
  8
TXT-D
100
AcDbLine
 10
624.5189923482544
 20
885.8078595706052
 30
0.0
 11
624.5189923482544
 21
922.0970324619216
 31
0.0
  0
TEXT
  5
1B29
330
18
100
AcDbEntity
  8
TXT-D
100
AcDbText
 10
852.2472990738032
 20
1187.937545518362
 30
0.0
 40
14.0
  1
výztužný plech atiky
  7
ROMANS
100
AcDbText
  0
LINE
  5
1B2D
330
18
100
AcDbEntity
  8
V25
100
AcDbLine
 10
424.9868367696127
 20
204.0210715385608
 30
0.0
 11
424.9868367696127
 21
511.4287514941756
 31
0.0
  0
LINE
  5
1B2E
330
18
100
AcDbEntity
  8
V25
100
AcDbLine
 10
414.9868367696129
 20
204.0210715385608
 30
0.0
 11
414.9868367696127
 21
514.6400757812515
 31
0.0
  0
LINE
  5
1BB9
330
18
100
AcDbEntity
  8
V25
100
AcDbLine
 10
680.2218805637441
 20
543.7971227361384
 30
0.0
 11
681.0934379912207
 21
533.8351757552207
 31
0.0
  0
INSERT
  5
1BBA
330
18
100
AcDbEntity
  8
V25
100
AcDbBlockReference
  2
HOLZ
 10
842.553971246016
 20
1048.178226274024
 30
0.0
 41
-1.0
  0
LINE
  5
1BBB
330
18
100
AcDbEntity
  8
TXT-D
100
AcDbLine
 10
847.2474696704496
 20
1192.158617885345
 30
0.0
 11
822.7555897220675
 21
1192.158617885345
 31
0.0
  0
LINE
  5
1BBC
330
18
100
AcDbEntity
  8
TXT-D
100
AcDbLine
 10
706.6287353615681
 20
1100.012074683376
 30
0.0
 11
706.6287353615681
 21
1275.015760742487
 31
0.0
  0
LINE
  5
1BBD
330
18
100
AcDbEntity
  8
TXT-D
100
AcDbLine
 10
762.5327647997488
 20
1070.470941083724
 30
0.0
 11
762.532764799749
 21
1234.854209939219
 31
0.0
  0
LINE
  5
1BBE
330
18
100
AcDbEntity
  8
TXT-D
100
AcDbLine
 10
822.778701635276
 20
1095.768593395338
 30
0.0
 11
822.7555897220675
 21
1192.158617885345
 31
0.0
  0
LINE
  5
1BC1
102
{ACAD_REACTORS
330
32CC
102
}
330
18
100
AcDbEntity
  8
ACHS
 62
     3
 48
4.0
100
AcDbLine
 10
396.123551416538
 20
204.0210715385608
 30
0.0
 11
862.8584295697647
 21
204.0210715385608
 31
0.0
  0
TEXT
  5
1BC2
330
18
100
AcDbEntity
  8
TXT-D
100
AcDbText
 10
853.6303862130944
 20
1270.794688375505
 30
0.0
 40
14.0
  1
oplechování atiky
  7
ROMANS
100
AcDbText
  0
TEXT
  5
1BC3
330
18
100
AcDbEntity
  8
TXT-D
100
AcDbText
 10
853.6303862130944
 20
1230.633137572236
 30
0.0
 40
14.0
  1
dřevěný hranolek
  7
ROMANS
100
AcDbText
  0
LINE
  5
1BC4
330
18
100
AcDbEntity
  8
TXT-D
100
AcDbLine
 10
847.2474696704496
 20
1234.854209939219
 30
0.0
 11
762.532764799749
 21
1234.854209939219
 31
0.0
  0
ARC
  5
1BD6
330
18
100
AcDbEntity
  8
ISO
100
AcDbCircle
 10
136.8944985514602
 20
640.3048381237647
 30
0.0
 40
12.44779650331495
100
AcDbArc
 50
185.0
 51
275.0
  0
ARC
  5
1BD8
330
18
100
AcDbEntity
  8
ISO
100
AcDbCircle
 10
117.1719600862303
 20
752.6064376977964
 30
0.0
 40
12.44779650331495
100
AcDbArc
 50
4.999999999999998
 51
94.99999999999996
  0
LINE
  5
1BD9
330
18
100
AcDbEntity
  8
ISO
100
AcDbLine
 10
115.3373625358025
 20
674.7225957855467
 30
0.0
 11
124.4940698931302
 21
639.2199386456534
 31
0.0
  0
ARC
  5
1BDA
330
18
100
AcDbEntity
  8
ISO
100
AcDbCircle
 10
112.0936407924059
 20
638.1350442241284
 30
0.0
 40
12.44779650331495
100
AcDbArc
 50
285.1048373055876
 51
4.999999999999998
  0
ARC
  5
1BDC
330
18
100
AcDbEntity
  8
ISO
100
AcDbCircle
 10
161.6953563105144
 20
642.4746320234008
 30
0.0
 40
12.44779650331495
100
AcDbArc
 50
185.0
 51
275.0
  0
ARC
  5
1BDE
330
18
100
AcDbEntity
  8
ISO
100
AcDbCircle
 10
141.9728178452847
 20
754.7762315974325
 30
0.0
 40
12.44779650331495
100
AcDbArc
 50
4.999999999999998
 51
94.99999999999996
  0
ARC
  5
1BE0
330
18
100
AcDbEntity
  8
ISO
100
AcDbCircle
 10
136.8944985514602
 20
640.3048381237647
 30
0.0
 40
12.44779650331495
100
AcDbArc
 50
275.0
 51
4.999999999999998
  0
ARC
  5
1BE1
330
18
100
AcDbEntity
  8
ISO
100
AcDbCircle
 10
141.9728178452847
 20
754.7762315974325
 30
0.0
 40
12.44779650331495
100
AcDbArc
 50
94.99999999999998
 51
185.0
  0
ARC
  5
1BE6
330
18
100
AcDbEntity
  8
ISO
100
AcDbCircle
 10
161.6953563105144
 20
642.4746320234008
 30
0.0
 40
12.44779650331495
100
AcDbArc
 50
275.0
 51
4.999999999999998
  0
ARC
  5
1BE7
330
18
100
AcDbEntity
  8
ISO
100
AcDbCircle
 10
166.7736756043389
 20
756.9460254970687
 30
0.0
 40
12.44779650331495
100
AcDbArc
 50
94.99999999999998
 51
185.0
  0
LWPOLYLINE
  5
1BE8
330
18
100
AcDbEntity
  8
V5
100
AcDbPolyline
 90
        8
 70
     0
 43
1.5
 10
868.1054057094325
 20
1007.578072393666
 10
868.1054057094325
 20
1104.472056519479
 10
829.4355260060534
 20
1102.425417766115
 10
819.0098711396258
 20
1091.999762899687
 10
707.369756386528
 20
1091.999762899687
 10
695.8165282315708
 20
1095.353510092012
 10
663.2826345159588
 20
1093.631624009434
 10
663.2826345159588
 20
1007.578072393666
  0
LWPOLYLINE
  5
1BE9
330
18
100
AcDbEntity
  8
V5
100
AcDbPolyline
 90
        6
 70
     0
 43
2.2
 10
861.5460854479044
 20
1009.195199087286
 10
872.1526871657026
 20
998.5885973694882
 10
872.1526871657026
 20
1108.772581231908
 10
660.0132734846944
 20
1097.544908725917
 10
660.0132734846944
 20
998.5885973694882
 10
670.6198752024928
 20
1009.195199087286
  0
LINE
  5
1BEA
330
18
100
AcDbEntity
  8
V25
100
AcDbLine
 10
809.663188594699
 20
1069.018366562975
 30
0.0
 11
809.663188594699
 21
1095.391896590213
 31
0.0
  0
LINE
  5
1BEB
330
18
100
AcDbEntity
  8
V25
100
AcDbLine
 10
721.3474745745665
 20
1069.018366562975
 30
0.0
 11
721.3474745745665
 21
1095.391896590213
 31
0.0
  0
LWPOLYLINE
  5
1BEC
330
18
100
AcDbEntity
  8
V5
  6
GESTRICHELT
 48
5.0
100
AcDbPolyline
 90
        2
 70
   128
 43
4.0
 10
681.8697752462197
 20
671.5548336144673
 10
114.5246346490083
 20
621.9185655056897
  0
LINE
  5
1BED
330
18
100
AcDbEntity
  8
V25
100
AcDbLine
 10
706.1596832045872
 20
1067.178226274024
 30
0.0
 11
682.3786550805238
 21
1067.091070531276
 31
0.0
  0
ARC
  5
1C16
330
18
100
AcDbEntity
  8
ISO
100
AcDbCircle
 10
591.174430661106
 20
680.0491822506843
 30
0.0
 40
12.44779650331495
100
AcDbArc
 50
185.0
 51
275.0
  0
ARC
  5
1C18
330
18
100
AcDbEntity
  8
ISO
100
AcDbCircle
 10
610.9610894663484
 20
795.8073912385388
 30
0.0
 40
12.44779650331495
100
AcDbArc
 50
4.999999999999998
 51
94.99999999999996
  0
ARC
  5
1C1A
330
18
100
AcDbEntity
  8
ISO
100
AcDbCircle
 10
566.3735729020518
 20
677.8793883510481
 30
0.0
 40
12.44779650331495
100
AcDbArc
 50
275.0
 51
4.999999999999998
  0
ARC
  5
1C1B
330
18
100
AcDbEntity
  8
ISO
100
AcDbCircle
 10
610.9610894663484
 20
795.8073912385388
 30
0.0
 40
12.44779650331495
100
AcDbArc
 50
94.99999999999998
 51
185.0
  0
ARC
  5
1C1C
330
18
100
AcDbEntity
  8
ISO
100
AcDbCircle
 10
615.9752884201602
 20
682.2189761503205
 30
0.0
 40
12.44779650331495
100
AcDbArc
 50
185.0
 51
250.3568232608484
  0
ARC
  5
1C1E
330
18
100
AcDbEntity
  8
ISO
100
AcDbCircle
 10
635.7619472254026
 20
797.977185138175
 30
0.0
 40
12.44779650331495
100
AcDbArc
 50
4.999999999999998
 51
94.99999999999996
  0
ARC
  5
1C20
330
18
100
AcDbEntity
  8
ISO
100
AcDbCircle
 10
591.174430661106
 20
680.0491822506843
 30
0.0
 40
12.44779650331495
100
AcDbArc
 50
275.0
 51
4.999999999999998
  0
ARC
  5
1C21
330
18
100
AcDbEntity
  8
ISO
100
AcDbCircle
 10
635.7619472254026
 20
797.977185138175
 30
0.0
 40
12.44779650331495
100
AcDbArc
 50
94.99999999999998
 51
185.0
  0
ARC
  5
1C22
330
18
100
AcDbEntity
  8
ISO
100
AcDbCircle
 10
586.1602317072944
 20
793.6375973389027
 30
0.0
 40
12.44779650331495
100
AcDbArc
 50
94.99999999999998
 51
185.0
  0
ARC
  5
1C23
330
18
100
AcDbEntity
  8
ISO
100
AcDbCircle
 10
541.5727151429975
 20
675.7095944514119
 30
0.0
 40
12.44779650331495
100
AcDbArc
 50
275.0
 51
4.999999999999998
  0
ARC
  5
1C25
330
18
100
AcDbEntity
  8
ISO
100
AcDbCircle
 10
586.1602317072944
 20
793.6375973389027
 30
0.0
 40
12.44779650331495
100
AcDbArc
 50
4.999999999999998
 51
94.99999999999996
  0
ARC
  5
1C27
330
18
100
AcDbEntity
  8
ISO
100
AcDbCircle
 10
566.3735729020518
 20
677.8793883510481
 30
0.0
 40
12.44779650331495
100
AcDbArc
 50
185.0
 51
275.0
  0
ARC
  5
1C28
330
18
100
AcDbEntity
  8
ISO
100
AcDbCircle
 10
561.3593739482402
 20
791.4678034392665
 30
0.0
 40
12.44779650331495
100
AcDbArc
 50
94.99999999999998
 51
185.0
  0
ARC
  5
1C29
330
18
100
AcDbEntity
  8
ISO
100
AcDbCircle
 10
516.7718573839433
 20
673.5398005517756
 30
0.0
 40
12.44779650331495
100
AcDbArc
 50
275.0
 51
4.999999999999998
  0
ARC
  5
1C2B
330
18
100
AcDbEntity
  8
ISO
100
AcDbCircle
 10
561.3593739482402
 20
791.4678034392665
 30
0.0
 40
12.44779650331495
100
AcDbArc
 50
4.999999999999998
 51
94.99999999999996
  0
ARC
  5
1C2D
330
18
100
AcDbEntity
  8
ISO
  6
VERDECKT
 48
2.5
100
AcDbCircle
 10
541.5727151429975
 20
675.7095944514119
 30
0.0
 40
12.44779650331495
100
AcDbArc
 50
185.0
 51
275.0
  0
ARC
  5
1C31
330
18
100
AcDbEntity
  8
ISO
100
AcDbCircle
 10
536.558516189186
 20
789.2980095396302
 30
0.0
 40
12.44779650331495
100
AcDbArc
 50
4.999999999999998
 51
94.99999999999996
  0
ARC
  5
1C33
330
18
100
AcDbEntity
  8
ISO
  6
VERDECKT
 48
2.5
100
AcDbCircle
 10
516.7718573839433
 20
673.5398005517756
 30
0.0
 40
12.44779650331495
100
AcDbArc
 50
185.0
 51
275.0
  0
ARC
  5
1C4B
330
18
100
AcDbEntity
  8
ISO
100
AcDbCircle
 10
584.0348730146452
 20
815.9629344067383
 30
0.0
 40
8.416134216960733
100
AcDbArc
 50
234.3589127833127
 51
352.5297404347255
  0
ARC
  5
1C4E
330
18
100
AcDbEntity
  8
ISO
100
AcDbCircle
 10
600.8030895853744
 20
817.4299632642247
 30
0.0
 40
8.416134216960733
100
AcDbArc
 50
195.4872749662526
 51
275.0
  0
ARC
  5
1C4F
330
18
100
AcDbEntity
  8
ISO
100
AcDbCircle
 10
617.5713061561038
 20
818.8969921217111
 30
0.0
 40
8.416134216960733
100
AcDbArc
 50
184.9999999999999
 51
275.0
  0
LINE
  5
1C50
330
18
100
AcDbEntity
  8
ISO
100
AcDbLine
 10
610.3355664750396
 20
832.8785908074152
 30
0.0
 11
609.1871980202936
 21
818.1634759835525
 31
0.0
  0
LINE
  5
1C51
330
18
100
AcDbEntity
  8
ISO
100
AcDbLine
 10
606.4079634168898
 20
828.9392067550521
 30
0.0
 11
609.1871980202936
 21
818.1634759835525
 31
0.0
  0
ARC
  5
1C52
330
18
100
AcDbEntity
  8
ISO
100
AcDbCircle
 10
600.8030895853744
 20
817.4299632642247
 30
0.0
 40
8.416134216960733
100
AcDbArc
 50
275.0
 51
4.999999999999998
  0
ARC
  5
1C53
330
18
100
AcDbEntity
  8
ISO
100
AcDbCircle
 10
634.3395227268331
 20
820.3640209791975
 30
0.0
 40
8.416134216960733
100
AcDbArc
 50
184.9999999999999
 51
275.0
  0
LINE
  5
1C54
330
18
100
AcDbEntity
  8
ISO
100
AcDbLine
 10
629.9384361543738
 20
870.6686706913863
 30
0.0
 11
625.9554145910229
 21
819.6305048410389
 31
0.0
  0
ARC
  5
1C55
330
18
100
AcDbEntity
  8
ISO
100
AcDbCircle
 10
621.5543278690092
 20
869.9351562626432
 30
0.0
 40
8.416134216960733
100
AcDbArc
 50
4.999999999999998
 51
94.99999999999996
  0
ARC
  5
1C56
330
18
100
AcDbEntity
  8
ISO
100
AcDbCircle
 10
617.5713061561038
 20
818.8969921217111
 30
0.0
 40
8.416134216960733
100
AcDbArc
 50
275.0
 51
4.999999999999998
  0
ARC
  5
1C57
330
18
100
AcDbEntity
  8
ISO
100
AcDbCircle
 10
621.5543278690092
 20
869.9351562626432
 30
0.0
 40
8.416134216960733
100
AcDbArc
 50
94.99999999999998
 51
110.3838410630434
  0
ARC
  5
1C58
330
18
100
AcDbEntity
  8
ISO
100
AcDbCircle
 10
651.1077392975626
 20
821.831049836684
 30
0.0
 40
8.416134216960733
100
AcDbArc
 50
184.9999999999999
 51
275.0
  0
LINE
  5
1C59
330
18
100
AcDbEntity
  8
ISO
100
AcDbLine
 10
646.7066527251033
 20
872.1356995488728
 30
0.0
 11
642.7236311617523
 21
821.0975336985253
 31
0.0
  0
ARC
  5
1C5A
330
18
100
AcDbEntity
  8
ISO
100
AcDbCircle
 10
638.3225444397387
 20
871.4021851201296
 30
0.0
 40
8.416134216960733
100
AcDbArc
 50
4.999999999999998
 51
94.99999999999996
  0
LINE
  5
1C5B
330
18
100
AcDbEntity
  8
ISO
100
AcDbLine
 10
629.9384361543738
 20
870.6686706913865
 30
0.0
 11
642.7236311617523
 21
821.0975336985253
 31
0.0
  0
ARC
  5
1C5C
330
18
100
AcDbEntity
  8
ISO
100
AcDbCircle
 10
634.3395227268331
 20
820.3640209791975
 30
0.0
 40
8.416134216960733
100
AcDbArc
 50
275.0
 51
4.999999999999998
  0
ARC
  5
1C5D
330
18
100
AcDbEntity
  8
ISO
100
AcDbCircle
 10
638.3225444397387
 20
871.4021851201296
 30
0.0
 40
8.416134216960733
100
AcDbArc
 50
94.99999999999998
 51
185.0
  0
ARC
  5
1C5E
330
18
100
AcDbEntity
  8
ISO
100
AcDbCircle
 10
667.8759558682918
 20
823.2980786941702
 30
0.0
 40
8.416134216960733
100
AcDbArc
 50
184.9999999999999
 51
275.0
  0
LINE
  5
1C5F
330
18
100
AcDbEntity
  8
ISO
100
AcDbLine
 10
663.4748692958326
 20
873.6027284063592
 30
0.0
 11
659.4918477324815
 21
822.5645625560117
 31
0.0
  0
ARC
  5
1C60
330
18
100
AcDbEntity
  8
ISO
100
AcDbCircle
 10
655.090761010468
 20
872.869213977616
 30
0.0
 40
8.416134216960733
100
AcDbArc
 50
4.999999999999998
 51
94.99999999999996
  0
LINE
  5
1C61
330
18
100
AcDbEntity
  8
ISO
100
AcDbLine
 10
646.7066527251033
 20
872.1356995488729
 30
0.0
 11
659.4918477324815
 21
822.5645625560117
 31
0.0
  0
ARC
  5
1C62
330
18
100
AcDbEntity
  8
ISO
100
AcDbCircle
 10
651.1077392975626
 20
821.831049836684
 30
0.0
 40
8.416134216960733
100
AcDbArc
 50
275.0
 51
4.999999999999998
  0
ARC
  5
1C63
330
18
100
AcDbEntity
  8
ISO
100
AcDbCircle
 10
655.090761010468
 20
872.869213977616
 30
0.0
 40
8.416134216960733
100
AcDbArc
 50
94.99999999999998
 51
185.0
  0
LINE
  5
1C65
330
18
100
AcDbEntity
  8
ISO
100
AcDbLine
 10
680.2430858665618
 20
875.0697572638456
 30
0.0
 11
676.260064303211
 21
824.0315914134981
 31
0.0
  0
ARC
  5
1C66
330
18
100
AcDbEntity
  8
ISO
100
AcDbCircle
 10
671.8589775811974
 20
874.3362428351025
 30
0.0
 40
8.416134216960733
100
AcDbArc
 50
4.999999999999998
 51
94.99999999999996
  0
LINE
  5
1C67
330
18
100
AcDbEntity
  8
ISO
100
AcDbLine
 10
663.4748692958326
 20
873.6027284063593
 30
0.0
 11
676.260064303211
 21
824.0315914134981
 31
0.0
  0
ARC
  5
1C68
330
18
100
AcDbEntity
  8
ISO
100
AcDbCircle
 10
667.8759558682918
 20
823.2980786941702
 30
0.0
 40
8.416134216960733
100
AcDbArc
 50
275.0
 51
4.999999999999998
  0
ARC
  5
1C69
330
18
100
AcDbEntity
  8
ISO
100
AcDbCircle
 10
671.8589775811974
 20
874.3362428351025
 30
0.0
 40
8.416134216960733
100
AcDbArc
 50
94.99999999999998
 51
185.0
  0
LINE
  5
1C6A
330
18
100
AcDbEntity
  8
ISO
100
AcDbLine
 10
620.0305316860213
 20
842.6026364339476
 30
0.0
 11
625.9554145910229
 21
819.6305048410389
 31
0.0
  0
LINE
  5
1C6B
330
18
100
AcDbEntity
  8
TXT-D
100
AcDbLine
 10
847.2474696704496
 20
1275.015760742487
 30
0.0
 11
706.6287353615681
 21
1275.015760742487
 31
0.0
  0
LWPOLYLINE
  5
1CED
330
18
100
AcDbEntity
  8
V25
  6
Continuous
100
AcDbPolyline
 90
        2
 70
   128
 43
0.0
 10
682.0280775360995
 20
669.5610435951554
 10
114.5246346490082
 20
619.9109258306028
  0
LWPOLYLINE
  5
1CEE
330
18
100
AcDbEntity
  8
V25
  6
Continuous
100
AcDbPolyline
 90
        2
 70
   128
 43
0.0
 10
681.71147295634
 20
673.5486236337794
 10
114.5246346490082
 20
623.9262051807763
  0
LINE
  5
273E
330
18
100
AcDbEntity
  8
TXT-D
 62
     2
100
AcDbLine
 10
554.6279956766641
 20
929.325478718896
 30
0.0
 11
545.4876828565036
 21
928.5258049660514
 31
0.0
  0
LINE
  5
297F
330
18
100
AcDbEntity
  8
TXT-D
100
AcDbLine
 10
393.4714281138736
 20
1080.846240513416
 30
0.0
 11
315.1287497773801
 21
1080.846240513416
 31
0.0
  0
MTEXT
  5
2980
102
{ACAD_XDICTIONARY
360
4F2B
102
}
330
18
100
AcDbEntity
  8
TXT-D
100
AcDbMText
 10
150.3289047087787
 20
956.1569747783339
 30
0.0
 40
14.0
 41
150.32
 71
     7
 72
     5
  1
\pi88.667;kotven\U+00ED \P\pi38.148;h\U+0159ebenov\U+00E9ho  \P\pi41.767;oplechov\U+00E1n\U+00ED:\P\pi10.435;max. vzd\U+00E1lenost \P\pi20.939;400 mm, ne na \P\pi29.973;stojat\U+00E9 dr\U+00E1\U+017Ece
  7
ROMANS
 73
     1
 44
1.0
  0
LINE
  5
2981
330
18
100
AcDbEntity
  8
TXT-D
100
AcDbLine
 10
393.4714281138732
 20
877.435081918575
 30
0.0
 11
393.4714281138736
 21
1080.846240513416
 31
0.0
  0
LINE
  5
2985
330
18
100
AcDbEntity
  8
V35
100
AcDbLine
 10
393.9888229570785
 20
875.9358108240773
 30
0.0
 11
395.2180884217499
 21
861.8852422689023
 31
0.0
  0
LINE
  5
2987
330
18
100
AcDbEntity
  8
V35
100
AcDbLine
 10
424.1041819744774
 20
869.7912251677648
 30
0.0
 11
425.7442827840458
 21
851.0447871325961
 31
0.0
  0
LINE
  5
298A
330
18
100
AcDbEntity
  8
V35
100
AcDbLine
 10
594.1579493339932
 20
884.0629590456964
 30
0.0
 11
595.7591192195077
 21
865.7615035086607
 31
0.0
  0
LWPOLYLINE
  5
298B
330
18
100
AcDbEntity
  8
V5
  6
Continuous
 62
     7
100
AcDbPolyline
 90
        4
 70
     1
 43
0.8
 10
415.9261295593754
 20
857.5940387517423
 10
421.1077794016579
 20
798.3675100398577
 10
444.5924257208495
 20
800.422150359703
 10
439.4107758785669
 20
859.6486790715875
  0
INSERT
  5
298C
330
18
100
AcDbEntity
  8
V25
100
AcDbBlockReference
  2
*X1
 10
57.49555632566847
 20
360.4801929692998
 30
0.0
 50
4.999999999999743
  0
LWPOLYLINE
  5
298E
330
18
100
AcDbEntity
  8
V5
  6
Continuous
100
AcDbPolyline
 90
        6
 70
     0
 43
1.5
 10
389.875181002749
 20
796.3451100962586
 10
384.4279470810204
 20
858.6072787269927
 10
383.9050126245344
 20
864.5844469155431
 10
404.3270039354151
 20
866.3711396418701
 10
411.6595549396956
 20
862.891679005922
 10
439.0549091372187
 20
865.2884619314827
  0
LWPOLYLINE
  5
298F
330
18
100
AcDbEntity
  8
V5
  6
Continuous
 62
     7
100
AcDbPolyline
 90
        2
 70
     0
 43
1.5
 10
411.6596009327879
 20
862.8916830297962
 10
417.2704012694501
 20
798.7418813043904
  0
ARC
  5
2996
330
18
100
AcDbEntity
  8
ISO
100
AcDbCircle
 10
688.6271941519268
 20
875.8032716925889
 30
0.0
 40
8.416134216960733
100
AcDbArc
 50
94.99999999999998
 51
185.0
  0
LINE
  5
2997
330
18
100
AcDbEntity
  8
ISO
100
AcDbLine
 10
680.2430858665619
 20
875.0697572638458
 30
0.0
 11
689.0906118702696
 21
840.7658672313054
 31
0.0
  0
ARC
  5
2998
330
18
100
AcDbEntity
  8
ISO
100
AcDbCircle
 10
688.6271941519268
 20
875.8032716925889
 30
0.0
 40
8.416134216960733
100
AcDbArc
 50
86.84352526569844
 51
94.99999999999996
  0
ARC
  5
2999
330
18
100
AcDbEntity
  8
ISO
100
AcDbCircle
 10
684.6441724390212
 20
824.7651075516566
 30
0.0
 40
8.416134216960733
100
AcDbArc
 50
185.0
 51
275.0
  0
ARC
  5
299A
330
18
100
AcDbEntity
  8
ISO
100
AcDbCircle
 10
684.6441724390212
 20
824.7651075516566
 30
0.0
 40
8.416134216960733
100
AcDbArc
 50
275.0
 51
301.8922338339653
  0
ARC
  5
29D8
330
18
100
AcDbEntity
  8
ISOTRI46
100
AcDbCircle
 10
279.600454542463
 20
774.0372513342527
 30
0.0
 40
3.0
100
AcDbArc
 50
94.99997271483632
 51
184.9999311689218
  0
ARC
  5
29D9
330
18
100
AcDbEntity
  8
ISOTRI46
100
AcDbCircle
 10
279.600454542463
 20
774.0372513342527
 30
0.0
 40
3.0
100
AcDbArc
 50
5.000068831078502
 51
95.00002728516445
  0
ARC
  5
29DA
330
18
100
AcDbEntity
  8
ISOTRI46
100
AcDbCircle
 10
291.5547870540718
 20
775.0831199090378
 30
0.0
 40
3.0
100
AcDbArc
 50
5.000068831078502
 51
95.00002728516445
  0
ARC
  5
29DB
330
18
100
AcDbEntity
  8
ISOTRI46
100
AcDbCircle
 10
291.5547870540718
 20
775.0831199090378
 30
0.0
 40
3.0
100
AcDbArc
 50
94.99997271483632
 51
184.9999311689218
  0
ARC
  5
29DC
330
18
100
AcDbEntity
  8
ISOTRI46
100
AcDbCircle
 10
315.4634520772888
 20
777.174857058608
 30
0.0
 40
3.0
100
AcDbArc
 50
5.000068831078502
 51
95.00002728516445
  0
ARC
  5
29DD
330
18
100
AcDbEntity
  8
ISOTRI46
100
AcDbCircle
 10
303.50911956568
 20
776.1289884838229
 30
0.0
 40
3.0
100
AcDbArc
 50
5.000068831078502
 51
95.00002728516445
  0
ARC
  5
29DE
330
18
100
AcDbEntity
  8
ISOTRI46
100
AcDbCircle
 10
303.50911956568
 20
776.1289884838229
 30
0.0
 40
3.0
100
AcDbArc
 50
94.99997271483632
 51
184.9999311689218
  0
ARC
  5
29DF
330
18
100
AcDbEntity
  8
ISOTRI46
100
AcDbCircle
 10
315.4634520772888
 20
777.174857058608
 30
0.0
 40
3.0
100
AcDbArc
 50
94.99997271483632
 51
184.9999311689218
  0
ARC
  5
29E0
330
18
100
AcDbEntity
  8
ISOTRI46
100
AcDbCircle
 10
339.3721171005059
 20
779.2665942081785
 30
0.0
 40
3.0
100
AcDbArc
 50
94.99997271483632
 51
184.9999311689218
  0
ARC
  5
29E1
330
18
100
AcDbEntity
  8
ISOTRI46
100
AcDbCircle
 10
339.3721171005059
 20
779.2665942081785
 30
0.0
 40
3.0
100
AcDbArc
 50
5.000068831078502
 51
95.00002728516445
  0
ARC
  5
29E2
330
18
100
AcDbEntity
  8
ISOTRI46
100
AcDbCircle
 10
327.4177845888971
 20
778.2207256333934
 30
0.0
 40
3.0
100
AcDbArc
 50
5.000068831078502
 51
95.00002728516445
  0
ARC
  5
29E3
330
18
100
AcDbEntity
  8
ISOTRI46
100
AcDbCircle
 10
327.4177845888971
 20
778.2207256333934
 30
0.0
 40
3.0
100
AcDbArc
 50
94.99997271483632
 51
184.9999311689218
  0
ARC
  5
29E4
330
18
100
AcDbEntity
  8
ISOTRI46
100
AcDbCircle
 10
363.2807821237229
 20
781.3583313577487
 30
0.0
 40
3.0
100
AcDbArc
 50
94.99997271483632
 51
184.9999311689218
  0
ARC
  5
29E5
330
18
100
AcDbEntity
  8
ISOTRI46
100
AcDbCircle
 10
351.3264496121142
 20
780.3124627829636
 30
0.0
 40
3.0
100
AcDbArc
 50
5.000068831078502
 51
95.00002728516445
  0
ARC
  5
29E6
330
18
100
AcDbEntity
  8
ISOTRI46
100
AcDbCircle
 10
351.3264496121142
 20
780.3124627829636
 30
0.0
 40
3.0
100
AcDbArc
 50
94.99997271483632
 51
184.9999311689218
  0
ARC
  5
29E7
330
18
100
AcDbEntity
  8
ISOTRI46
100
AcDbCircle
 10
375.2351146353313
 20
782.4041999325339
 30
0.0
 40
3.0
100
AcDbArc
 50
94.99997271483632
 51
184.9999311689218
  0
ARC
  5
29E8
330
18
100
AcDbEntity
  8
ISOTRI46
100
AcDbCircle
 10
375.2351146353313
 20
782.4041999325339
 30
0.0
 40
3.0
100
AcDbArc
 50
5.000068831078502
 51
95.00002728516445
  0
ARC
  5
29E9
330
18
100
AcDbEntity
  8
ISOTRI46
100
AcDbCircle
 10
363.2807821237229
 20
781.3583313577487
 30
0.0
 40
3.0
100
AcDbArc
 50
5.000068831078502
 51
95.00002728516445
  0
ARC
  5
29FB
330
18
100
AcDbEntity
  8
ISOTRI46
100
AcDbCircle
 10
392.2678144194345
 20
656.5617409751688
 30
0.0
 40
3.0
100
AcDbArc
 50
275.0000370537362
 51
5.000013275501783
  0
ARC
  5
29FC
330
18
100
AcDbEntity
  8
ISOTRI46
100
AcDbCircle
 10
380.3134819078258
 20
655.5158724003837
 30
0.0
 40
3.0
100
AcDbArc
 50
275.0000370537362
 51
5.000013275501783
  0
ARC
  5
29FD
330
18
100
AcDbEntity
  8
ISOTRI46
100
AcDbCircle
 10
392.2678182849266
 20
656.5617413133556
 30
0.0
 40
3.0
100
AcDbArc
 50
184.9999867244999
 51
274.9999629462655
  0
ARC
  5
2A0A
330
18
100
AcDbEntity
  8
ISOTRI46
100
AcDbCircle
 10
320.5418193497829
 20
650.2865295264578
 30
0.0
 40
3.0
100
AcDbArc
 50
275.0000370537362
 51
5.000013275501783
  0
ARC
  5
2A0B
330
18
100
AcDbEntity
  8
ISOTRI46
100
AcDbCircle
 10
344.4504843730004
 20
652.3782666760281
 30
0.0
 40
3.0
100
AcDbArc
 50
275.0000370537362
 51
5.000013275501783
  0
ARC
  5
2A0C
330
18
100
AcDbEntity
  8
ISOTRI46
100
AcDbCircle
 10
344.4504882384925
 20
652.3782670142151
 30
0.0
 40
3.0
100
AcDbArc
 50
184.9999867244999
 51
274.9999629462655
  0
ARC
  5
2A0D
330
18
100
AcDbEntity
  8
ISOTRI46
100
AcDbCircle
 10
332.4961557268837
 20
651.3323984394297
 30
0.0
 40
3.0
100
AcDbArc
 50
184.9999867244999
 51
274.9999629462655
  0
ARC
  5
2A0E
330
18
100
AcDbEntity
  8
ISOTRI46
100
AcDbCircle
 10
332.4961518613916
 20
651.332398101243
 30
0.0
 40
3.0
100
AcDbArc
 50
275.0000370537362
 51
5.000013275501783
  0
ARC
  5
2A0F
330
18
100
AcDbEntity
  8
ISOTRI46
100
AcDbCircle
 10
356.4048168846087
 20
653.4241352508135
 30
0.0
 40
3.0
100
AcDbArc
 50
275.0000370537362
 51
5.000013275501783
  0
ARC
  5
2A10
330
18
100
AcDbEntity
  8
ISOTRI46
100
AcDbCircle
 10
356.4048207501008
 20
653.4241355890002
 30
0.0
 40
3.0
100
AcDbArc
 50
184.9999867244999
 51
274.9999629462655
  0
ARC
  5
2A11
330
18
100
AcDbEntity
  8
ISOTRI46
100
AcDbCircle
 10
368.3591532617096
 20
654.4700041637853
 30
0.0
 40
3.0
100
AcDbArc
 50
184.9999867244999
 51
274.9999629462655
  0
ARC
  5
2A12
330
18
100
AcDbEntity
  8
ISOTRI46
100
AcDbCircle
 10
368.3591493962175
 20
654.4700038255986
 30
0.0
 40
3.0
100
AcDbArc
 50
275.0000370537362
 51
5.000013275501783
  0
ARC
  5
2A13
330
18
100
AcDbEntity
  8
ISOTRI46
100
AcDbCircle
 10
380.3134857733178
 20
655.5158727385705
 30
0.0
 40
3.0
100
AcDbArc
 50
184.9999867244999
 51
274.9999629462655
  0
ARC
  5
2A18
330
18
100
AcDbEntity
  8
ISOTRI46
100
AcDbCircle
 10
296.6331581920584
 20
648.1947927150744
 30
0.0
 40
3.0
100
AcDbArc
 50
184.9999867244999
 51
274.9999629462655
  0
ARC
  5
2A1A
330
18
100
AcDbEntity
  8
ISOTRI46
100
AcDbCircle
 10
284.6788218149575
 20
647.1489238021026
 30
0.0
 40
3.0
100
AcDbArc
 50
275.0000370537362
 51
5.000013275501783
  0
ARC
  5
2A1B
330
18
100
AcDbEntity
  8
ISOTRI46
100
AcDbCircle
 10
296.6331543265658
 20
648.1947923768877
 30
0.0
 40
3.0
100
AcDbArc
 50
275.0000370537362
 51
5.000013275501783
  0
ARC
  5
2A1C
330
18
100
AcDbEntity
  8
ISOTRI46
100
AcDbCircle
 10
320.5418232152754
 20
650.2865298646447
 30
0.0
 40
3.0
100
AcDbArc
 50
184.9999867244999
 51
274.9999629462655
  0
ARC
  5
2A1D
330
18
100
AcDbEntity
  8
ISOTRI46
100
AcDbCircle
 10
308.5874868381746
 20
649.2406609516727
 30
0.0
 40
3.0
100
AcDbArc
 50
275.0000370537362
 51
5.000013275501783
  0
ARC
  5
2A1E
330
18
100
AcDbEntity
  8
ISOTRI46
100
AcDbCircle
 10
308.5874907036667
 20
649.2406612898595
 30
0.0
 40
3.0
100
AcDbArc
 50
184.9999867244999
 51
274.9999629462655
  0
LWPOLYLINE
  5
2A29
330
18
100
AcDbEntity
  8
V5
100
AcDbPolyline
 90
       28
 70
     0
 43
2.2
 10
232.8647255017001
 20
619.2779644846937
 10
238.8545893337775
 20
614.2518719523953
 10
245.5489127103517
 20
622.2298558864148
 10
310.4368746667062
 20
627.9068169568971
 10
317.7187265757091
 20
611.5400542428899
 10
326.4514655702758
 20
604.2124161733814
 10
348.3493488801023
 20
554.994516036211
 10
357.0820878746693
 20
547.6668779667025
 10
367.8291697870398
 20
523.5116298614356
 10
384.6895060021645
 20
524.9867181434947
 10
401.5498422172897
 20
526.4618064255537
 10
407.939136992277
 20
552.1162932248741
 10
415.2667750617854
 20
560.8490322194411
 10
428.2853816524468
 20
613.1217293930214
 10
435.6130197219552
 20
621.8544683875883
 10
439.9421854186332
 20
639.2370635140927
 10
504.8301473749879
 20
644.9140245845752
 10
512.8081313090076
 20
638.2197012080011
 10
519.5024546855818
 20
646.1976851420208
 10
584.3904166419362
 20
651.874646212503
 10
591.6722685509389
 20
635.5078834984957
 10
600.4050075455059
 20
628.1802454289872
 10
622.3028908553324
 20
578.962345291817
 10
631.0356298498994
 20
571.6347072223084
 10
641.7827117622699
 20
547.4794591170414
 10
657.3737507241562
 20
548.8434982787976
 10
672.6755207118081
 20
550.1822296845983
 10
675.2309631052347
 20
564.5479577967571
  0
LINE
  5
2A44
330
18
100
AcDbEntity
  8
V25
100
AcDbLine
 10
657.2697526698891
 20
559.4849364324615
 30
0.0
 11
660.4397979150442
 21
518.8834993863969
 31
0.0
  0
LWPOLYLINE
  5
2A45
330
18
100
AcDbEntity
  8
V5
100
AcDbPolyline
 90
       18
 70
     0
 43
2.2
 10
115.3373625358026
 20
501.42145909378
 10
127.5963002420596
 20
502.493977169948
 10
133.9855950170469
 20
528.1484639692685
 10
141.3132330865552
 20
536.8812029638355
 10
154.3318396772167
 20
589.1539001374158
 10
161.659477746725
 20
597.8866391319826
 10
165.988643443403
 20
615.269234258487
 10
230.8766053997578
 20
620.9461953289696
 10
238.8545893337775
 20
614.2518719523954
 10
245.5489127103517
 20
622.229855886415
 10
310.4368746667061
 20
627.9068169568973
 10
317.7187265757088
 20
611.5400542428901
 10
326.4514655702758
 20
604.2124161733815
 10
348.3493488801022
 20
554.9945160362113
 10
357.0820878746692
 20
547.6668779667027
 10
367.8291697870397
 20
523.5116298614356
 10
383.4202087489261
 20
524.8756690231918
 10
398.721978736578
 20
526.2144004289925
  0
LINE
  5
2A46
330
18
100
AcDbEntity
  8
V25
100
AcDbLine
 10
383.3162106946589
 20
535.5171071768559
 30
0.0
 11
386.486255939814
 21
494.9156701307912
 31
0.0
  0
LINE
  5
2A49
330
18
100
AcDbEntity
  8
V25
100
AcDbLine
 10
264.2402278697941
 20
631.348348584316
 30
0.0
 11
265.5767939564088
 21
612.3133933615281
 31
0.0
  0
ARC
  5
2A4A
330
18
100
AcDbEntity
  8
ISO
  6
VERDECKT
 48
2.5
100
AcDbCircle
 10
536.558516189186
 20
789.2980095396302
 30
0.0
 40
12.44779650331495
100
AcDbArc
 50
94.99999999999998
 51
185.0
  0
LINE
  5
2ADB
330
18
100
AcDbEntity
  8
TXT-D
 62
     2
100
AcDbLine
 10
644.2747369524631
 20
937.1685523025703
 30
0.0
 11
635.1344241323025
 21
936.3688785497256
 31
0.0
  0
LINE
  5
2AE1
330
18
100
AcDbEntity
  8
TXT-D
100
AcDbLine
 10
469.9510769368369
 20
832.3783703787983
 30
0.0
 11
469.9510769368371
 21
1211.124244336227
 31
0.0
  0
LINE
  5
2AE2
330
18
100
AcDbEntity
  8
TXT-D
100
AcDbLine
 10
469.9510769368371
 20
1211.124244336227
 30
0.0
 11
388.919868976087
 21
1211.124244336227
 31
0.0
  0
LINE
  5
2C3E
330
18
100
AcDbEntity
  8
TXT-D
 62
     1
100
AcDbLine
 10
360.7293529139072
 20
642.0669904543916
 30
0.0
 11
360.7293529139072
 21
355.2095016569706
 31
0.0
  0
LINE
  5
2C41
330
18
100
AcDbEntity
  8
TXT-D
 62
     1
100
AcDbLine
 10
344.5908032311008
 20
355.2095016569706
 30
0.0
 11
360.7293529139072
 21
355.2095016569706
 31
0.0
  0
LINE
  5
2C43
330
18
100
AcDbEntity
  8
TXT-D
 62
     1
100
AcDbLine
 10
342.1055622891956
 20
691.7340495506739
 30
0.0
 11
342.1055622891956
 21
389.2947948762854
 31
0.0
  0
LINE
  5
2C44
330
18
100
AcDbEntity
  8
TXT-D
 62
     1
100
AcDbLine
 10
319.5395058978336
 20
389.2947948762854
 30
0.0
 11
342.1055622891956
 21
389.2947948762854
 31
0.0
  0
LINE
  5
2C45
330
18
100
AcDbEntity
  8
TXT-D
 62
     1
100
AcDbLine
 10
131.2035465466798
 20
454.8372056373382
 30
0.0
 11
131.2035465466798
 21
792.5407946808197
 31
0.0
  0
LINE
  5
2C46
330
18
100
AcDbEntity
  8
TXT-D
 62
     1
100
AcDbLine
 10
149.6155507623452
 20
454.8372056373383
 30
0.0
 11
131.2035465466798
 21
454.8372056373382
 31
0.0
  0
LINE
  5
2D09
330
18
100
AcDbEntity
  8
TXT-D
 48
5.0
100
AcDbLine
 10
625.4991579019773
 20
389.9464373051786
 30
0.0
 11
625.4991579019773
 21
659.4453831129344
 31
0.0
  0
LINE
  5
2D0A
330
18
100
AcDbEntity
  8
TXT-D
 48
5.0
100
AcDbLine
 10
654.7009976088721
 20
325.8757795981202
 30
0.0
 11
654.7009976088721
 21
602.4511116428162
 31
0.0
  0
LINE
  5
2D0B
330
18
100
AcDbEntity
  8
TXT-D
 48
5.0
100
AcDbLine
 10
598.8425211048466
 20
415.8532823906525
 30
0.0
 11
598.8425211048466
 21
629.4913272250639
 31
0.0
  0
LINE
  5
2D0C
330
18
100
AcDbEntity
  8
TXT-D
 48
5.0
100
AcDbLine
 10
582.8370942322842
 20
389.9464373051786
 30
0.0
 11
625.4991579019773
 21
389.9464373051786
 31
0.0
  0
LINE
  5
2D0D
330
18
100
AcDbEntity
  8
TXT-D
 48
5.0
100
AcDbLine
 10
563.6807342468558
 20
325.8757795981206
 30
0.0
 11
654.7009976088721
 21
325.8757795981202
 31
0.0
  0
LINE
  5
2D17
330
18
100
AcDbEntity
  8
TXT-E
  6
VERDECKTX2
 48
5.0
100
AcDbLine
 10
690.1646565419452
 20
678.9012269020171
 30
0.0
 11
654.7009976088721
 21
602.4511116428162
 31
0.0
  0
LWPOLYLINE
  5
2D49
330
18
100
AcDbEntity
  8
V5
100
AcDbPolyline
 90
        3
 70
     0
 43
2.2
 10
192.7706596585445
 20
621.5865451320366
 10
685.5902278391949
 20
664.7026705115845
 10
685.5902278391946
 20
720.6720407226389
  0
ARC
  5
2D7A
330
18
100
AcDbEntity
  8
ISO
  6
VERDECKT
 48
2.5
100
AcDbCircle
 10
463.4942201981042
 20
782.9057144795513
 30
0.0
 40
12.0
100
AcDbArc
 50
95.00000000000001
 51
184.9999999999997
  0
ARC
  5
2D81
330
18
100
AcDbEntity
  8
ISO
  6
VERDECKT
 48
2.5
100
AcDbCircle
 10
463.4942201981042
 20
782.9057144795513
 30
0.0
 40
12.0
100
AcDbArc
 50
4.999999999999743
 51
95.00000000000001
  0
ARC
  5
2D82
330
18
100
AcDbEntity
  8
ISO
  6
VERDECKT
 48
2.5
100
AcDbCircle
 10
487.4028929523059
 20
784.9974523054953
 30
0.0
 40
12.0
100
AcDbArc
 50
4.999999999999743
 51
95.00000000000001
  0
ARC
  5
2D83
330
18
100
AcDbEntity
  8
ISO
  6
VERDECKT
 48
2.5
100
AcDbCircle
 10
487.4028929523059
 20
784.9974523054953
 30
0.0
 40
12.0
100
AcDbArc
 50
95.00000000000001
 51
184.9999999999997
  0
ARC
  5
2D84
330
18
100
AcDbEntity
  8
ISO
  6
VERDECKT
 48
2.5
100
AcDbCircle
 10
511.3115657065076
 20
787.0891901314393
 30
0.0
 40
12.0
100
AcDbArc
 50
132.0670856865971
 51
184.9999999999997
  0
ARC
  5
2D86
330
18
100
AcDbEntity
  8
ISO
  6
VERDECKT
 48
2.5
100
AcDbCircle
 10
511.7576584301316
 20
787.1282156399903
 30
0.0
 40
12.44779650331495
100
AcDbArc
 50
4.999999999999998
 51
127.3532005249697
  0
LWPOLYLINE
  5
2D8F
330
18
100
AcDbEntity
  8
V35
100
AcDbPolyline
 90
        2
 70
     1
 43
2.9
 10
382.3550126245345
 20
864.5844469155431
 42
1.0
 10
385.4550126245344
 20
864.5844469155431
 42
1.0
  0
LWPOLYLINE
  5
2D90
330
18
100
AcDbEntity
  8
V35
100
AcDbPolyline
 90
        2
 70
     1
 43
2.9
 10
392.4388229570785
 20
875.9358108240773
 42
1.0
 10
395.5388229570784
 20
875.9358108240773
 42
1.0
  0
LWPOLYLINE
  5
2D91
330
18
100
AcDbEntity
  8
V35
100
AcDbPolyline
 90
        2
 70
     1
 43
2.9
 10
432.6562474849849
 20
843.6625722507857
 42
1.0
 10
435.7562474849848
 20
843.6625722507857
 42
1.0
  0
LWPOLYLINE
  5
2D92
330
18
100
AcDbEntity
  8
V35
100
AcDbPolyline
 90
        2
 70
     1
 43
2.9
 10
468.1828755008651
 20
830.8790992843006
 42
1.0
 10
471.2828755008651
 20
830.8790992843006
 42
1.0
  0
LWPOLYLINE
  5
2D94
330
18
100
AcDbEntity
  8
V35
100
AcDbPolyline
 90
        2
 70
     1
 43
2.9
 10
601.8481929947242
 20
837.0096563662032
 42
1.0
 10
604.9481929947241
 20
837.0096563662032
 42
1.0
  0
LWPOLYLINE
  5
2D95
330
18
100
AcDbEntity
  8
V35
100
AcDbPolyline
 90
        2
 70
     1
 43
2.9
 10
622.9689923482545
 20
885.8078595706052
 42
1.0
 10
626.0689923482543
 20
885.8078595706052
 42
1.0
  0
LWPOLYLINE
  5
2D96
330
18
100
AcDbEntity
  8
V35
100
AcDbPolyline
 90
        2
 70
     1
 43
2.9
 10
686.2024235765321
 20
963.0908699383246
 42
1.0
 10
689.302423576532
 20
963.0908699383246
 42
1.0
  0
LWPOLYLINE
  5
2D97
330
18
100
AcDbEntity
  8
V35
100
AcDbPolyline
 90
        2
 70
     1
 43
2.9
 10
705.0787353615682
 20
1100.012074683376
 42
1.0
 10
708.1787353615681
 20
1100.012074683376
 42
1.0
  0
LWPOLYLINE
  5
2D98
330
18
100
AcDbEntity
  8
V35
100
AcDbPolyline
 90
        2
 70
     1
 43
2.9
 10
760.9827647997489
 20
1070.470941083724
 42
1.0
 10
764.0827647997488
 20
1070.470941083724
 42
1.0
  0
LWPOLYLINE
  5
2D99
330
18
100
AcDbEntity
  8
V35
100
AcDbPolyline
 90
        2
 70
     1
 43
2.9
 10
821.228701635276
 20
1095.768593395338
 42
1.0
 10
824.3287016352761
 20
1095.768593395338
 42
1.0
  0
LWPOLYLINE
  5
2D9A
330
18
100
AcDbEntity
  8
V35
100
AcDbPolyline
 90
        2
 70
     1
 43
2.9
 10
597.2925211048466
 20
629.4913272250639
 42
1.0
 10
600.3925211048465
 20
629.4913272250639
 42
1.0
  0
LWPOLYLINE
  5
2D9B
330
18
100
AcDbEntity
  8
V35
100
AcDbPolyline
 90
        2
 70
     1
 43
2.9
 10
623.9491579019774
 20
659.4453831129344
 42
1.0
 10
627.0491579019773
 20
659.4453831129344
 42
1.0
  0
LWPOLYLINE
  5
2D9E
330
18
100
AcDbEntity
  8
V35
100
AcDbPolyline
 90
        2
 70
     1
 43
2.9
 10
130.466274433474
 20
791.2209562884295
 42
1.0
 10
133.5662744334739
 20
791.2209562884295
 42
1.0
  0
LWPOLYLINE
  5
2D9F
330
18
100
AcDbEntity
  8
V35
100
AcDbPolyline
 90
        2
 70
     1
 43
2.9
 10
341.3682901759898
 20
690.4142111582838
 42
1.0
 10
344.4682901759898
 20
690.4142111582838
 42
1.0
  0
LWPOLYLINE
  5
2DA0
330
18
100
AcDbEntity
  8
V35
100
AcDbPolyline
 90
        2
 70
     1
 43
2.9
 10
359.9920808007014
 20
640.7471520620015
 42
1.0
 10
363.0920808007013
 20
640.7471520620015
 42
1.0
  0
ARC
  5
2DB1
330
18
100
AcDbEntity
  8
ISOTRI46
100
AcDbCircle
 10
260.7701587793461
 20
645.0571868264249
 30
0.0
 40
3.0
100
AcDbArc
 50
275.0000370537362
 51
5.000013275501783
  0
ARC
  5
2DB2
330
18
100
AcDbEntity
  8
ISOTRI46
100
AcDbCircle
 10
272.724495156447
 20
646.1030557393968
 30
0.0
 40
3.0
100
AcDbArc
 50
184.9999867244999
 51
274.9999629462655
  0
ARC
  5
2DB4
330
18
100
AcDbEntity
  8
ISOTRI46
100
AcDbCircle
 10
255.6917915068516
 20
771.9455143585751
 30
0.0
 40
3.0
100
AcDbArc
 50
94.99997271483632
 51
184.9999311689218
  0
ARC
  5
2DB5
330
18
100
AcDbEntity
  8
ISOTRI46
100
AcDbCircle
 10
255.6917915068516
 20
771.9455143585751
 30
0.0
 40
3.0
100
AcDbArc
 50
5.000068831078502
 51
95.00002728516445
  0
ARC
  5
2DB6
330
18
100
AcDbEntity
  8
ISOTRI46
100
AcDbCircle
 10
272.7244912909544
 20
646.1030554012101
 30
0.0
 40
3.0
100
AcDbArc
 50
275.0000370537362
 51
5.000013275501783
  0
ARC
  5
2DB9
330
18
100
AcDbEntity
  8
ISOTRI46
100
AcDbCircle
 10
284.6788276680552
 20
647.1489243141819
 30
0.0
 40
3.0
100
AcDbArc
 50
184.9999867244999
 51
274.9999629462655
  0
ARC
  5
2DBA
330
18
100
AcDbEntity
  8
ISOTRI46
100
AcDbCircle
 10
267.6461240184604
 20
772.9913829333602
 30
0.0
 40
3.0
100
AcDbArc
 50
94.99997271483632
 51
184.9999311689218
  0
ARC
  5
2DBB
330
18
100
AcDbEntity
  8
ISOTRI46
100
AcDbCircle
 10
267.6461240184604
 20
772.9913829333602
 30
0.0
 40
3.0
100
AcDbArc
 50
5.000068831078502
 51
95.00002728516445
  0
ARC
  5
2DBD
330
18
100
AcDbEntity
  8
ISOTRI46
100
AcDbCircle
 10
236.8614963344537
 20
642.9654499024292
 30
0.0
 40
3.0
100
AcDbArc
 50
275.0000370537362
 51
5.000013275501783
  0
ARC
  5
2DBE
330
18
100
AcDbEntity
  8
ISOTRI46
100
AcDbCircle
 10
248.8158327115545
 20
644.011318815401
 30
0.0
 40
3.0
100
AcDbArc
 50
184.9999867244999
 51
274.9999629462655
  0
ARC
  5
2DC0
330
18
100
AcDbEntity
  8
ISOTRI46
100
AcDbCircle
 10
231.7831290619591
 20
769.8537774345793
 30
0.0
 40
3.0
100
AcDbArc
 50
94.99997271483632
 51
184.9999311689218
  0
ARC
  5
2DC1
330
18
100
AcDbEntity
  8
ISOTRI46
100
AcDbCircle
 10
231.7831290619591
 20
769.8537774345793
 30
0.0
 40
3.0
100
AcDbArc
 50
5.000068831078502
 51
95.00002728516445
  0
ARC
  5
2DC2
330
18
100
AcDbEntity
  8
ISOTRI46
100
AcDbCircle
 10
248.815828846062
 20
644.0113184772143
 30
0.0
 40
3.0
100
AcDbArc
 50
275.0000370537362
 51
5.000013275501783
  0
ARC
  5
2DC5
330
18
100
AcDbEntity
  8
ISOTRI46
100
AcDbCircle
 10
260.7701652231628
 20
645.0571873901862
 30
0.0
 40
3.0
100
AcDbArc
 50
184.9999867244999
 51
274.9999629462655
  0
ARC
  5
2DC6
330
18
100
AcDbEntity
  8
ISOTRI46
100
AcDbCircle
 10
243.7374615735679
 20
770.8996460093644
 30
0.0
 40
3.0
100
AcDbArc
 50
94.99997271483632
 51
184.9999311689218
  0
ARC
  5
2DC7
330
18
100
AcDbEntity
  8
ISOTRI46
100
AcDbCircle
 10
243.7374615735679
 20
770.8996460093644
 30
0.0
 40
3.0
100
AcDbArc
 50
5.000068831078502
 51
95.00002728516445
  0
ARC
  5
2DC9
330
18
100
AcDbEntity
  8
ISOTRI46
100
AcDbCircle
 10
212.9528337581418
 20
640.8737129669356
 30
0.0
 40
3.0
100
AcDbArc
 50
275.0000370537362
 51
5.000013275501783
  0
ARC
  5
2DCA
330
18
100
AcDbEntity
  8
ISOTRI46
100
AcDbCircle
 10
224.9071701352427
 20
641.9195818799074
 30
0.0
 40
3.0
100
AcDbArc
 50
184.9999867244999
 51
274.9999629462655
  0
ARC
  5
2DCC
330
18
100
AcDbEntity
  8
ISOTRI46
100
AcDbCircle
 10
207.8744664856473
 20
767.7620404990857
 30
0.0
 40
3.0
100
AcDbArc
 50
94.99997271483632
 51
184.9999311689218
  0
ARC
  5
2DCD
330
18
100
AcDbEntity
  8
ISOTRI46
100
AcDbCircle
 10
207.8744664856473
 20
767.7620404990857
 30
0.0
 40
3.0
100
AcDbArc
 50
5.000068831078502
 51
95.00002728516445
  0
ARC
  5
2DCE
330
18
100
AcDbEntity
  8
ISOTRI46
100
AcDbCircle
 10
224.9071662697501
 20
641.9195815417207
 30
0.0
 40
3.0
100
AcDbArc
 50
275.0000370537362
 51
5.000013275501783
  0
ARC
  5
2DD1
330
18
100
AcDbEntity
  8
ISOTRI46
100
AcDbCircle
 10
236.861502646851
 20
642.9654504546926
 30
0.0
 40
3.0
100
AcDbArc
 50
184.9999867244999
 51
274.9999629462655
  0
ARC
  5
2DD2
330
18
100
AcDbEntity
  8
ISOTRI46
100
AcDbCircle
 10
219.828798997256
 20
768.8079090738709
 30
0.0
 40
3.0
100
AcDbArc
 50
94.99997271483632
 51
184.9999311689218
  0
ARC
  5
2DD3
330
18
100
AcDbEntity
  8
ISOTRI46
100
AcDbCircle
 10
219.828798997256
 20
768.8079090738709
 30
0.0
 40
3.0
100
AcDbArc
 50
5.000068831078502
 51
95.00002728516445
  0
ARC
  5
2DD5
330
18
100
AcDbEntity
  8
ISOTRI46
100
AcDbCircle
 10
189.044170667671
 20
638.7819759864584
 30
0.0
 40
3.0
100
AcDbArc
 50
275.0000370537362
 51
5.000013275501783
  0
ARC
  5
2DD6
330
18
100
AcDbEntity
  8
ISOTRI46
100
AcDbCircle
 10
200.9985070447719
 20
639.8278448994304
 30
0.0
 40
3.0
100
AcDbArc
 50
184.9999867244999
 51
274.9999629462655
  0
ARC
  5
2DD8
330
18
100
AcDbEntity
  8
ISOTRI46
100
AcDbCircle
 10
183.9658033951764
 20
765.6703035186086
 30
0.0
 40
3.0
100
AcDbArc
 50
94.99997271483632
 51
184.9999311689218
  0
ARC
  5
2DD9
330
18
100
AcDbEntity
  8
ISOTRI46
100
AcDbCircle
 10
183.9658033951765
 20
765.6703035186086
 30
0.0
 40
3.0
100
AcDbArc
 50
5.000068831078502
 51
95.00002728516445
  0
ARC
  5
2DDA
330
18
100
AcDbEntity
  8
ISOTRI46
100
AcDbCircle
 10
200.9985031792794
 20
639.8278445612436
 30
0.0
 40
3.0
100
AcDbArc
 50
275.0000370537362
 51
5.000013275501783
  0
ARC
  5
2DDD
330
18
100
AcDbEntity
  8
ISOTRI46
100
AcDbCircle
 10
212.9528395563802
 20
640.8737134742154
 30
0.0
 40
3.0
100
AcDbArc
 50
184.9999867244999
 51
274.9999629462655
  0
ARC
  5
2DDE
330
18
100
AcDbEntity
  8
ISOTRI46
100
AcDbCircle
 10
195.9201359067852
 20
766.7161720933937
 30
0.0
 40
3.0
100
AcDbArc
 50
94.99997271483632
 51
184.9999311689218
  0
ARC
  5
2DDF
330
18
100
AcDbEntity
  8
ISOTRI46
100
AcDbCircle
 10
195.9201359067852
 20
766.7161720933937
 30
0.0
 40
3.0
100
AcDbArc
 50
5.000068831078502
 51
95.00002728516445
  0
ARC
  5
2DE9
330
18
100
AcDbEntity
  8
ISOTRI46
100
AcDbCircle
 10
189.044174533163
 20
638.781976324645
 30
0.0
 40
3.0
100
AcDbArc
 50
184.9999867244999
 51
274.9999629462655
  0
ARC
  5
2DEA
330
18
100
AcDbEntity
  8
ISOTRI46
100
AcDbCircle
 10
172.0114670180843
 20
764.6244346056369
 30
0.0
 40
3.0
100
AcDbArc
 50
94.99997271483632
 51
128.0700111146888
  0
ARC
  5
2DEB
330
18
100
AcDbEntity
  8
ISOTRI46
100
AcDbCircle
 10
172.0114670180843
 20
764.6244346056369
 30
0.0
 40
3.0
100
AcDbArc
 50
5.000068831078502
 51
95.00002728516445
  0
LINE
  5
2E25
102
{ACAD_REACTORS
330
32CC
102
}
330
18
100
AcDbEntity
  8
V5
100
AcDbLine
 10
842.553971246016
 20
1034.367250971311
 30
0.0
 11
842.553971246016
 21
204.0210715385608
 31
0.0
  0
LINE
  5
2E29
102
{ACAD_REACTORS
330
32CC
102
}
330
18
100
AcDbEntity
  8
V5
100
AcDbLine
 10
692.5539712460159
 20
204.0210715385608
 30
0.0
 11
692.5539712460159
 21
1034.367250971311
 31
0.0
  0
LINE
  5
2E2A
102
{ACAD_REACTORS
330
32CC
102
}
330
18
100
AcDbEntity
  8
V5
100
AcDbLine
 10
692.5539712460159
 20
1034.367250971311
 30
0.0
 11
702.5539712460159
 21
1044.367250971312
 31
0.0
  0
LINE
  5
2E2B
102
{ACAD_REACTORS
330
32CC
102
}
330
18
100
AcDbEntity
  8
V5
100
AcDbLine
 10
702.5539712460159
 20
1044.367250971312
 30
0.0
 11
832.5539712460159
 21
1044.367250971311
 31
0.0
  0
LINE
  5
2E2C
102
{ACAD_REACTORS
330
32CC
102
}
330
18
100
AcDbEntity
  8
V5
100
AcDbLine
 10
832.5539712460159
 20
1044.367250971311
 30
0.0
 11
842.553971246016
 21
1034.367250971311
 31
0.0
  0
HATCH
  5
32CC
330
18
100
AcDbEntity
  8
V35
 48
5.0
100
AcDbHatch
 10
0.0
 20
0.0
 30
0.0
210
0.0
220
0.0
230
1.0
  2
DOTS
 70
     0
 71
     1
 91
        1
 92
        7
 72
     0
 73
     1
 93
        6
 10
692.5539712460159
 20
204.0210715385608
 10
842.5539712460158
 20
204.0210715385608
 10
842.553971246016
 20
1034.367250971311
 10
832.5539712460157
 20
1044.367250971311
 10
702.5539712460161
 20
1044.367250971312
 10
692.553971246016
 20
1034.367250971312
 97
        6
330
2E2C
330
2E2B
330
2E2A
330
2E29
330
1BC1
330
2E25
 75
     0
 76
     1
 52
0.0
 41
200.0
 77
     0
 78
     1
 53
0.0
 43
0.0
 44
-17.11956347943851
 45
6.25
 46
12.5
 79
     2
 49
0.0
 49
-12.5
 47
1.666345685626859
 98
        1
 10
758.6504060027182
 20
800.4522279206522
  0
LINE
  5
38BB
330
18
100
AcDbEntity
  8
V7
100
AcDbLine
 10
594.3377442543552
 20
820.1283208898416
 30
0.0
 11
599.1258226474847
 21
847.2828628317033
 31
0.0
  0
LINE
  5
38BC
330
18
100
AcDbEntity
  8
V5
100
AcDbLine
 10
593.2169761294118
 20
848.3247518977035
 30
0.0
 11
617.1610956685423
 21
844.1027575936473
 31
0.0
  0
LINE
  5
38BD
330
18
100
AcDbEntity
  8
V5
100
AcDbLine
 10
588.428897736282
 20
821.1702099558438
 30
0.0
 11
593.2169761294118
 21
848.3247518977035
 31
0.0
  0
LINE
  5
38BE
330
18
100
AcDbEntity
  8
V5
100
AcDbLine
 10
590.3207522304406
 20
812.8037413690085
 30
0.0
 11
620.1433958917224
 21
842.7158391801109
 31
0.0
  0
ARC
  5
38BF
330
18
100
AcDbEntity
  8
V5
100
AcDbCircle
 10
581.5352434651964
 20
822.385747199512
 30
0.0
 40
7.0
100
AcDbArc
 50
275.0000000000006
 51
349.999999999995
  0
ARC
  5
38C0
330
18
100
AcDbEntity
  8
V7
100
AcDbCircle
 10
581.5352434651964
 20
822.385747199512
 30
0.0
 40
13.00000000000008
100
AcDbArc
 50
275.0000000000006
 51
349.999999999995
  0
ARC
  5
38C1
330
18
100
AcDbEntity
  8
V5
100
AcDbCircle
 10
617.4932851928152
 20
848.3913509291337
 30
0.0
 40
4.301439605204218
100
AcDbArc
 50
265.5707787181521
 51
340.1881010762839
  0
ARC
  5
38C2
330
18
100
AcDbEntity
  8
V5
100
AcDbCircle
 10
616.1359629984336
 20
846.389445129334
 30
0.0
 40
5.436441765014149
100
AcDbArc
 50
317.4885756023485
 51
7.212473535835888
  0
LINE
  5
38C3
330
18
100
AcDbEntity
  8
V7
100
AcDbLine
 10
114.5246346490084
 20
768.1552676672525
 30
0.0
 11
582.6682681209161
 21
809.4352161243191
 31
0.0
  0
HATCH
  5
38DD
330
18
100
AcDbEntity
  8
V25
 48
5.0
100
AcDbHatch
 10
0.0
 20
0.0
 30
0.0
210
0.0
220
0.0
230
1.0
  2
ANSI37
 70
     0
 71
     0
 91
        1
 92
        7
 72
     0
 73
     1
 93
        4
 10
687.3487186607949
 20
706.3555267449857
 10
692.348718660795
 20
706.3555267449857
 10
692.348718660795
 20
676.3555267449858
 10
687.3487186607949
 20
676.3555267449858
 97
        0
 75
     0
 76
     1
 52
90.0
 41
1.0
 77
     0
 78
     2
 53
225.0
 43
1344.531483647658
 44
1190.67155071298
 45
-2.245064030267288
 46
2.245064030267287
 79
     0
 53
135.0
 43
1344.531483647658
 44
1190.67155071298
 45
2.245064030267287
 46
2.245064030267288
 79
     0
 47
0.1149827854136383
 98
        1
 10
689.0182066784096
 20
688.079763090625
  0
LWPOLYLINE
  5
38DE
330
18
100
AcDbEntity
  8
SV35
  6
AUSGEZOGEN
 48
5.0
100
AcDbPolyline
 90
        4
 70
     1
 43
0.0
 10
692.3487186607949
 20
706.3555267449857
 10
692.3487186607949
 20
676.3555267449858
 10
687.3487186607949
 20
676.3555267449858
 10
687.3487186607949
 20
706.3555267449857
  0
LWPOLYLINE
  5
38DF
330
18
100
AcDbEntity
  8
V35
100
AcDbPolyline
 90
        2
 70
     1
 43
2.9
 10
688.6146565419452
 20
678.901226902017
 42
-1.0
 10
691.7146565419451
 20
678.901226902017
 42
-1.0
  0
LINE
  5
38E5
330
18
100
AcDbEntity
  8
V25
  6
Continuous
 48
5.0
100
AcDbLine
 10
678.6394702710095
 20
691.5802499663982
 30
0.0
 11
713.3346682639585
 21
691.5802499663982
 31
0.0
  0
LINE
  5
4A5E
330
18
100
AcDbEntity
  8
SV35
 48
3.0
100
AcDbLine
 10
529.7743842489913
 20
806.2520689268334
 30
0.0
 11
524.6189393218514
 21
865.1790740880491
 31
0.0
  0
LINE
  5
4A5F
330
18
100
AcDbEntity
  8
SV35
 48
3.0
100
AcDbLine
 10
444.9233634745119
 20
858.2066146682363
 30
0.0
 11
524.6189393218514
 21
865.1790740880491
 31
0.0
  0
LINE
  5
4A60
330
18
100
AcDbEntity
  8
SV35
 48
3.0
100
AcDbLine
 10
501.8809327024223
 20
803.811708129899
 30
0.0
 11
501.519053626403
 21
807.9480048960689
 31
0.0
  0
LINE
  5
4A61
330
18
100
AcDbEntity
  8
SV35
 48
3.0
100
AcDbLine
 10
498.8923486081471
 20
803.5502409016562
 30
0.0
 11
498.5304695321278
 21
807.6865376678259
 31
0.0
  0
LINE
  5
4A62
330
18
100
AcDbEntity
  8
SV35
 48
3.0
100
AcDbLine
 10
480.9608440424958
 20
801.9814375321979
 30
0.0
 11
480.5989649664765
 21
806.1177342983681
 31
0.0
  0
LINE
  5
4A63
330
18
100
AcDbEntity
  8
SV35
 48
3.0
100
AcDbLine
 10
477.9722599482206
 20
801.7199703039553
 30
0.0
 11
477.6103808722013
 21
805.8562670701252
 31
0.0
  0
LINE
  5
4A64
330
18
100
AcDbEntity
  8
SV35
 48
3.0
100
AcDbLine
 10
450.0788084016517
 20
799.2796095070206
 30
0.0
 11
444.9233634745119
 21
858.2066146682363
 31
0.0
  0
LINE
  5
4A65
330
18
100
AcDbEntity
  8
SV35
 48
3.0
100
AcDbLine
 10
449.7169293256333
 20
803.4159062731903
 30
0.0
 11
529.4125051729729
 21
810.3883656930037
 31
0.0
  0
LINE
  5
4A66
330
18
100
AcDbEntity
  8
SV35
 48
3.0
100
AcDbLine
 10
445.8820766447366
 20
847.248472989227
 30
0.0
 11
525.5776524920761
 21
854.2209324090398
 31
0.0
  0
LINE
  5
4A67
330
18
100
AcDbEntity
  8
V35
 62
     6
100
AcDbLine
 10
510.2964948030626
 20
673.2002534254401
 30
0.0
 11
498.8923486081471
 21
803.5502409016556
 31
0.0
  0
LINE
  5
4A68
330
18
100
AcDbEntity
  8
V35
 62
     6
100
AcDbLine
 10
513.2850788973378
 20
673.4617206536825
 30
0.0
 11
501.8809327024223
 21
803.811708129899
 31
0.0
  0
LINE
  5
4A69
330
18
100
AcDbEntity
  8
V35
 62
     6
100
AcDbLine
 10
489.3764061431352
 20
671.3699828277388
 30
0.0
 11
477.9722599482206
 21
801.7199703039549
 31
0.0
  0
LINE
  5
4A6A
330
18
100
AcDbEntity
  8
V35
 62
     6
100
AcDbLine
 10
492.3649902374104
 20
671.6314500559819
 30
0.0
 11
480.9608440424958
 21
801.9814375321979
 31
0.0
  0
LINE
  5
4A6B
330
18
100
AcDbEntity
  8
V35
 62
     6
100
AcDbLine
 10
490.7961868679535
 20
689.5629546216335
 30
0.0
 11
508.7276914336048
 21
691.1317579910914
 31
0.0
  0
LINE
  5
4A6C
330
18
100
AcDbEntity
  8
V35
 62
     6
100
AcDbLine
 10
459.9141512271085
 20
686.8611265964558
 30
0.0
 11
487.8076027736783
 21
689.3014873933902
 31
0.0
  0
LINE
  5
4A6D
330
18
100
AcDbEntity
  8
V25
 62
     4
100
AcDbLine
 10
476.3245825348398
 20
619.7629878730216
 30
0.0
 11
469.6725328426414
 21
694.7462577316567
 31
0.0
  0
LINE
  5
4A6E
330
18
100
AcDbEntity
  8
V35
100
AcDbLine
 10
461.4829545965672
 20
668.9296220308046
 30
0.0
 11
541.1785304439067
 21
675.9020814506169
 31
0.0
  0
LINE
  5
4A6F
330
18
100
AcDbEntity
  8
V35
100
AcDbLine
 10
462.4416677667909
 20
657.9714803517953
 30
0.0
 11
450.0788084016517
 21
799.2796095070206
 31
0.0
  0
LINE
  5
4A70
330
18
100
AcDbEntity
  8
V25
 62
     4
100
AcDbLine
 10
535.1000697222539
 20
624.9051766951337
 30
0.0
 11
528.4480200300545
 21
699.8884465537688
 31
0.0
  0
LINE
  5
4A71
330
18
100
AcDbEntity
  8
V35
100
AcDbLine
 10
542.1372436141305
 20
664.9439397716081
 30
0.0
 11
529.7743842489913
 21
806.2520689268334
 31
0.0
  0
LINE
  5
4A72
330
18
100
AcDbEntity
  8
V35
 62
     6
100
AcDbLine
 10
511.71627552788
 20
691.3932252193343
 30
0.0
 11
539.6097270744481
 21
693.8335860162687
 31
0.0
  0
LINE
  5
4A74
330
18
100
AcDbEntity
  8
V35
100
AcDbLine
 10
462.4416677667909
 20
657.9714803517953
 30
0.0
 11
542.1372436141305
 21
664.9439397716081
 31
0.0
  0
LINE
  5
4A76
330
18
100
AcDbEntity
  8
V5
100
AcDbLine
 10
357.428361077249
 20
859.4551653690327
 30
0.0
 11
367.2581856087179
 21
866.3380826052458
 31
0.0
  0
LINE
  5
4A77
330
18
100
AcDbEntity
  8
V5
100
AcDbLine
 10
367.2581856087179
 20
866.3380826052458
 30
0.0
 11
687.7524235765321
 21
894.3776951528095
 31
0.0
  0
LINE
  5
4A78
330
18
100
AcDbEntity
  8
V5
100
AcDbLine
 10
687.7524235765321
 20
894.3776951528095
 30
0.0
 11
687.752423576532
 21
1086.446656526557
 31
0.0
  0
LINE
  5
4A79
330
18
100
AcDbEntity
  8
V5
100
AcDbLine
 10
687.752423576532
 20
1086.446656526557
 30
0.0
 11
679.1312227445022
 21
1077.825455694527
 31
0.0
  0
LINE
  5
4A7B
330
18
100
AcDbEntity
  8
V25
100
AcDbLine
 10
458.1998422055108
 20
658.1254770998599
 30
0.0
 11
181.8013031871082
 21
633.9437383206221
 31
0.0
  0
LINE
  5
4A7C
330
18
100
AcDbEntity
  8
V25
100
AcDbLine
 10
181.8013031871082
 20
633.9437383206221
 30
0.0
 11
170.1192387712676
 21
767.4703455979065
 31
0.0
  0
LINE
  5
4A7D
330
18
100
AcDbEntity
  8
V25
100
AcDbLine
 10
170.1192387712676
 20
767.4703455979065
 30
0.0
 11
446.5177777896702
 21
791.6520843771442
 31
0.0
  0
LINE
  5
4A7E
330
18
100
AcDbEntity
  8
V25
100
AcDbLine
 10
446.5177777896702
 20
791.6520843771442
 30
0.0
 11
458.1998422055108
 21
658.1254770998599
 31
0.0
  0
LINE
  5
4CB3
330
18
100
AcDbEntity
  8
V25
100
AcDbLine
 10
485.8434269067756
 20
837.3758025852872
 30
0.0
 11
487.944046525291
 21
817.9252385452024
 31
0.0
  0
CIRCLE
  5
4CB4
330
18
100
AcDbEntity
  8
V25
100
AcDbCircle
 10
486.8937367160333
 20
827.6505205652446
 30
0.0
 40
4.999999999999993
  0
LWPOLYLINE
  5
4CB5
330
18
100
AcDbEntity
  8
V25
100
AcDbPolyline
 90
        2
 70
     0
 43
0.0
 10
496.6190187360758
 20
828.7008303745025
 10
477.1684546959909
 20
826.6002107559868
  0
CIRCLE
  5
4CB6
330
18
100
AcDbEntity
  8
V5
100
AcDbCircle
 10
486.8937367160333
 20
827.6505205652446
 30
0.0
 40
8.0
  0
LWPOLYLINE
  5
4CB7
330
18
100
AcDbEntity
  8
V5
100
AcDbPolyline
 90
        6
 70
     1
 43
0.0
 10
492.1747911171128
 20
825.3173258142277
 10
487.5136579902155
 20
821.910395919634
 10
482.2326035891364
 20
824.2435906706512
 10
481.6126823149538
 20
829.983715316262
 10
486.2738154418507
 20
833.3906452108557
 10
491.5548698429302
 20
831.0574504598386
  0
LINE
  5
4CB8
330
18
100
AcDbEntity
  8
TXT-E
  6
VERDECKTX2
 48
5.0
100
AcDbLine
 10
523.684363829536
 20
873.9180217430286
 30
0.0
 11
518.9183841882866
 21
928.3934183164049
 31
0.0
  0
LINE
  5
4CB9
330
18
100
AcDbEntity
  8
TXT-E
  6
VERDECKTX2
 48
5.0
100
AcDbLine
 10
617.2623437014585
 20
894.3753197990449
 30
0.0
 11
613.5617204325008
 21
936.673637316046
 31
0.0
  0
LINE
  5
4CBA
330
18
100
AcDbEntity
  8
TXT-E
  6
VERDECKTX2
 48
5.0
100
AcDbLine
 10
536.8965147970651
 20
923.6924269514155
 30
0.0
 11
596.6730366080683
 21
928.9221949548887
 31
0.0
  0
SOLID
  5
4CBB
330
18
100
AcDbEntity
  8
TXT-E
  6
VERDECKTX2
 48
5.0
100
AcDbTrace
 10
536.6423105473844
 20
926.5979948208498
 30
0.0
 11
537.1507190467457
 21
920.7868590819813
 31
0.0
 12
519.4631075804595
 22
922.1672014533316
 32
0.0
 13
519.4631075804595
 23
922.1672014533316
 33
0.0
  0
SOLID
  5
4CBC
330
18
100
AcDbEntity
  8
TXT-E
  6
VERDECKTX2
 48
5.0
100
AcDbTrace
 10
596.4188323583876
 20
931.8277628243228
 30
0.0
 11
596.9272408577488
 21
926.0166270854544
 31
0.0
 12
614.1064438246737
 22
930.4474204529725
 32
0.0
 13
614.1064438246737
 23
930.4474204529725
 33
0.0
  0
MTEXT
  5
4CBD
330
18
100
AcDbEntity
  8
TXT-E
  6
VERDECKTX2
 62
     2
 48
5.0
100
AcDbMText
 10
565.8894228548753
 20
936.5412408316897
 30
0.0
 40
14.0
 41
0.0
 71
     5
 72
     1
  1
\A1;>100
  7
ROMANS
 11
0.9961946980917455
 21
0.0871557427476592
 31
0.0
 73
     1
 44
1.0
  0
LINE
  5
4CBF
330
18
100
AcDbEntity
  8
TXT-E
  6
VERDECKTX2
 48
5.0
100
AcDbLine
 10
617.2683296772104
 20
894.3068997831147
 30
0.0
 11
613.5617204325005
 21
936.673637316046
 31
0.0
  0
LINE
  5
4CC0
330
18
100
AcDbEntity
  8
TXT-E
  6
VERDECKTX2
 48
5.0
100
AcDbLine
 10
692.5539712460156
 20
883.9745712452195
 30
0.0
 11
687.378387959801
 21
943.1317589039471
 31
0.0
  0
LINE
  5
4CC1
330
18
100
AcDbEntity
  8
TXT-E
  6
VERDECKTX2
 48
5.0
100
AcDbLine
 10
631.5398510412791
 20
931.9726459510565
 30
0.0
 11
670.4897041353684
 21
935.3803165427896
 31
0.0
  0
SOLID
  5
4CC2
330
18
100
AcDbEntity
  8
TXT-E
  6
VERDECKTX2
 48
5.0
100
AcDbTrace
 10
631.2856467915984
 20
934.8782138204908
 30
0.0
 11
631.7940552909597
 21
929.0670780816224
 31
0.0
 12
614.1064438246735
 22
930.4474204529725
 32
0.0
 13
614.1064438246735
 23
930.4474204529725
 33
0.0
  0
SOLID
  5
4CC3
330
18
100
AcDbEntity
  8
TXT-E
  6
VERDECKTX2
 48
5.0
100
AcDbTrace
 10
670.2354998856877
 20
938.2858844122237
 30
0.0
 11
670.743908385049
 21
932.4747486733555
 31
0.0
 12
687.9231113519741
 22
936.9055420408736
 32
0.0
 13
687.9231113519741
 23
936.9055420408736
 33
0.0
  0
MTEXT
  5
4CC4
330
18
100
AcDbEntity
  8
TXT-E
  6
VERDECKTX2
 62
     2
 48
5.0
100
AcDbMText
 10
650.1194247406324
 20
943.9104111254607
 30
0.0
 40
14.0
 41
0.0
 71
     5
 72
     1
  1
\A1;>70
  7
ROMANS
 11
0.9961946980917455
 21
0.0871557427476592
 31
0.0
 73
     1
 44
1.0
  0
LINE
  5
4CC7
330
18
100
AcDbEntity
  8
V25
  6
Continuous
 48
5.0
100
AcDbLine
 10
175.0000507982491
 20
764.8859054241524
 30
0.0
 11
186.0555903783056
 21
638.5205097888603
 31
0.0
  0
LINE
  5
4CC8
330
18
100
AcDbEntity
  8
V25
  6
Continuous
 48
5.0
100
AcDbLine
 10
180.9772189867952
 20
765.4088398806383
 30
0.0
 11
192.0327585668517
 21
639.0434442453461
 31
0.0
  0
LINE
  5
4CC9
330
18
100
AcDbEntity
  8
V25
  6
Continuous
 48
5.0
100
AcDbLine
 10
186.9543833098574
 20
765.9317739989379
 30
0.0
 11
198.0099228899139
 21
639.5663783636457
 31
0.0
  0
LINE
  5
4CCA
330
18
100
AcDbEntity
  8
V25
  6
Continuous
 48
5.0
100
AcDbLine
 10
192.9315514984036
 20
766.4547084554235
 30
0.0
 11
203.9870910784601
 21
640.0893128201313
 31
0.0
  0
LINE
  5
4CCB
330
18
100
AcDbEntity
  8
V25
  6
Continuous
 48
5.0
100
AcDbLine
 10
198.9087158214662
 20
766.977642573723
 30
0.0
 11
209.9642554015227
 21
640.6122469384307
 31
0.0
  0
LINE
  5
4CCC
330
18
100
AcDbEntity
  8
V25
  6
Continuous
 48
5.0
100
AcDbLine
 10
204.8858840100124
 20
767.5005770302086
 30
0.0
 11
215.9414235900688
 21
641.1351813949164
 31
0.0
  0
LINE
  5
4CCD
330
18
100
AcDbEntity
  8
V25
  6
Continuous
 48
5.0
100
AcDbLine
 10
210.8630464003283
 20
768.023510979415
 30
0.0
 11
221.9185859803847
 21
641.6581153441228
 31
0.0
  0
LINE
  5
4CCE
330
18
100
AcDbEntity
  8
V25
  6
Continuous
 48
5.0
100
AcDbLine
 10
216.8402145888745
 20
768.5464454359006
 30
0.0
 11
227.8957541689309
 21
642.1810498006084
 31
0.0
  0
LINE
  5
4CCF
330
18
100
AcDbEntity
  8
V25
  6
Continuous
 48
5.0
100
AcDbLine
 10
222.817378911937
 20
769.0693795542003
 30
0.0
 11
233.8729184919935
 21
642.703983918908
 31
0.0
  0
LINE
  5
4CD0
330
18
100
AcDbEntity
  8
V25
  6
Continuous
 48
5.0
100
AcDbLine
 10
234.7717089766401
 20
770.1152479149087
 30
0.0
 11
245.8272485566966
 21
643.7498522796164
 31
0.0
  0
LINE
  5
4CD1
330
18
100
AcDbEntity
  8
V25
  6
Continuous
 48
5.0
100
AcDbLine
 10
228.7945471004832
 20
769.5923140106857
 30
0.0
 11
239.8500866805397
 21
643.2269183753935
 31
0.0
  0
LINE
  5
4CD2
330
18
100
AcDbEntity
  8
V25
  6
Continuous
 48
5.0
100
AcDbLine
 10
240.7488771651863
 20
770.6381823713942
 30
0.0
 11
251.8044167452428
 21
644.272786736102
 31
0.0
  0
LINE
  5
4CD3
330
18
100
AcDbEntity
  8
V25
  6
Continuous
 48
5.0
100
AcDbLine
 10
246.7260414882489
 20
771.1611164896936
 30
0.0
 11
257.7815810683054
 21
644.7957208544014
 31
0.0
  0
LINE
  5
4CD4
330
18
100
AcDbEntity
  8
V25
  6
Continuous
 48
5.0
100
AcDbLine
 10
252.703209676795
 20
771.6840509461794
 30
0.0
 11
263.7587492568515
 21
645.3186553108871
 31
0.0
  0
LINE
  5
4CD5
330
18
100
AcDbEntity
  8
V25
  6
Continuous
 48
5.0
100
AcDbLine
 10
258.6803714215327
 20
772.2069848389044
 30
0.0
 11
269.7359110015891
 21
645.8415892036121
 31
0.0
  0
LINE
  5
4CD6
330
18
100
AcDbEntity
  8
V25
  6
Continuous
 48
5.0
100
AcDbLine
 10
264.6575396100788
 20
772.72991929539
 30
0.0
 11
275.7130791901352
 21
646.3645236600978
 31
0.0
  0
LINE
  5
4CD7
330
18
100
AcDbEntity
  8
V25
  6
Continuous
 48
5.0
100
AcDbLine
 10
270.6347039331414
 20
773.2528534136895
 30
0.0
 11
281.6902435131979
 21
646.8874577783973
 31
0.0
  0
LINE
  5
4CD8
330
18
100
AcDbEntity
  8
V25
  6
Continuous
 48
5.0
100
AcDbLine
 10
276.6118721216875
 20
773.7757878701751
 30
0.0
 11
287.667411701744
 21
647.4103922348829
 31
0.0
  0
LINE
  5
4CD9
330
18
100
AcDbEntity
  8
V25
  6
Continuous
 48
5.0
100
AcDbLine
 10
282.589034457144
 20
774.2987218145819
 30
0.0
 11
293.6445740372005
 21
647.9333261792898
 31
0.0
  0
LINE
  5
4CDA
330
18
100
AcDbEntity
  8
V25
  6
Continuous
 48
5.0
100
AcDbLine
 10
288.5662026456902
 20
774.8216562710677
 30
0.0
 11
299.6217422257466
 21
648.4562606357755
 31
0.0
  0
LINE
  5
4CDB
330
18
100
AcDbEntity
  8
V25
  6
Continuous
 48
5.0
100
AcDbLine
 10
294.5433669687528
 20
775.3445903893671
 30
0.0
 11
305.5989065488093
 21
648.9791947540749
 31
0.0
  0
LINE
  5
4CDC
330
18
100
AcDbEntity
  8
V25
  6
Continuous
 48
5.0
100
AcDbLine
 10
300.5205351572989
 20
775.8675248458526
 30
0.0
 11
311.5760747373554
 21
649.5021292105604
 31
0.0
  0
LINE
  5
4CDD
330
18
100
AcDbEntity
  8
V25
  6
Continuous
 48
5.0
100
AcDbLine
 10
300.5205351572989
 20
775.8675248458526
 30
0.0
 11
311.5760747373554
 21
649.5021292105604
 31
0.0
  0
LINE
  5
4CDE
330
18
100
AcDbEntity
  8
V25
  6
Continuous
 48
5.0
100
AcDbLine
 10
306.4976994803609
 20
776.3904589641523
 30
0.0
 11
317.5532390604173
 21
650.0250633288601
 31
0.0
  0
LINE
  5
4CDF
330
18
100
AcDbEntity
  8
V25
  6
Continuous
 48
5.0
100
AcDbLine
 10
312.474867668907
 20
776.9133934206379
 30
0.0
 11
323.5304072489634
 21
650.5479977853457
 31
0.0
  0
LINE
  5
4CE0
330
18
100
AcDbEntity
  8
V25
  6
Continuous
 48
5.0
100
AcDbLine
 10
318.4520319919699
 20
777.4363275389373
 30
0.0
 11
329.5075715720263
 21
651.0709319036451
 31
0.0
  0
LINE
  5
4CE1
330
18
100
AcDbEntity
  8
V25
  6
Continuous
 48
5.0
100
AcDbLine
 10
324.429200180516
 20
777.9592619954229
 30
0.0
 11
335.4847397605724
 21
651.5938663601307
 31
0.0
  0
LINE
  5
4CE2
330
18
100
AcDbEntity
  8
V25
  6
Continuous
 48
5.0
100
AcDbLine
 10
330.406364503578
 20
778.4821961137226
 30
0.0
 11
341.4619040836345
 21
652.1168004784304
 31
0.0
  0
LINE
  5
4CE3
330
18
100
AcDbEntity
  8
V25
  6
Continuous
 48
5.0
100
AcDbLine
 10
336.3835326921244
 20
779.0051305702083
 30
0.0
 11
347.4390722721809
 21
652.639734934916
 31
0.0
  0
LINE
  5
4CE4
330
18
100
AcDbEntity
  8
V25
  6
Continuous
 48
5.0
100
AcDbLine
 10
342.3606970151869
 20
779.5280646885079
 30
0.0
 11
353.4162365952434
 21
653.1626690532156
 31
0.0
  0
LINE
  5
4CE5
330
18
100
AcDbEntity
  8
V25
  6
Continuous
 48
5.0
100
AcDbLine
 10
348.337865203733
 20
780.0509991449935
 30
0.0
 11
359.3934047837895
 21
653.6856035097013
 31
0.0
  0
LINE
  5
4CE6
330
18
100
AcDbEntity
  8
V25
  6
Continuous
 48
5.0
100
AcDbLine
 10
354.3150295267952
 20
780.5739332632929
 30
0.0
 11
365.3705691068517
 21
654.2085376280007
 31
0.0
  0
LINE
  5
4CE7
330
18
100
AcDbEntity
  8
V25
  6
Continuous
 48
5.0
100
AcDbLine
 10
360.2921977153414
 20
781.0968677197785
 30
0.0
 11
371.3477372953978
 21
654.7314720844862
 31
0.0
  0
LINE
  5
4CE8
330
18
100
AcDbEntity
  8
V25
  6
Continuous
 48
5.0
100
AcDbLine
 10
366.269362038404
 20
781.619801838078
 30
0.0
 11
377.3249016184605
 21
655.2544062027858
 31
0.0
  0
LINE
  5
4CE9
330
18
100
AcDbEntity
  8
V25
  6
Continuous
 48
5.0
100
AcDbLine
 10
372.2465302269501
 20
782.1427362945636
 30
0.0
 11
383.3020698070066
 21
655.7773406592714
 31
0.0
  0
LINE
  5
4CEA
330
18
100
AcDbEntity
  8
V25
  6
Continuous
 48
5.0
100
AcDbLine
 10
378.2236945500122
 20
782.6656704128632
 30
0.0
 11
389.2792341300686
 21
656.300274777571
 31
0.0
  0
ARC
  5
4CF7
330
18
100
AcDbEntity
  8
ISOTRI46
100
AcDbCircle
 10
423.052440816278
 20
786.5876738934883
 30
0.0
 40
3.0
100
AcDbArc
 50
94.99997271483632
 51
184.9999311689218
  0
ARC
  5
4CF8
330
18
100
AcDbEntity
  8
ISOTRI46
100
AcDbCircle
 10
399.143775793061
 20
784.495936743918
 30
0.0
 40
3.0
100
AcDbArc
 50
94.99997271483632
 51
184.9999311689218
  0
ARC
  5
4CF9
330
18
100
AcDbEntity
  8
ISOTRI46
100
AcDbCircle
 10
387.1894432814528
 20
783.4500681691326
 30
0.0
 40
3.0
100
AcDbArc
 50
5.000068831078502
 51
95.00002728516445
  0
ARC
  5
4CFA
330
18
100
AcDbEntity
  8
ISOTRI46
100
AcDbCircle
 10
387.1894432814528
 20
783.4500681691326
 30
0.0
 40
3.0
100
AcDbArc
 50
94.99997271483632
 51
184.9999311689218
  0
ARC
  5
4CFB
330
18
100
AcDbEntity
  8
ISOTRI46
100
AcDbCircle
 10
411.0981083046698
 20
785.5418053187031
 30
0.0
 40
3.0
100
AcDbArc
 50
94.99997271483632
 51
184.9999311689218
  0
ARC
  5
4CFC
330
18
100
AcDbEntity
  8
ISOTRI46
100
AcDbCircle
 10
399.143775793061
 20
784.495936743918
 30
0.0
 40
3.0
100
AcDbArc
 50
5.000068831078502
 51
95.00002728516445
  0
ARC
  5
4CFD
330
18
100
AcDbEntity
  8
ISOTRI46
100
AcDbCircle
 10
411.0981083046698
 20
785.5418053187031
 30
0.0
 40
3.0
100
AcDbArc
 50
5.000068831078502
 51
95.00002728516445
  0
ARC
  5
4CFE
330
18
100
AcDbEntity
  8
ISOTRI46
100
AcDbCircle
 10
435.0067733278868
 20
787.6335424682734
 30
0.0
 40
3.0
100
AcDbArc
 50
5.000068831078502
 51
95.00002728516445
  0
ARC
  5
4CFF
330
18
100
AcDbEntity
  8
ISOTRI46
100
AcDbCircle
 10
435.0067733278868
 20
787.6335424682734
 30
0.0
 40
3.0
100
AcDbArc
 50
94.99997271483632
 51
184.9999311689218
  0
ARC
  5
4D00
330
18
100
AcDbEntity
  8
ISOTRI46
100
AcDbCircle
 10
423.052440816278
 20
786.5876738934883
 30
0.0
 40
3.0
100
AcDbArc
 50
5.000068831078502
 51
95.00002728516445
  0
ARC
  5
4D01
330
18
100
AcDbEntity
  8
ISOTRI46
100
AcDbCircle
 10
446.9611058394951
 20
788.6794110430585
 30
0.0
 40
3.0
100
AcDbArc
 50
94.99997271483632
 51
184.9999311689218
  0
LINE
  5
4D03
330
18
100
AcDbEntity
  8
V25
  6
Continuous
 48
5.0
100
AcDbLine
 10
384.2008588730709
 20
783.1886045311626
 30
0.0
 11
395.2563984531274
 21
656.8232088958703
 31
0.0
  0
LINE
  5
4D05
330
18
100
AcDbEntity
  8
V25
  6
Continuous
 48
5.0
100
AcDbLine
 10
443.9725214311139
 20
788.4179474050882
 30
0.0
 11
455.0280610111705
 21
662.052551769796
 31
0.0
  0
LINE
  5
4D06
330
18
100
AcDbEntity
  8
V25
  6
Continuous
 48
5.0
100
AcDbLine
 10
437.9953532425679
 20
787.8950129486026
 30
0.0
 11
449.0508928226243
 21
661.5296173133105
 31
0.0
  0
LINE
  5
4D07
330
18
100
AcDbEntity
  8
V25
  6
Continuous
 48
5.0
100
AcDbLine
 10
432.0181889195052
 20
787.3720788303032
 30
0.0
 11
443.0737284995617
 21
661.0066831950109
 31
0.0
  0
LINE
  5
4D08
330
18
100
AcDbEntity
  8
V25
  6
Continuous
 48
5.0
100
AcDbLine
 10
426.0410207309591
 20
786.8491443738175
 30
0.0
 11
437.0965603110156
 21
660.4837487385253
 31
0.0
  0
LINE
  5
4D09
330
18
100
AcDbEntity
  8
V25
  6
Continuous
 48
5.0
100
AcDbLine
 10
420.0638564078969
 20
786.3262102555181
 30
0.0
 11
431.1193959879534
 21
659.9608146202259
 31
0.0
  0
LINE
  5
4D0A
330
18
100
AcDbEntity
  8
V25
  6
Continuous
 48
5.0
100
AcDbLine
 10
414.0866882193508
 20
785.8032757990326
 30
0.0
 11
425.1422277994072
 21
659.4378801637404
 31
0.0
  0
LINE
  5
4D0B
330
18
100
AcDbEntity
  8
V25
  6
Continuous
 48
5.0
100
AcDbLine
 10
408.1095238962882
 20
785.2803416807329
 30
0.0
 11
419.1650634763447
 21
658.9149460454407
 31
0.0
  0
LINE
  5
4D0C
330
18
100
AcDbEntity
  8
V25
  6
Continuous
 48
5.0
100
AcDbLine
 10
402.1323557077419
 20
784.7574072242474
 30
0.0
 11
413.1878952877984
 21
658.3920115889551
 31
0.0
  0
LINE
  5
4D0D
330
18
100
AcDbEntity
  8
V25
  6
Continuous
 48
5.0
100
AcDbLine
 10
396.1551913846799
 20
784.2344731059475
 30
0.0
 11
407.2107309647363
 21
657.8690774706553
 31
0.0
  0
LINE
  5
4D0E
330
18
100
AcDbEntity
  8
V25
  6
Continuous
 48
5.0
100
AcDbLine
 10
390.1780231961338
 20
783.711538649462
 30
0.0
 11
401.2335627761902
 21
657.3461430141698
 31
0.0
  0
ARC
  5
4D0F
330
18
100
AcDbEntity
  8
ISOTRI46
100
AcDbCircle
 10
404.2221430655555
 20
657.6076092117676
 30
0.0
 40
3.0
100
AcDbArc
 50
275.0000370537362
 51
5.000013275501783
  0
ARC
  5
4D10
330
18
100
AcDbEntity
  8
ISOTRI46
100
AcDbCircle
 10
416.1764794426564
 20
658.6534781247397
 30
0.0
 40
3.0
100
AcDbArc
 50
184.9999867244999
 51
274.9999629462655
  0
ARC
  5
4D11
330
18
100
AcDbEntity
  8
ISOTRI46
100
AcDbCircle
 10
404.2221469310476
 20
657.6076095499544
 30
0.0
 40
3.0
100
AcDbArc
 50
184.9999867244999
 51
274.9999629462655
  0
ARC
  5
4D12
330
18
100
AcDbEntity
  8
ISOTRI46
100
AcDbCircle
 10
416.1764755771643
 20
658.6534777865527
 30
0.0
 40
3.0
100
AcDbArc
 50
275.0000370537362
 51
5.000013275501783
  0
ARC
  5
4D15
330
18
100
AcDbEntity
  8
ISOTRI46
100
AcDbCircle
 10
452.0394769774817
 20
661.7910838490951
 30
0.0
 40
3.0
100
AcDbArc
 50
184.9999867244999
 51
274.9999629462655
  0
ARC
  5
4D16
330
18
100
AcDbEntity
  8
ISOTRI46
100
AcDbCircle
 10
440.0851406003813
 20
660.7452149361233
 30
0.0
 40
3.0
100
AcDbArc
 50
275.0000370537362
 51
5.000013275501783
  0
ARC
  5
4D17
330
18
100
AcDbEntity
  8
ISOTRI46
100
AcDbCircle
 10
452.0394731119896
 20
661.7910835109084
 30
0.0
 40
3.0
100
AcDbArc
 50
275.0000370537362
 51
5.000013275501783
  0
ARC
  5
4D18
330
18
100
AcDbEntity
  8
ISOTRI46
100
AcDbCircle
 10
428.1308119542647
 20
659.6993466995249
 30
0.0
 40
3.0
100
AcDbArc
 50
184.9999867244999
 51
274.9999629462655
  0
ARC
  5
4D19
330
18
100
AcDbEntity
  8
ISOTRI46
100
AcDbCircle
 10
428.1308080887725
 20
659.6993463613381
 30
0.0
 40
3.0
100
AcDbArc
 50
275.0000370537362
 51
5.000013275501783
  0
ARC
  5
4D1A
330
18
100
AcDbEntity
  8
ISOTRI46
100
AcDbCircle
 10
440.0851444658734
 20
660.74521527431
 30
0.0
 40
3.0
100
AcDbArc
 50
184.9999867244999
 51
274.9999629462655
  0
LINE
  5
4D1B
330
18
100
AcDbEntity
  8
V25
  6
Continuous
 48
5.0
100
AcDbLine
 10
124.4940696719328
 20
639.2199411739465
 30
0.0
 11
129.5723889657574
 21
753.6913346476144
 31
0.0
  0
LINE
  5
4D1C
330
18
100
AcDbEntity
  8
V25
  6
Continuous
 48
5.0
100
AcDbLine
 10
129.5723889657574
 20
753.6913346476144
 30
0.0
 11
149.2949274309871
 21
641.3897350735825
 31
0.0
  0
LINE
  5
4D1D
330
18
100
AcDbEntity
  8
V25
  6
Continuous
 48
5.0
100
AcDbLine
 10
149.2949274309871
 20
641.3897350735825
 30
0.0
 11
154.3732467248116
 21
755.8611285472505
 31
0.0
  0
LINE
  5
4D1E
330
18
100
AcDbEntity
  8
V25
  6
Continuous
 48
5.0
100
AcDbLine
 10
154.3732467248116
 20
755.8611285472505
 30
0.0
 11
174.0957851900417
 21
643.5595289732187
 31
0.0
  0
LINE
  5
4D22
330
18
100
AcDbEntity
  8
ISO
  6
VERDECKT
 48
2.5
100
AcDbLine
 10
475.4485565752054
 20
783.9515833925233
 30
0.0
 11
504.3714285044162
 21
672.4549036019574
 31
0.0
  0
LINE
  5
4D23
330
18
100
AcDbEntity
  8
ISO
  6
VERDECKT
 48
2.5
100
AcDbLine
 10
504.3714285044162
 20
672.4549036019574
 30
0.0
 11
499.3572293294071
 21
786.043321218467
 31
0.0
  0
LINE
  5
4D24
330
18
100
AcDbEntity
  8
ISO
  6
VERDECKT
 48
2.5
100
AcDbLine
 10
499.3572293294071
 20
786.043321218467
 30
0.0
 11
529.1722862634709
 21
674.6246975015935
 31
0.0
  0
LINE
  5
4D25
330
18
100
AcDbEntity
  8
ISO
  6
VERDECKT
 48
2.5
100
AcDbLine
 10
529.1722862634709
 20
674.6246975015935
 30
0.0
 11
524.1580873096591
 21
788.2131125898084
 31
0.0
  0
LINE
  5
4D26
330
18
100
AcDbEntity
  8
ISO
  6
VERDECKT
 48
2.5
100
AcDbLine
 10
524.1580873096591
 20
788.2131125898084
 30
0.0
 11
532.122712251053
 21
758.4493748313844
 31
0.0
  0
ARC
  5
4D27
330
18
100
AcDbEntity
  8
ISO
100
AcDbCircle
 10
685.3636627435109
 20
802.3167729374474
 30
0.0
 40
12.44779650331495
100
AcDbArc
 50
54.7154833405117
 51
94.99999999999996
  0
ARC
  5
4D28
330
18
100
AcDbEntity
  8
ISO
100
AcDbCircle
 10
660.5628049844566
 20
800.1469790378111
 30
0.0
 40
12.44779650331495
100
AcDbArc
 50
4.999999999999998
 51
94.99999999999996
  0
ARC
  5
4D29
330
18
100
AcDbEntity
  8
ISO
100
AcDbCircle
 10
660.5628049844566
 20
800.1469790378111
 30
0.0
 40
12.44779650331495
100
AcDbArc
 50
94.99999999999998
 51
185.0
  0
ARC
  5
4D2A
330
18
100
AcDbEntity
  8
ISO
100
AcDbCircle
 10
685.3636627435109
 20
802.3167729374474
 30
0.0
 40
12.44779650331495
100
AcDbArc
 50
94.99999999999998
 51
185.0
  0
ARC
  5
4D2B
330
18
100
AcDbEntity
  8
ISO
  6
VERDECKT
 48
2.5
100
AcDbCircle
 10
491.9709996248892
 20
671.3700066521393
 30
0.0
 40
12.44779650331495
100
AcDbArc
 50
185.0
 51
275.0
  0
ARC
  5
4D2C
330
18
100
AcDbEntity
  8
ISO
100
AcDbCircle
 10
491.9709996248892
 20
671.3700066521393
 30
0.0
 40
12.44779650331495
100
AcDbArc
 50
275.0
 51
4.999999999999998
  0
ARC
  5
4D2E
330
18
100
AcDbEntity
  8
ISO
  6
VERDECKT
 48
2.5
100
AcDbCircle
 10
467.1701418658348
 20
669.2002127525032
 30
0.0
 40
12.44779650331495
100
AcDbArc
 50
275.0
 51
4.999999999999998
  0
LINE
  5
4D2F
330
18
100
AcDbEntity
  8
ISO
  6
VERDECKT
 48
2.5
100
AcDbLine
 10
479.570570745362
 20
670.2851097023211
 30
0.0
 11
475.4485565752055
 21
783.9515833925233
 31
0.0
  0
LINE
  5
4D30
330
18
100
AcDbEntity
  8
V25
  6
Continuous
 48
5.0
100
AcDbLine
 10
553.9731440225251
 20
676.7944914012296
 30
0.0
 11
548.958945068713
 21
790.3829064894482
 31
0.0
  0
LINE
  5
4D31
330
18
100
AcDbEntity
  8
V25
  6
Continuous
 48
5.0
100
AcDbLine
 10
548.958945068713
 20
790.3829064894482
 30
0.0
 11
578.7740017815788
 21
678.964285300866
 31
0.0
  0
LINE
  5
4D32
330
18
100
AcDbEntity
  8
V25
  6
Continuous
 48
5.0
100
AcDbLine
 10
578.7740017815788
 20
678.964285300866
 30
0.0
 11
573.7598028277672
 21
792.5527003890843
 31
0.0
  0
LINE
  5
4D33
330
18
100
AcDbEntity
  8
V25
  6
Continuous
 48
5.0
100
AcDbLine
 10
573.7598028277672
 20
792.5527003890843
 30
0.0
 11
603.5748595406333
 21
681.1340792005022
 31
0.0
  0
LINE
  5
4D34
330
18
100
AcDbEntity
  8
V25
  6
Continuous
 48
5.0
100
AcDbLine
 10
603.5748595406333
 20
681.1340792005022
 30
0.0
 11
598.560660586822
 21
794.7224942887207
 31
0.0
  0
LINE
  5
4D35
330
18
100
AcDbEntity
  8
ISO
  6
VERDECKT
 48
2.5
100
AcDbLine
 10
479.5705707453622
 20
670.2851097023213
 30
0.0
 11
451.5398838210034
 21
781.8598455665795
 31
0.0
  0
LINE
  5
4D36
330
18
100
AcDbEntity
  8
V25
  6
Continuous
 48
5.0
100
AcDbLine
 10
535.8446856031052
 20
744.5403910927312
 30
0.0
 11
553.973144022525
 21
676.7944914012298
 31
0.0
  0
ARC
  5
4D37
330
18
100
AcDbEntity
  8
ISO
100
AcDbCircle
 10
467.1701418658348
 20
669.2002127525032
 30
0.0
 40
12.44779650331495
100
AcDbArc
 50
237.4933633215127
 51
275.0
  0
ARC
  5
4D38
330
18
100
AcDbEntity
  8
ISO
100
AcDbCircle
 10
640.7761461792143
 20
684.3887700499573
 30
0.0
 40
12.44779650331495
100
AcDbArc
 50
275.0
 51
4.999999999999998
  0
ARC
  5
4D39
330
18
100
AcDbEntity
  8
ISO
100
AcDbCircle
 10
640.7761461792143
 20
684.3887700499573
 30
0.0
 40
12.44779650331495
100
AcDbArc
 50
185.0
 51
275.0
  0
ARC
  5
4D3A
330
18
100
AcDbEntity
  8
ISO
100
AcDbCircle
 10
615.9752884201601
 20
682.218976150321
 30
0.0
 40
12.44779650331495
100
AcDbArc
 50
275.0
 51
4.999999999999998
  0
ARC
  5
4D3B
330
18
100
AcDbEntity
  8
ISO
100
AcDbCircle
 10
615.9752884201601
 20
682.218976150321
 30
0.0
 40
12.44779650331495
100
AcDbArc
 50
185.0
 51
275.0
  0
ARC
  5
4D3C
330
18
100
AcDbEntity
  8
ISO
100
AcDbCircle
 10
665.577003938269
 20
686.5585639495935
 30
0.0
 40
12.44779650331495
100
AcDbArc
 50
275.0
 51
4.999999999999998
  0
ARC
  5
4D3D
330
18
100
AcDbEntity
  8
ISO
100
AcDbCircle
 10
665.577003938269
 20
686.5585639495935
 30
0.0
 40
12.44779650331495
100
AcDbArc
 50
185.0
 51
275.0
  0
LINE
  5
4D3E
330
18
100
AcDbEntity
  8
V25
  6
Continuous
 48
5.0
100
AcDbLine
 10
598.5606605868222
 20
794.7224942887206
 30
0.0
 11
628.3757172996872
 21
683.3038731001391
 31
0.0
  0
LINE
  5
4D3F
330
18
100
AcDbEntity
  8
V25
  6
Continuous
 48
5.0
100
AcDbLine
 10
628.3757172996872
 20
683.3038731001391
 30
0.0
 11
623.3615183458759
 21
796.8922881883568
 31
0.0
  0
LINE
  5
4D40
330
18
100
AcDbEntity
  8
V25
  6
Continuous
 48
5.0
100
AcDbLine
 10
623.3615183458759
 20
796.8922881883568
 30
0.0
 11
653.1765750587419
 21
685.4736669997753
 31
0.0
  0
LINE
  5
4D41
330
18
100
AcDbEntity
  8
V25
  6
Continuous
 48
5.0
100
AcDbLine
 10
653.1765750587419
 20
685.4736669997753
 30
0.0
 11
648.1623761049302
 21
799.062082087993
 31
0.0
  0
LINE
  5
4D42
330
18
100
AcDbEntity
  8
V25
  6
Continuous
 48
5.0
100
AcDbLine
 10
648.1623761049302
 20
799.062082087993
 30
0.0
 11
677.9774328177966
 21
687.6434608994116
 31
0.0
  0
LINE
  5
4D43
330
18
100
AcDbEntity
  8
V25
  6
Continuous
 48
5.0
100
AcDbLine
 10
677.9774328177966
 20
687.6434608994116
 30
0.0
 11
672.9632338639841
 21
801.231875987629
 31
0.0
  0
LINE
  5
4D44
330
18
100
AcDbEntity
  8
V25
  6
Continuous
 48
5.0
100
AcDbLine
 10
672.963233863984
 20
801.231875987629
 30
0.0
 11
692.553971246016
 21
728.021451865522
 31
0.0
  0
LINE
  5
4D7F
330
18
100
AcDbEntity
  8
TXT-D
100
AcDbLine
 10
603.3981929947241
 20
942.5382017771099
 30
0.0
 11
603.3981929947241
 21
1245.918465950343
 31
0.0
  0
LINE
  5
4D81
330
18
100
AcDbEntity
  8
TXT-D
100
AcDbLine
 10
624.5189923482544
 20
943.5115910560694
 30
0.0
 11
624.5189923482544
 21
1270.533869167624
 31
0.0
  0
LINE
  5
4D9A
330
18
100
AcDbEntity
  8
TXT-D
100
AcDbLine
 10
552.3800290361796
 20
1295.149272384904
 30
0.0
 11
643.6061193076377
 21
1295.149272384905
 31
0.0
  0
LINE
  5
4DE5
330
18
100
AcDbEntity
  8
TXT-D
 48
5.0
100
AcDbLine
 10
577.4319105700477
 20
415.8532823906525
 30
0.0
 11
598.8425211048466
 21
415.8532823906525
 31
0.0
  0
TEXT
  5
4E9A
330
18
100
AcDbEntity
  8
TXT-D
100
AcDbText
 10
439.8112198977719
 20
322.7084427457585
 30
0.0
 40
14.0
  1
těsnící pásek
  7
ROMANS
100
AcDbText
  0
TEXT
  5
4E9C
330
18
100
AcDbEntity
  8
TXT-D
100
AcDbText
 10
436.2909680826846
 20
411.0274601866295
 30
0.0
 40
14.0
  1
trapézový plech
  7
ROMANS
100
AcDbText
  0
MTEXT
  5
4EA0
102
{ACAD_XDICTIONARY
360
4FE8
102
}
330
18
100
AcDbEntity
  8
TXT-D
100
AcDbMText
 10
434.2639977730532
 20
357.9715773373837
 30
0.0
 40
14.0
 41
184.628
 71
     7
 72
     5
  1
vnit\U+0159n\U+00ED uzav\U+00EDrac\U+00ED oplechov\U+00E1n\U+00ED
  7
ROMANS
 73
     1
 44
1.0
  0
TEXT
  5
4EA3
330
18
100
AcDbEntity
  8
TXT-D
100
AcDbText
 10
196.6199750981623
 20
1187.958754133904
 30
0.0
 40
14.0
  1
poplastovaná klipsa*
  7
ROMANS
100
AcDbText
  0
TEXT
  5
4EA6
330
18
100
AcDbEntity
  8
TXT-D
100
AcDbText
 10
120.371080130121
 20
385.602404214554
 30
0.0
 40
14.0
  1
tepelná izolace - tvrdá
  7
ROMANS
100
AcDbText
  0
TEXT
  5
4EAA
330
18
100
AcDbEntity
  8
TXT-D
100
AcDbText
 10
167.0457660935287
 20
446.4877211987844
 30
0.0
 40
14.0
  1
tepelná izolace 
  7
ROMANS
100
AcDbText
  0
TEXT
  5
4EAB
330
18
100
AcDbEntity
  8
TXT-D
100
AcDbText
 10
483.8455657864703
 20
1265.095683641509
 30
0.0
 40
14.0
  1
Z profil
  7
ROMANS
100
AcDbText
  0
TEXT
  5
4EAC
330
18
100
AcDbEntity
  8
TXT-D
100
AcDbText
 10
393.8191051834474
 20
1240.754026494417
 30
0.0
 40
14.0
  1
zahnutí v hřebeni
  7
ROMANS
100
AcDbText
  0
TEXT
  5
4EAD
330
18
100
AcDbEntity
  8
TXT-D
100
AcDbText
 10
434.2833345116077
 20
1293.169694680617
 30
0.0
 40
14.0
  1
oplechování
  7
ROMANS
100
AcDbText
  0
TEXT
  5
4EAE
330
18
100
AcDbEntity
  8
TXT-D
100
AcDbText
 10
199.557106541597
 20
1209.991196464098
 30
0.0
 40
14.0
  1
pevný bod na klipse
  7
ROMANS
100
AcDbText
  0
TEXT
  5
4EB1
330
18
100
AcDbEntity
  8
TXT-D
100
AcDbText
 10
434.2833345116077
 20
1311.270594255552
 30
0.0
 40
14.0
  1
hřebenové 
  7
ROMANS
100
AcDbText
  0
TEXT
  5
4EC2
330
18
100
AcDbEntity
  8
TXT-D
100
AcDbText
 10
166.454938457832
 20
424.0468579116371
 30
0.0
 40
14.0
  1
minerální vlna
  7
ROMANS
100
AcDbText
  0
TEXT
  5
4EC3
330
18
100
AcDbEntity
  8
TXT-D
100
AcDbText
 10
193.2227486418692
 20
350.3093988925769
 30
0.0
 40
14.0
  1
parotěsná vrstva
  7
ROMANS
100
AcDbText
  0
VIEWPORT
  5
27F
330
15
100
AcDbEntity
 67
     1
  8
0
100
AcDbViewport
 10
291.8361729499293
 20
97.9302880388106
 30
0.0
 40
963.8964341335046
 41
374.3937500920099
 68
     1
 69
     1
 12
291.8361729499293
 22
97.9302880388106
 13
0.0
 23
0.0
 14
0.0
 24
0.0
 15
0.0
 25
0.0
 16
0.0
 26
0.0
 36
1.0
 17
0.0
 27
0.0
 37
0.0
 42
50.0
 43
0.0
 44
0.0
 45
374.3937500920099
 50
0.0
 51
0.0
 72
   100
 90
    32768
  1

281
     0
 71
     1
 74
     0
110
0.0
120
0.0
130
0.0
111
1.0
121
0.0
131
0.0
112
0.0
122
1.0
132
0.0
 79
     0
146
0.0
170
     0
1001
_APP0
1000
MVIEW
1002
{
1070
    16
1010
0.0
1020
0.0
1030
0.0
1010
0.0
1020
0.0
1030
1.0
1040
0.0
1040
321.8575590952498
1040
272.2562153793347
1040
151.7174853660291
1040
50.0
1040
0.0
1040
0.0
1070
     0
1070
   100
1070
     1
1070
     1
1070
     0
1070
     0
1070
     0
1070
     0
1040
0.0
1040
0.0
1040
0.0
1040
10.0
1040
10.0
1040
10.0
1040
10.0
1070
     0
1002
{
1002
}
1002
}
  0
VIEWPORT
  5
8F2
330
15
100
AcDbEntity
 67
     1
  8
Mansfen
100
AcDbViewport
 10
100.5942613389128
 20
143.647141879124
 30
0.0
 40
188.6531088825485
 41
248.0286715940809
 68
     2
 69
     2
 12
515.8433952848836
 22
724.9496305876601
 13
0.0
 23
0.0
 14
0.0
 24
0.0
 15
0.0
 25
0.0
 16
0.0
 26
0.0
 36
0.0
 17
0.0
 27
0.0
 37
0.0
 42
0.0
 43
0.0
 44
0.0
 45
1240.143358381226
 50
0.0
 51
0.0
 72
   100
 90
    32768
  1

281
     0
 71
     1
 74
     0
110
0.0
120
0.0
130
0.0
111
1.0
121
0.0
131
0.0
112
0.0
122
1.0
132
0.0
 79
     0
146
0.0
170
     0
1001
_APP0
1000
MVIEW
1002
{
1070
    16
1010
0.0
1020
0.0
1030
0.0
1010
0.0
1020
0.0
1030
1.0
1040
0.0
1040
1485.00000205093
1040
511.1154085459554
1040
692.6085164656129
1040
50.0
1040
0.0
1040
0.0
1070
     0
1070
 20000
1070
     1
1070
     0
1070
     0
1070
     0
1070
     0
1070
     0
1040
0.0
1040
0.0
1040
0.0
1040
10.0
1040
10.0
1040
10.0
1040
10.0
1070
     0
1002
{
1002
}
1002
}
  0
LINE
  5
22EE
330
15
100
AcDbEntity
 67
     1
  8
V5
 62
     1
100
AcDbLine
 10
6.267706897638532
 20
19.63280608208362
 30
0.0
 11
194.920815780187
 21
19.6328060820836
 31
0.0
  0
LINE
  5
22EF
330
15
100
AcDbEntity
 67
     1
  8
V5
 62
     1
100
AcDbLine
 10
6.267706897638532
 20
269.6614776761645
 30
0.0
 11
194.9208157801871
 21
269.6614776761645
 31
0.0
  0
TEXT
  5
22F1
330
15
100
AcDbEntity
 67
     1
  8
0
 62
     7
100
AcDbText
 10
6.267706897638532
 20
277.2378742628086
 30
0.0
 40
2.585627078393893
  1
Detail - vazníková střecha
  7
Stil1
100
AcDbText
  0
TEXT
  5
22F2
330
15
100
AcDbEntity
 67
     1
  8
0
 62
     7
100
AcDbText
 10
6.267706897638532
 20
272.6227827290677
 30
0.0
 40
2.585627078393893
  1
Hřeben s atikou
  7
Stil1
100
AcDbText
  0
LWPOLYLINE
  5
22F3
102
{ACAD_REACTORS
330
22F4
102
}
330
15
100
AcDbEntity
 67
     1
  8
0
 62
     1
100
AcDbPolyline
 90
       12
 70
     1
 43
0.0
 10
156.4038834896323
 20
2.237770730918668
 42
-0.4142135623730951
 10
155.4288834896323
 20
3.212770730918668
 10
155.4288834896323
 20
13.65129889961756
 42
-0.2659775848638765
 10
155.9101806715363
 20
14.49206196220058
 42
-0.2516648824931137
 10
170.8697079609869
 20
15.05885836535167
 10
170.6696629217164
 20
14.65019348765446
 42
0.2516648824931138
 10
156.1405753199811
 20
14.09970586632849
 42
0.2659775848638775
 10
155.8838834896323
 20
13.65129889961756
 10
155.8838834896323
 20
3.212770730918668
 42
0.4142135623730951
 10
156.4038834896323
 20
2.692770730918667
 10
170.7688834896323
 20
2.692770730918667
 10
170.7688834896323
 20
2.237770730918668
  0
HATCH
  5
22F4
330
15
100
AcDbEntity
 67
     1
  8
0
 62
     1
100
AcDbHatch
 10
0.0
 20
0.0
 30
0.0
210
0.0
220
0.0
230
1.0
  2
SOLID
 70
     1
 71
     1
 91
        5
 92
        7
 72
     1
 73
     1
 93
       12
 10
155.9101806715362
 20
14.49206196220058
 42
0.2659775848638745
 10
155.4288834896323
 20
13.65129889961755
 42
0.0
 10
155.4288834896323
 20
3.212770730918663
 42
0.4142135623730935
 10
156.4038834896323
 20
2.237770730918668
 42
0.0
 10
170.7688834896323
 20
2.237770730918668
 42
0.0
 10
170.7688834896323
 20
2.692770730918667
 42
0.0
 10
156.4038834896323
 20
2.692770730918667
 42
-0.4142135623730977
 10
155.8838834896323
 20
3.212770730918673
 42
0.0
 10
155.8838834896323
 20
13.65129889961753
 42
-0.2659775848638737
 10
156.1405753199811
 20
14.09970586632848
 42
-0.2516648824931143
 10
170.6696629217164
 20
14.65019348765446
 42
0.0
 10
170.8697079609869
 20
15.05885836535167
 42
0.2516648824931142
 97
        1
330
22F3
 92
       23
 72
     0
 73
     1
 93
       12
 10
159.598253117018
 20
12.01408424834961
 10
158.5696965855014
 20
12.01408424834961
 10
158.5696965855013
 20
5.302519388177817
 10
159.598253117018
 20
5.302519388177817
 10
159.598253117018
 20
7.202192912845712
 10
160.4022929839806
 20
8.273445374056702
 10
162.3494417849743
 20
5.302519388177819
 10
163.4869251092171
 20
5.302519388177813
 10
161.0347686834491
 20
9.116116462334073
 10
163.2098690612776
 20
12.01408424834961
 10
162.0604453299552
 20
12.01408424834961
 10
159.598253117018
 20
8.586854796898922
 97
        1
330
22F7
 92
       23
 72
     1
 73
     1
 93
       18
 10
164.0337503906561
 20
9.834729801662451
 42
0.0
 10
164.4173694317065
 20
9.136212883778155
 42
-0.1250890829061343
 10
165.7401445775082
 20
9.491428191368488
 42
-0.267836782250909
 10
166.5407481911789
 20
9.084407744347036
 42
-0.1602289575786653
 10
166.6644224328136
 20
8.552151063363739
 42
-0.4569276421982639
 10
166.5629859872252
 20
8.472188704449184
 42
0.0541248642832679
 10
165.7438340679705
 20
8.469765841561285
 42
0.1876748474912564
 10
164.1110239896094
 20
7.648707348237033
 42
0.1827818212654466
 10
163.8191924436367
 20
6.457039316262764
 42
0.3920539506815952
 10
164.9816836820335
 20
5.305429380851148
 42
0.0
 10
165.7049427588413
 20
5.305429380851148
 42
0.1547524270167747
 10
166.658799629505
 20
5.610789231317709
 42
-0.4453775332542486
 10
166.9757150015141
 20
5.612820616929769
 42
0.2086188919813899
 10
168.0377160991041
 20
5.295914421967255
 42
0.6162695522437575
 10
168.1252919566975
 20
5.583796681723649
 42
-0.2171983840448881
 10
167.676286871786
 20
6.602487978551609
 42
0.0
 10
167.676286871786
 20
8.668057639956158
 42
0.2771818233458192
 10
166.6847164104642
 20
10.20020517920434
 42
0.2393084470231889
 97
        1
330
22F6
 92
       22
 72
     1
 73
     1
 93
        8
 10
165.76762423694
 20
7.776679594643599
 42
0.0
 10
166.5296249754455
 20
7.776679594643599
 42
-0.4387538430829209
 10
166.7456854402001
 20
7.546826297679693
 42
0.0
 10
166.7456854402002
 20
6.799055176174715
 42
-0.231573802586463
 10
166.4878174160079
 20
6.241246539729909
 42
-0.2231591289142601
 10
165.2911945840934
 20
5.922964074428162
 42
-0.2451258193607781
 10
164.7572161762557
 20
6.324612352157263
 42
-0.1420187448229963
 10
164.771154508404
 20
7.145730703063369
 42
-0.2899718709829691
 97
        1
330
22F5
 92
        7
 72
     1
 73
     1
 93
        7
 10
170.0314588806302
 20
12.23287354465304
 42
0.0
 10
169.0942755422727
 20
12.23287354465304
 42
0.0
 10
169.0942755422728
 20
6.329471012968997
 42
0.3265321329225785
 10
170.2380829176804
 20
5.302415906652035
 42
0.0
 10
170.9131375645995
 20
5.302420809963546
 42
0.0
 10
170.9131375645995
 20
6.04002589661103
 42
-0.4142135623730958
 10
170.0314588806302
 20
6.921704580580398
 42
0.0
 97
        1
330
22FD
 75
     0
 76
     1
 47
0.2105755737740495
 98
        5
 10
168.1753471270117
 20
15.90043584983626
 10
159.134903057982
 20
10.80871850856207
 10
165.7097715280914
 20
9.932724111298394
 10
165.7097715280914
 20
9.932724111298394
 10
169.6820878567639
 20
7.934361918324221
450
        0
451
        0
460
0.0
461
0.0
452
        0
462
0.0
453
        0
470

  0
LWPOLYLINE
  5
22F5
102
{ACAD_REACTORS
330
22F4
102
}
330
15
100
AcDbEntity
 67
     1
  8
0
 62
     1
100
AcDbPolyline
 90
        8
 70
     1
 43
0.0
 10
165.2911945840929
 20
5.922964074428239
 42
-0.2451258193606399
 10
164.7572161762556
 20
6.324612352157352
 42
-0.1420187448230164
 10
164.7711545084041
 20
7.145730703063568
 42
-0.2899718709829171
 10
165.7676242369399
 20
7.776679594643599
 10
166.5341711640977
 20
7.776679594643599
 42
-0.3900918559591556
 10
166.7456854402001
 20
7.577857679097746
 10
166.7456854402002
 20
6.768161676369651
 42
-0.2034436104283782
 10
166.5212080921677
 20
6.27019514786102
 42
-0.2311376311759479
  0
LWPOLYLINE
  5
22F6
102
{ACAD_REACTORS
330
22F4
102
}
330
15
100
AcDbEntity
 67
     1
  8
0
 62
     1
100
AcDbPolyline
 90
       18
 70
     1
 43
0.0
 10
166.6644224328136
 20
8.552151063363943
 42
0.1602289575782981
 10
166.5407481911794
 20
9.084407744346144
 42
0.2678367822512051
 10
165.7401445775082
 20
9.491428191368488
 42
0.1250890829061368
 10
164.4173694317065
 20
9.13621288377816
 10
164.0337503906561
 20
9.834729801662447
 42
-0.2393084470231862
 10
166.6847164104642
 20
10.20020517920435
 42
-0.2771818233458632
 10
167.676286871786
 20
8.668057639955886
 10
167.676286871786
 20
6.568664064449745
 42
0.2106080285028759
 10
168.1252919566972
 20
5.583796681723896
 42
-0.655875337136226
 10
168.0188532040334
 20
5.293745221304149
 42
-0.2140955845208337
 10
166.9395503892522
 20
5.644454173093372
 42
0.3793030021024653
 10
166.658799629505
 20
5.610789231317642
 42
-0.1547524270167758
 10
165.7049427588412
 20
5.305429380851148
 10
164.9816836820335
 20
5.305429380851148
 42
-0.3920539506815679
 10
163.8191924436367
 20
6.457039316262674
 42
-0.1827818212654531
 10
164.1110239896094
 20
7.648707348237
 42
-0.1876748474912757
 10
165.7438340679707
 20
8.469765841561301
 42
-0.0541248642832585
 10
166.5629859872252
 20
8.472188704449184
 42
0.4569276421989473
  0
LWPOLYLINE
  5
22F7
102
{ACAD_REACTORS
330
22F4
102
}
330
15
100
AcDbEntity
 67
     1
  8
0
 62
     1
100
AcDbPolyline
 90
       13
 70
     0
 43
0.0
 10
159.598253117018
 20
8.586854796898993
 10
159.598253117018
 20
12.01408424834961
 10
158.5696965855013
 20
12.01408424834961
 10
158.5696965855013
 20
5.302519388177817
 10
159.598253117018
 20
5.302519388177817
 10
159.598253117018
 20
7.202192912845724
 10
160.4022929839806
 20
8.273445374056702
 10
162.3494417849743
 20
5.30251938817782
 10
163.486925109217
 20
5.302519388177813
 10
161.0347686834491
 20
9.116116462334087
 10
163.2098690612776
 20
12.01408424834961
 10
162.0604453299552
 20
12.01408424834961
 10
159.5869758847035
 20
8.571157540398868
  0
LWPOLYLINE
  5
22F8
102
{ACAD_REACTORS
330
22F9
102
}
330
15
100
AcDbEntity
 67
     1
  8
0
 62
     1
100
AcDbPolyline
 90
       15
 70
     0
 43
0.0
 10
185.6538834896323
 20
12.89777813344244
 42
-0.4142135623730951
 10
186.6288834896323
 20
11.92277813344244
 10
186.6288834896323
 20
3.212770730918668
 42
-0.4142135623730951
 10
185.6538834896323
 20
2.237770730918668
 10
171.4188834896323
 20
2.237770730918668
 10
171.4188834896323
 20
2.692770730918667
 10
185.6538834896323
 20
2.692770730918667
 42
0.4142135623730951
 10
186.1738834896323
 20
3.212770730918668
 10
186.1738834896323
 20
11.92277813344244
 42
0.4142135623730951
 10
185.6538834896323
 20
12.44277813344244
 10
182.9914789167349
 20
12.44277813344244
 42
-0.0829624126767354
 10
171.3498604405527
 20
14.31960244127631
 10
171.4953128657628
 20
14.75072723991412
 42
0.0829624126767356
 10
182.9888834896323
 20
12.89777073091865
 10
185.657682814119
 20
12.89777073091867
  0
HATCH
  5
22F9
330
15
100
AcDbEntity
 67
     1
  8
0
 62
     1
100
AcDbHatch
 10
0.0
 20
0.0
 30
0.0
210
0.0
220
0.0
230
1.0
  2
SOLID
 70
     1
 71
     1
 91
        9
 92
       23
 72
     1
 73
     1
 93
       12
 10
171.4545990652029
 20
10.3700201129663
 42
0.0
 10
171.4545990652029
 20
9.410413672431115
 42
0.0
 10
173.9765336177676
 20
9.410413672431115
 42
-0.7299518516203806
 10
174.0510391634082
 20
9.271181048513849
 42
0.0
 10
171.3807054722845
 20
5.615381722335109
 42
0.5071802274159938
 10
171.533461685481
 20
5.302425315735906
 42
0.0
 10
175.6892789748806
 20
5.302455501835183
 42
0.0
 10
175.6892789748806
 20
6.265679499155216
 42
0.0
 10
173.107477629338
 20
6.265679499155217
 42
-0.6989832493954995
 10
173.0720268356647
 20
6.342332161779778
 42
0.0
 10
175.642998132699
 20
9.895997703354002
 42
0.0
 10
175.642998132699
 20
10.3700201129663
 42
0.0
 97
        1
330
22FC
 92
       23
 72
     0
 73
     1
 93
        6
 10
177.8558572799551
 20
10.36181180076117
 10
176.1319024828336
 20
10.36181180076117
 10
176.1319024828335
 20
9.433228448004628
 10
176.7796176124022
 20
9.433228448004637
 10
176.7796176124022
 20
5.302463421593997
 10
177.8558572799552
 20
5.302471238943859
 97
        1
330
22FF
 92
       23
 72
     1
 73
     1
 93
       12
 10
179.0814506754808
 20
3.394868128418079
 42
0.0
 10
180.238467156704
 20
3.394868128418078
 42
0.0
 10
180.2384671567039
 20
5.312855291359571
 42
-0.564020014537643
 10
180.3533757251107
 20
5.399395273002536
 42
0.1631429899312781
 10
182.0757150636407
 20
5.301063415584136
 42
0.2143211476370291
 10
183.4210185068193
 20
6.713273110503094
 42
0.1454787830754401
 10
183.4564188520861
 20
9.047965500927224
 42
0.2090289609908675
 10
182.3072427541786
 20
10.31102345319916
 42
0.2333951007178159
 10
180.3433808032825
 20
10.23586620888528
 42
0.0
 10
180.2161705129181
 20
10.23586620888528
 42
0.0
 10
180.2161705129181
 20
10.37337321886559
 42
0.0
 10
179.0814506754809
 20
10.37337321886559
 42
0.0
 97
        1
330
22FA
 92
       22
 72
     1
 73
     1
 93
        7
 10
180.2161705129181
 20
9.244416573663155
 42
-0.2989352106795097
 10
181.9276355765978
 20
9.408807733644263
 42
-0.1898212309735409
 10
182.5014744587898
 20
8.528239979514864
 42
-0.0659282931228754
 10
182.5019826688333
 20
7.161268257349597
 42
-0.1241286129053254
 10
182.1550141236972
 20
6.561406735922489
 42
-0.0600684322456203
 10
181.7645847590393
 20
6.26157554625883
 42
-0.2741033349168366
 10
180.2161705129181
 20
6.332524458838744
 42
0.0
 97
        1
330
22FB
 92
        7
 72
     1
 73
     1
 93
       14
 10
185.657682814119
 20
12.89777073091867
 42
0.0
 10
182.9888834896302
 20
12.89777073091864
 42
-0.0829624126767202
 10
171.4953128657628
 20
14.75072723991412
 42
0.0
 10
171.3498604405527
 20
14.31960244127632
 42
0.0829624126767251
 10
182.9914789167334
 20
12.44277813344244
 42
0.0
 10
185.6538834896323
 20
12.44277813344244
 42
-0.4142135623730971
 10
186.1738834896323
 20
11.92277813344243
 42
0.0
 10
186.1738834896323
 20
3.212770730918673
 42
-0.4142135623730977
 10
185.6538834896323
 20
2.692770730918667
 42
0.0
 10
171.4188834896323
 20
2.692770730918667
 42
0.0
 10
171.4188834896323
 20
2.237770730918668
 42
0.0
 10
185.6538834896323
 20
2.237770730918668
 42
0.4142135623730997
 10
186.6288834896323
 20
3.212770730918683
 42
0.0
 10
186.6288834896323
 20
11.92277813344244
 42
0.4130726898721487
 97
        1
330
22F8
 92
        7
 72
     1
 73
     1
 93
        2
 10
188.1199594278409
 20
14.07714169521924
 42
1.0
 10
186.4559992251931
 20
14.07714169521924
 42
1.0
 97
        1
330
2303
 92
       22
 72
     1
 73
     1
 93
        2
 10
186.5949570839364
 20
14.07714169521924
 42
-1.0
 10
187.9810015690976
 20
14.07714169521924
 42
-1.0
 97
        1
330
2301
 92
        6
 72
     1
 73
     1
 93
       16
 10
186.9784293565836
 20
13.6385554353808
 42
0.0
 10
186.9784293565836
 20
14.47196356167114
 42
-0.4302925980981736
 10
187.049473643698
 20
14.54573651661948
 42
0.0
 10
187.3154055714387
 20
14.54573651661947
 42
-0.1568897140508004
 10
187.5899284348674
 20
14.47856461637402
 42
-0.3153417755023655
 10
187.6645214066648
 20
14.33287656217244
 42
0.0
 10
187.6645214066648
 20
14.13972193615545
 42
-0.1080222927165122
 10
187.6104602191641
 20
14.01922822842368
 42
-0.0878146924641181
 10
187.6645214066648
 20
13.8869653301168
 42
0.0
 10
187.6645214066647
 20
13.63855543538093
 42
0.0
 10
187.5236068690435
 20
13.63855543538093
 42
0.0
 10
187.5236068690435
 20
13.80257294640206
 42
0.3344300509710908
 10
187.3709296582593
 20
13.93633244098647
 42
0.0
 10
187.2402511763126
 20
13.93633244098647
 42
0.3320036502385211
 10
187.1378245322298
 20
13.81602338659643
 42
0.0
 10
187.1378245322298
 20
13.63855543538093
 42
0.0
 97
        1
330
2300
 92
        6
 72
     1
 73
     1
 93
       10
 10
187.1623080751189
 20
14.20085897422274
 42
0.0
 10
187.1623080751188
 20
14.30146764388597
 42
-0.4700313181867731
 10
187.2401466894668
 20
14.38374850101995
 42
0.0
 10
187.3234958414028
 20
14.38374850101995
 42
-0.3239396334643629
 10
187.4642369887634
 20
14.32431383176
 42
-0.1629090778550143
 10
187.4824088561011
 20
14.25770100874501
 42
0.0
 10
187.4824088561011
 20
14.17130904122833
 42
-0.2807969914256643
 10
187.4612321748536
 20
14.13603241802698
 42
-0.1413133624006426
 10
187.3808466323742
 20
14.11439120944912
 42
0.0
 10
187.2523208341472
 20
14.11439120944912
 42
-0.4644547038390189
 97
        1
330
2304
 75
     0
 76
     1
 47
0.2105755736759934
 98
        9
 10
174.5346116571013
 20
9.875179790780531
 10
177.3837212965338
 20
9.300308472732961
 10
179.6575299525687
 20
9.437182619651199
 10
179.6575299525687
 20
9.437182619651199
 10
186.3145842553432
 20
12.39366367603799
 10
186.9446757938509
 20
13.37915732483024
 10
186.9446757938509
 20
13.37915732483024
 10
186.9446757938509
 20
13.37915732483024
 10
186.9446757938509
 20
13.37915732483024
450
        0
451
        0
460
0.0
461
0.0
452
        0
462
0.0
453
        0
470

  0
LWPOLYLINE
  5
22FA
102
{ACAD_REACTORS
330
22F9
102
}
330
15
100
AcDbEntity
 67
     1
  8
0
 62
     1
100
AcDbPolyline
 90
       12
 70
     1
 43
0.0
 10
180.2161705129181
 20
10.23586620888528
 10
180.2161705129181
 20
10.37337321886559
 10
179.0814506754809
 20
10.37337321886559
 10
179.0814506754809
 20
3.394868128418078
 10
180.2384671567039
 20
3.394868128418078
 10
180.2384671567039
 20
5.329934955865027
 42
-0.4980732597277929
 10
180.3532054352365
 20
5.399463387789644
 42
0.1631603344019285
 10
182.0757150636407
 20
5.301063415584135
 42
0.2143211476370474
 10
183.4210185068194
 20
6.713273110503248
 42
0.1454787830754339
 10
183.4564188520861
 20
9.047965500927283
 42
0.209028960994081
 10
182.3072427541546
 20
10.31102345320989
 42
0.2333951007146881
 10
180.3433808032825
 20
10.23586620888528
  0
LWPOLYLINE
  5
22FB
102
{ACAD_REACTORS
330
22F9
102
}
330
15
100
AcDbEntity
 67
     1
  8
0
 62
     1
100
AcDbPolyline
 90
        7
 70
     1
 43
0.0
 10
182.5014744587898
 20
8.528239979514907
 42
0.1898212309735227
 10
181.9276355765979
 20
9.408807733644231
 42
0.2989352106795207
 10
180.2161705129181
 20
9.244416573663158
 10
180.2161705129181
 20
6.332524458838742
 42
0.2741033349168594
 10
181.7645847590394
 20
6.261575546258885
 42
0.0600684322456349
 10
182.1550141236974
 20
6.561406735922664
 42
0.1241286129052769
 10
182.5019826688333
 20
7.161268257349568
 42
0.0659282931228788
  0
LWPOLYLINE
  5
22FC
102
{ACAD_REACTORS
330
22F9
102
}
330
15
100
AcDbEntity
 67
     1
  8
0
 62
     1
100
AcDbPolyline
 90
       13
 70
     0
 43
0.0
 10
173.1000689168075
 20
6.265679499155217
 10
175.6892789748806
 20
6.265679499155217
 10
175.6892789748806
 20
5.302455501835183
 10
171.533461685481
 20
5.302425315735906
 42
-0.5071802274160878
 10
171.3807054722845
 20
5.615381722335179
 10
174.0645781418502
 20
9.28971648040753
 42
0.5083225216873333
 10
174.0064846179616
 20
9.410413672431115
 10
171.4545990652029
 20
9.410413672431115
 10
171.4545990652029
 20
10.3700201129663
 10
175.642998132699
 20
10.3700201129663
 10
175.642998132699
 20
9.895997703354037
 10
173.0635980911172
 20
6.330681724806026
 42
0.5855768765223777
 10
173.1074776293379
 20
6.265679499155217
  0
LWPOLYLINE
  5
22FD
102
{ACAD_REACTORS
330
22F4
102
}
330
15
100
AcDbEntity
 67
     1
  8
0
 62
     1
100
AcDbPolyline
 90
        7
 70
     1
 43
0.0
 10
170.0314588806302
 20
12.23287354465304
 10
169.0942755422727
 20
12.23287354465304
 10
169.0942755422728
 20
6.329471012968967
 42
0.3265321329225733
 10
170.2380829176804
 20
5.302415906652035
 10
170.9131375645995
 20
5.302420809963546
 10
170.9131375645995
 20
6.04002589661103
 42
-0.4142135623730951
 10
170.0314588806302
 20
6.921704580580396
  0
LWPOLYLINE
  5
22FE
330
15
100
AcDbEntity
 67
     1
  8
0
 62
     1
100
AcDbPolyline
 90
        2
 70
     1
 43
0.5199938194713205
 10
177.0577469323374
 20
11.69473786801947
 42
1.0
 10
177.5777407518087
 20
11.69473786801947
 42
1.0
  0
LWPOLYLINE
  5
22FF
102
{ACAD_REACTORS
330
22F9
102
}
330
15
100
AcDbEntity
 67
     1
  8
0
 62
     1
100
AcDbPolyline
 90
        6
 70
     1
 43
0.0
 10
176.1319024828336
 20
9.43322844800463
 10
176.1319024828336
 20
10.36181180076117
 10
177.8558572799551
 20
10.36181180076117
 10
177.8558572799552
 20
5.302471238943859
 10
176.7796176124022
 20
5.302463421593998
 10
176.7796176124022
 20
9.433228448004637
  0
LWPOLYLINE
  5
2300
102
{ACAD_REACTORS
330
22F9
330
2302
102
}
330
15
100
AcDbEntity
 67
     1
  8
0
 62
     1
100
AcDbPolyline
 90
       17
 70
     0
 43
0.0
 10
186.9784293565836
 20
14.47846797026594
 10
186.9784293565836
 20
13.63855543538093
 10
187.1378245322298
 20
13.63855543538093
 10
187.1378245322298
 20
13.81602338659661
 42
-0.3320036502381971
 10
187.2402511763127
 20
13.93633244098647
 10
187.3709296582593
 20
13.93633244098647
 42
-0.3344300509710546
 10
187.5236068690435
 20
13.80257294640209
 10
187.5236068690435
 20
13.63855543538093
 10
187.6645214066648
 20
13.63855543538093
 10
187.6645214066648
 20
13.88696533011679
 42
0.0878146924641325
 10
187.6104602191641
 20
14.01922822842369
 42
0.1080222927165679
 10
187.6645214066648
 20
14.13972193615553
 10
187.6645214066648
 20
14.37205254054978
 42
0.2411188226969047
 10
187.5899284348674
 20
14.47856461637397
 42
0.1568897140508559
 10
187.3154055714387
 20
14.54573651661947
 10
187.0482815521797
 20
14.54573651661948
 42
0.4252932903388871
 10
186.9784293565836
 20
14.47196356167215
  0
CIRCLE
  5
2301
102
{ACAD_REACTORS
330
22F9
102
}
330
15
100
AcDbEntity
 67
     1
  8
0
 62
     1
100
AcDbCircle
 10
187.287979326517
 20
14.07714169521924
 30
0.0
 40
0.6930222425806165
  0
HATCH
  5
2302
330
15
100
AcDbEntity
 67
     1
  8
0
 62
     1
100
AcDbHatch
 10
0.0
 20
0.0
 30
0.0
210
0.0
220
0.0
230
1.0
  2
SOLID
 70
     1
 71
     1
 91
        2
 92
        7
 72
     1
 73
     1
 93
       16
 10
187.5236068690435
 20
13.80257294640206
 42
0.0
 10
187.5236068690435
 20
13.63855543538093
 42
0.0
 10
187.6645214066648
 20
13.63855543538093
 42
0.0
 10
187.6645214066648
 20
13.88696533011682
 42
0.0878146924641104
 10
187.6104602191641
 20
14.0192282284237
 42
0.1080222927165595
 10
187.6645214066648
 20
14.13972193615554
 42
0.0
 10
187.6645214066648
 20
14.37205254054984
 42
0.192215680109946
 10
187.6121878715565
 20
14.46397922477113
 42
0.171699417140815
 10
187.3154055714387
 20
14.54573651661947
 42
0.0
 10
187.0482815521797
 20
14.54573651661948
 42
0.3983152836414639
 10
186.9784293565836
 20
14.47846797026708
 42
0.0
 10
186.9784293565836
 20
13.63855543538093
 42
0.0
 10
187.1378245322298
 20
13.63855543538093
 42
0.0
 10
187.1378245322298
 20
13.79908015273388
 42
-0.5014973867698699
 10
187.2990393524589
 20
13.93633244098647
 42
0.0
 10
187.3459921934304
 20
13.93633244098647
 42
-0.3760883100637777
 97
        1
330
2300
 92
       22
 72
     1
 73
     1
 93
        2
 10
187.3808466323742
 20
14.11439120944912
 42
0.008892798644809
 10
187.3861895715563
 20
14.11439120944912
 42
0.0
 97
        1
330
2304
 75
     0
 76
     1
 47
0.025620434889365
 98
        2
 10
187.4642672124658
 20
14.03809335589216
 10
187.4642672124658
 20
14.03809335589216
450
        0
451
        0
460
0.0
461
0.0
452
        0
462
0.0
453
        0
470

  0
CIRCLE
  5
2303
102
{ACAD_REACTORS
330
22F9
102
}
330
15
100
AcDbEntity
 67
     1
  8
0
 62
     1
100
AcDbCircle
 10
187.287979326517
 20
14.07714169521924
 30
0.0
 40
0.8319801013239141
  0
LWPOLYLINE
  5
2304
102
{ACAD_REACTORS
330
22F9
330
2302
102
}
330
15
100
AcDbEntity
 67
     1
  8
0
 62
     1
100
AcDbPolyline
 90
       10
 70
     1
 43
0.0
 10
187.4642369887635
 20
14.32431383175979
 42
0.2024912017590097
 10
187.3821263504775
 20
14.38374850101995
 10
187.2304977796747
 20
14.38374850101995
 42
0.3605152320615398
 10
187.1623080751188
 20
14.31924027516616
 10
187.1623080751189
 20
14.19038933221312
 42
0.3656960469701174
 10
187.2353131454371
 20
14.11439120944912
 10
187.3861895715564
 20
14.11439120944912
 42
0.143350963341212
 10
187.4667562203542
 20
14.13953841633852
 42
0.2365834905846161
 10
187.4824088561011
 20
14.17130904122625
 10
187.4824088561011
 20
14.27002097803275
 42
0.133951748517549
  0
TEXT
  5
2305
330
15
100
AcDbEntity
 67
     1
  8
0
 62
     7
100
AcDbText
 10
108.7332465003906
 20
277.2378742628086
 30
0.0
 40
2.872918975993215
  1
01.02.04
  7
Stil1
100
AcDbText
  0
TEXT
  5
2306
330
15
100
AcDbEntity
 67
     1
  8
0
 62
     7
100
AcDbText
 10
108.7332465003906
 20
272.6227827290677
 30
0.0
 40
2.872918975993215
  1
M 1:5
  7
Stil1
100
AcDbText
  0
TEXT
  5
2307
330
15
100
AcDbEntity
 67
     1
  8
0
 62
     7
100
AcDbText
 10
177.3977720317473
 20
277.2378742628086
 30
0.0
 40
2.872918975993215
  1
střecha
  7
Stil1
100
AcDbText
  0
TEXT
  5
2308
330
15
100
AcDbEntity
 67
     1
  8
0
 62
     7
100
AcDbText
 10
184.4697855356455
 20
272.6227827290677
 30
0.0
 40
2.872918975993215
  1
124
  7
Stil1
100
AcDbText
  0
MTEXT
  5
4EFD
102
{ACAD_XDICTIONARY
360
4FF5
102
}
330
15
100
AcDbEntity
 67
     1
  8
TXT-D
100
AcDbMText
 10
8.286230445427701
 20
17.28984705988449
 30
0.0
 40
2.8
 41
106.1716
 71
     1
 72
     5
  1
{\C7;* Poplastovan\U+00E9 klipsy nejsou vyr\U+00E1b\U+011Bny ve v\U+0161ech rozm\U+011Brech}
  7
ROMANS
 73
     1
 44
1.0
  0
ENDSEC
  0
SECTION
  2
OBJECTS
  0
DICTIONARY
  5
C
330
0
100
AcDbDictionary
281
     1
  3
ACAD_CIP_PREVIOUS_PRODUCT_INFO
350
4E40
  3
ACAD_COLOR
350
4E20
  3
ACAD_DETAILVIEWSTYLE
350
4E3A
  3
ACAD_GROUP
350
D
  3
ACAD_IMAGE_DICT
350
6C4
  3
ACAD_IMAGE_VARS
350
6C5
  3
ACAD_LAYOUT
350
5E9
  3
ACAD_MATERIAL
350
4DEE
  3
ACAD_MLEADERSTYLE
350
4E35
  3
ACAD_MLINESTYLE
350
1B
  3
ACAD_PLOTSETTINGS
350
5EA
  3
ACAD_PLOTSTYLENAME
350
5E7
  3
ACAD_SCALELIST
350
4E23
  3
ACAD_SECTIONVIEWSTYLE
350
4E37
  3
ACAD_TABLESTYLE
350
4E21
  3
ACAD_VISUALSTYLE
350
4E07
  3
ACDB_RECOMPOSE_DATA
350
4FA7
  3
AcDbVariableDictionary
350
7F0
  3
AcDsDecomposeData
350
4FAD
  3
ASE_INDEX_DICTIONARY
350
2DED
  0
DICTIONARY
  5
4E45
330
2
100
AcDbDictionary
280
     1
281
     1
  3
ACAD_LAYERSTATES
360
4E46
  0
DICTIONARY
  5
4E4A
330
E
100
AcDbDictionary
280
     1
281
     1
  3
ADSK_XREC_LAYER_RECONCILED
360
4E4B
  0
DICTIONARY
  5
4E4C
330
B7
100
AcDbDictionary
280
     1
281
     1
  3
ADSK_XREC_LAYER_RECONCILED
360
4E4D
  0
DICTIONARY
  5
4E4E
330
8F4
100
AcDbDictionary
280
     1
281
     1
  3
ADSK_XREC_LAYER_RECONCILED
360
4E4F
  0
DICTIONARY
  5
4E50
330
9AF
100
AcDbDictionary
280
     1
281
     1
  3
ADSK_XREC_LAYER_RECONCILED
360
4E51
  0
DICTIONARY
  5
4E52
330
1209
100
AcDbDictionary
280
     1
281
     1
  3
ADSK_XREC_LAYER_RECONCILED
360
4E53
  0
DICTIONARY
  5
4E54
330
120A
100
AcDbDictionary
280
     1
281
     1
  3
ADSK_XREC_LAYER_RECONCILED
360
4E55
  0
DICTIONARY
  5
4E56
330
120B
100
AcDbDictionary
280
     1
281
     1
  3
ADSK_XREC_LAYER_RECONCILED
360
4E57
  0
DICTIONARY
  5
4E58
330
120C
100
AcDbDictionary
280
     1
281
     1
  3
ADSK_XREC_LAYER_RECONCILED
360
4E59
  0
DICTIONARY
  5
4E5A
330
120D
100
AcDbDictionary
280
     1
281
     1
  3
ADSK_XREC_LAYER_RECONCILED
360
4E5B
  0
DICTIONARY
  5
4E5C
330
120E
100
AcDbDictionary
280
     1
281
     1
  3
ADSK_XREC_LAYER_RECONCILED
360
4E5D
  0
DICTIONARY
  5
4E5E
330
1211
100
AcDbDictionary
280
     1
281
     1
  3
ADSK_XREC_LAYER_RECONCILED
360
4E5F
  0
DICTIONARY
  5
4E60
330
231F
100
AcDbDictionary
280
     1
281
     1
  3
ADSK_XREC_LAYER_RECONCILED
360
4E61
  0
DICTIONARY
  5
4E62
330
2320
100
AcDbDictionary
280
     1
281
     1
  3
ADSK_XREC_LAYER_RECONCILED
360
4E63
  0
DICTIONARY
  5
4E64
330
294A
100
AcDbDictionary
280
     1
281
     1
  3
ADSK_XREC_LAYER_RECONCILED
360
4E65
  0
DICTIONARY
  5
4E66
330
294C
100
AcDbDictionary
280
     1
281
     1
  3
ADSK_XREC_LAYER_RECONCILED
360
4E67
  0
DICTIONARY
  5
4E68
330
3456
100
AcDbDictionary
280
     1
281
     1
  3
ADSK_XREC_LAYER_RECONCILED
360
4E69
  0
DICTIONARY
  5
4E6A
330
3457
100
AcDbDictionary
280
     1
281
     1
  3
ADSK_XREC_LAYER_RECONCILED
360
4E6B
  0
DICTIONARY
  5
81C
330
18
100
AcDbDictionary
280
     1
281
     1
  3
ACAD_LAYOUTSELFREF
360
2169
  0
DICTIONARY
  5
81A
330
15
100
AcDbDictionary
280
     1
281
     1
  3
ACAD_LAYOUTSELFREF
360
2168
  0
DICTIONARY
  5
4EF4
330
4ED7
100
AcDbDictionary
280
     1
281
     1
  0
DICTIONARY
  5
4F00
330
4EFE
100
AcDbDictionary
280
     1
281
     1
  0
DICTIONARY
  5
4FEA
330
4EDF
100
AcDbDictionary
280
     1
281
     1
  3
ACAD_MTEXT_2008_RT
360
4FEB
  0
DICTIONARY
  5
4FEC
330
4EE0
100
AcDbDictionary
280
     1
281
     1
  3
ACAD_MTEXT_2008_RT
360
4FED
  0
DICTIONARY
  5
4FEE
330
4EE1
100
AcDbDictionary
280
     1
281
     1
  3
ACAD_MTEXT_2008_RT
360
4FEF
  0
DICTIONARY
  5
4FF0
330
4EE3
100
AcDbDictionary
280
     1
281
     1
  3
ACAD_MTEXT_2008_RT
360
4FF1
  0
DICTIONARY
  5
4EEA
330
4EE9
100
AcDbDictionary
280
     1
281
     1
  3
ACAD_MTEXT_2008_RT
360
4FF2
  0
DICTIONARY
  5
4FF3
330
4EF1
100
AcDbDictionary
280
     1
281
     1
  3
ACAD_MTEXT_2008_RT
360
4FF4
  0
DICTIONARY
  5
4FF7
330
4EFF
100
AcDbDictionary
280
     1
281
     1
  3
ACAD_MTEXT_2008_RT
360
4FF8
  0
DICTIONARY
  5
4F2B
330
2980
100
AcDbDictionary
280
     1
281
     1
  3
ACAD_MTEXT_2008_RT
360
4FB0
  0
DICTIONARY
  5
4FE8
330
4EA0
100
AcDbDictionary
280
     1
281
     1
  3
ACAD_MTEXT_2008_RT
360
4FE9
  0
DICTIONARY
  5
4FF5
330
4EFD
100
AcDbDictionary
280
     1
281
     1
  3
ACAD_MTEXT_2008_RT
360
4FF6
  0
XRECORD
  5
4E40
102
{ACAD_REACTORS
330
C
102
}
330
C
100
AcDbXrecord
280
     1
300
ACD
300
2013
300
ACD_F_S
  0
DICTIONARY
  5
4E20
102
{ACAD_REACTORS
330
C
102
}
330
C
100
AcDbDictionary
281
     1
  0
DICTIONARY
  5
4E3A
102
{ACAD_REACTORS
330
C
102
}
330
C
100
AcDbDictionary
281
     1
  3
Imperial24
350
4E3B
  0
DICTIONARY
  5
D
102
{ACAD_REACTORS
330
C
102
}
330
C
100
AcDbDictionary
281
     1
  0
DICTIONARY
  5
6C4
102
{ACAD_REACTORS
330
C
102
}
330
C
100
AcDbDictionary
281
     1
  3
Kalzip
350
6C6
  0
RASTERVARIABLES
  5
6C5
102
{ACAD_REACTORS
330
C
102
}
330
C
100
AcDbRasterVariables
 90
        0
 70
     1
 71
     1
 72
     0
  0
DICTIONARY
  5
5E9
102
{ACAD_REACTORS
330
C
102
}
330
C
100
AcDbDictionary
281
     1
  3
A4
350
5EC
  3
Model
350
5EB
  0
DICTIONARY
  5
4DEE
102
{ACAD_REACTORS
330
C
102
}
330
C
100
AcDbDictionary
281
     1
  3
ByBlock
350
4DF7
  3
ByLayer
350
4DEF
  3
Global
350
4DFF
  0
DICTIONARY
  5
4E35
102
{ACAD_REACTORS
330
C
102
}
330
C
100
AcDbDictionary
281
     1
  3
Standard
350
4E36
  0
DICTIONARY
  5
1B
102
{ACAD_REACTORS
330
C
102
}
330
C
100
AcDbDictionary
281
     1
  3
STANDARD
350
1C
  0
DICTIONARY
  5
5EA
102
{ACAD_REACTORS
330
C
102
}
330
C
100
AcDbDictionary
281
     1
  0
ACDBDICTIONARYWDFLT
  5
5E7
102
{ACAD_REACTORS
330
C
102
}
330
C
100
AcDbDictionary
281
     1
  3
Normal
350
5E8
100
AcDbDictionaryWithDefault
340
5E8
  0
DICTIONARY
  5
4E23
102
{ACAD_REACTORS
330
C
102
}
330
C
100
AcDbDictionary
281
     1
  3
A0
350
4E24
  3
A1
350
4E25
  3
A2
350
4E26
  3
A3
350
4E27
  3
A4
350
4E28
  3
A5
350
4E29
  3
A6
350
4E2A
  3
A7
350
4E2B
  3
A8
350
4E2C
  3
A9
350
4E2D
  3
B0
350
4E2E
  3
B1
350
4E2F
  3
B2
350
4E30
  3
B3
350
4E31
  3
B4
350
4E32
  3
B5
350
4E33
  3
B6
350
4E34
  0
DICTIONARY
  5
4E37
102
{ACAD_REACTORS
330
C
102
}
330
C
100
AcDbDictionary
281
     1
  3
Imperial24
350
4E39
  0
DICTIONARY
  5
4E21
102
{ACAD_REACTORS
330
C
102
}
330
C
100
AcDbDictionary
281
     1
  3
Standard
350
4E22
  0
DICTIONARY
  5
4E07
102
{ACAD_REACTORS
330
C
102
}
330
C
100
AcDbDictionary
281
     1
  3
2dWireframe
350
4E0D
  3
Basic
350
4E0C
  3
Brighten
350
4E13
  3
ColorChange
350
4E17
  3
Conceptual
350
4E10
  3
Dim
350
4E12
  3
EdgeColorOff
350
4E1F
  3
Facepattern
350
4E16
  3
Flat
350
4E08
  3
FlatWithEdges
350
4E09
  3
Gouraud
350
4E0A
  3
GouraudWithEdges
350
4E0B
  3
Hidden
350
4E0F
  3
JitterOff
350
4E1D
  3
Linepattern
350
4E15
  3
OverhangOff
350
4E1E
  3
Realistic
350
4E11
  3
Shaded
350
4E1C
  3
Shaded with edges
350
4E1B
  3
Shades of Gray
350
4E18
  3
Sketchy
350
4E19
  3
Thicken
350
4E14
  3
Wireframe
350
4E0E
  3
X-Ray
350
4E1A
  0
XRECORD
  5
4FA7
102
{ACAD_REACTORS
330
C
102
}
330
C
100
AcDbXrecord
280
     1
 90
        1
330
2980
330
4E22
330
4EE9
  0
DICTIONARY
  5
7F0
102
{ACAD_REACTORS
330
C
102
}
330
C
100
AcDbDictionary
281
     1
  3
CANNOSCALE
350
4F34
  3
CMLEADERSTYLE
350
4F30
  3
CTABLESTYLE
350
4F2F
  3
CVIEWDETAILSTYLE
350
4F31
  3
CVIEWSECTIONSTYLE
350
4F32
  3
DIMASSOC
350
28D2
  3
LAYEREVAL
350
4F36
  3
LAYERNOTIFY
350
4F37
  3
LIGHTINGUNITS
350
4F35
  3
MSLTSCALE
350
4F33
  3
SORTENTS
350
7F1
  3
XCLIPFRAME
350
4FA2
  0
DICTIONARY
  5
4FAD
102
{ACAD_REACTORS
330
C
102
}
330
C
100
AcDbDictionary
281
     1
  3
AcDsRecords
350
4FAF
  3
AcDsSchemas
350
4FAE
1001
ACAD
1070
     2
  0
DICTIONARY
  5
2DED
102
{ACAD_REACTORS
330
C
102
}
330
C
100
AcDbDictionary
281
     1
  3
ASEBlockHierarchyIndexRecord
350
2DEF
1001
DCO15
1040
1464605482.29
  0
DICTIONARY
  5
4E46
102
{ACAD_REACTORS
330
4E45
102
}
330
4E45
100
AcDbDictionary
281
     1
  0
XRECORD
  5
4E4B
102
{ACAD_REACTORS
330
4E4A
102
}
330
4E4A
100
AcDbXrecord
280
     1
290
     1
  0
XRECORD
  5
4E4D
102
{ACAD_REACTORS
330
4E4C
102
}
330
4E4C
100
AcDbXrecord
280
     1
290
     1
  0
XRECORD
  5
4E4F
102
{ACAD_REACTORS
330
4E4E
102
}
330
4E4E
100
AcDbXrecord
280
     1
290
     1
  0
XRECORD
  5
4E51
102
{ACAD_REACTORS
330
4E50
102
}
330
4E50
100
AcDbXrecord
280
     1
290
     1
  0
XRECORD
  5
4E53
102
{ACAD_REACTORS
330
4E52
102
}
330
4E52
100
AcDbXrecord
280
     1
290
     1
  0
XRECORD
  5
4E55
102
{ACAD_REACTORS
330
4E54
102
}
330
4E54
100
AcDbXrecord
280
     1
290
     1
  0
XRECORD
  5
4E57
102
{ACAD_REACTORS
330
4E56
102
}
330
4E56
100
AcDbXrecord
280
     1
290
     1
  0
XRECORD
  5
4E59
102
{ACAD_REACTORS
330
4E58
102
}
330
4E58
100
AcDbXrecord
280
     1
290
     1
  0
XRECORD
  5
4E5B
102
{ACAD_REACTORS
330
4E5A
102
}
330
4E5A
100
AcDbXrecord
280
     1
290
     1
  0
XRECORD
  5
4E5D
102
{ACAD_REACTORS
330
4E5C
102
}
330
4E5C
100
AcDbXrecord
280
     1
290
     1
  0
XRECORD
  5
4E5F
102
{ACAD_REACTORS
330
4E5E
102
}
330
4E5E
100
AcDbXrecord
280
     1
290
     1
  0
XRECORD
  5
4E61
102
{ACAD_REACTORS
330
4E60
102
}
330
4E60
100
AcDbXrecord
280
     1
290
     1
  0
XRECORD
  5
4E63
102
{ACAD_REACTORS
330
4E62
102
}
330
4E62
100
AcDbXrecord
280
     1
290
     1
  0
XRECORD
  5
4E65
102
{ACAD_REACTORS
330
4E64
102
}
330
4E64
100
AcDbXrecord
280
     1
290
     1
  0
XRECORD
  5
4E67
102
{ACAD_REACTORS
330
4E66
102
}
330
4E66
100
AcDbXrecord
280
     1
290
     1
  0
XRECORD
  5
4E69
102
{ACAD_REACTORS
330
4E68
102
}
330
4E68
100
AcDbXrecord
280
     1
290
     1
  0
XRECORD
  5
4E6B
102
{ACAD_REACTORS
330
4E6A
102
}
330
4E6A
100
AcDbXrecord
280
     1
290
     1
  0
XRECORD
  5
2169
102
{ACAD_REACTORS
330
81C
102
}
330
81C
100
AcDbXrecord
280
     1
340
18
  0
XRECORD
  5
2168
102
{ACAD_REACTORS
330
81A
102
}
330
81A
100
AcDbXrecord
280
     1
340
15
  0
XRECORD
  5
4FEB
102
{ACAD_REACTORS
330
4FEA
102
}
330
4FEA
100
AcDbXrecord
280
     1
 40
42427.0
  1
pás tepelné izolace
  0
XRECORD
  5
4FED
102
{ACAD_REACTORS
330
4FEC
102
}
330
4FEC
100
AcDbXrecord
280
     1
 40
34021.0
  1
uzavírací profil
  0
XRECORD
  5
4FEF
102
{ACAD_REACTORS
330
4FEE
102
}
330
4FEE
100
AcDbXrecord
280
     1
 40
162780.0
  1
vnitřní uzavírací oplechování
  0
XRECORD
  5
4FF1
102
{ACAD_REACTORS
330
4FF0
102
}
330
4FF0
100
AcDbXrecord
280
     1
 40
58899.0
  1
těsnící pásek 2x
  0
XRECORD
  5
4FF2
102
{ACAD_REACTORS
330
4EEA
102
}
330
4EEA
100
AcDbXrecord
280
     1
 40
2079069.0
  1
\pi76.414;kotvení \P\pi25.895;hřebenového \P\pi29.515;oplechování:\P\pi98.674;max. \P\pi44.957;vzdálenost \P\pi9.6704;400mm, jen do \P\pi47.736;hřebenové \P\pi71.009;uzávěry\P
  0
XRECORD
  5
4FF4
102
{ACAD_REACTORS
330
4FF3
102
}
330
4FF3
100
AcDbXrecord
280
     1
 40
140772.0
  1
typ pevného bodu stanovený výpočtem
  0
XRECORD
  5
4FF8
102
{ACAD_REACTORS
330
4FF7
102
}
330
4FF7
100
AcDbXrecord
280
     1
 40
350889.0
  1
{\C7;* Poplastované klipsy nejsou vyráběny ve všech rozměrech}
  0
XRECORD
  5
4FB0
102
{ACAD_REACTORS
330
4F2B
102
}
330
4F2B
100
AcDbXrecord
280
     1
 40
1514710.0
  1
\pi88.667;kotvení \P\pi38.148;hřebenového  \P\pi41.767;oplechování:\P\pi10.435;max. vzdálenost \P\pi20.939;400 mm, ne na \P\pi29.973;stojaté drážce
  0
XRECORD
  5
4FE9
102
{ACAD_REACTORS
330
4FE8
102
}
330
4FE8
100
AcDbXrecord
280
     1
 40
162780.0
  1
vnitřní uzavírací oplechování
  0
XRECORD
  5
4FF6
102
{ACAD_REACTORS
330
4FF5
102
}
330
4FF5
100
AcDbXrecord
280
     1
 40
350889.0
  1
{\C7;* Poplastované klipsy nejsou vyráběny ve všech rozměrech}
  0
ACDBDETAILVIEWSTYLE
  5
4E3B
102
{ACAD_REACTORS
330
4E3A
102
}
330
4E3A
100
AcDbModelDocViewStyle
 70
     0
  3
Imperial24
290
     0
100
AcDbDetailViewStyle
 70
     0
 71
     0
 90
        3
 71
     1
340
F
 62
   256
 40
0.24
340
0
 62
   256
 40
0.24
300

 40
0.36
280
     3
 71
     2
340
14
 90
       25
 62
   256
 71
     3
340
F
 62
   256
 40
0.24
 90
        1
 40
0.75
 90
        1
300
%<\AcVar ViewType \f "%tc1">% %<\AcVar ViewDetailId>%\PMĚŘÍTKO %<\AcVar ViewScale \f "%sn">%
 71
     4
340
14
 90
       25
 62
   256
340
14
 90
       25
 62
   256
280
     0
  0
IMAGEDEF
  5
6C6
102
{ACAD_REACTORS
330
6C4
102
}
330
6C4
100
AcDbRasterImageDef
 90
        0
  1
C:\Kalzip.pcx
 10
944.0
 20
1927.0
 11
0.0010593220338983
 21
0.0010593220338983
280
     1
281
     0
  0
LAYOUT
  5
5EC
102
{ACAD_REACTORS
330
5E9
102
}
330
5E9
100
AcDbPlotSettings
  1

  2
Brother HL-760
  4
A4
  6

 40
6.043083190917968
 41
6.762742042541503
 42
7.736419677734375
 43
5.027069091796875
 44
209.9733276367187
 45
296.9683227539062
 46
0.0
 47
0.0
 48
0.473259
 49
58.191861
140
193.769503
141
275.404803
142
1.0
143
1.0
 70
   688
 72
     1
 73
     0
 74
     5
  7
CORUS_Mono.ctb
 75
    16
147
1.0
 76
     0
 77
     2
 78
   300
148
0.0
149
0.0
100
AcDbLayout
  1
A4
 70
     0
 71
     1
 10
-6.043083190917968
 20
-6.762742042541503
 11
203.9302444458008
 21
290.2055807113647
 12
0.0
 22
0.0
 32
0.0
 14
6.267706897638532
 24
2.237770730918657
 34
0.0
 15
194.9208157801871
 25
280.8711565148491
 35
0.0
146
0.0
 13
0.0
 23
0.0
 33
0.0
 16
1.0
 26
0.0
 36
0.0
 17
0.0
 27
1.0
 37
0.0
 76
     0
330
15
331
27F
  0
LAYOUT
  5
5EB
102
{ACAD_REACTORS
330
5E9
102
}
330
5E9
100
AcDbPlotSettings
  1

  2
\\BSSRV01\Océ 5120 A0
  4
A4
  6

 40
3.174999952316284
 41
3.174999952316284
 42
3.175003051757812
 43
3.17498779296875
 44
209.9733276367187
 45
296.9683227539062
 46
0.0
 47
0.0
 48
0.0
 49
0.0
140
0.0
141
0.0
142
1.0
143
1.0
 70
 11952
 72
     1
 73
     1
 74
     0
  7

 75
     0
147
1.0
 76
     0
 77
     2
 78
   300
148
973.0712272420497
149
544.3184272033454
100
AcDbLayout
  1
Model
 70
     1
 71
     0
 10
0.0
 20
0.0
 11
12.0
 21
9.0
 12
0.0
 22
0.0
 32
0.0
 14
0.0
 24
0.0
 34
0.0
 15
0.0
 25
0.0
 35
0.0
146
0.0
 13
0.0
 23
0.0
 33
0.0
 16
1.0
 26
0.0
 36
0.0
 17
0.0
 27
1.0
 37
0.0
 76
     0
330
18
331
4DEC
  0
MATERIAL
  5
4DF7
102
{ACAD_XDICTIONARY
360
4DF8
102
}
102
{ACAD_REACTORS
330
4DEE
102
}
330
4DEE
100
AcDbMaterial
  1
ByBlock
 72
     0
 43
0.0208333333333333
 43
0.0
 43
0.0
 43
0.0
 43
0.0
 43
0.0208333333333333
 43
0.0
 43
0.0
 43
0.0
 43
0.0
 43
1.0
 43
0.0
 43
0.0
 43
0.0
 43
0.0
 43
1.0
 77
     0
 47
0.0208333333333333
 47
0.0
 47
0.0
 47
0.0
 47
0.0
 47
0.0208333333333333
 47
0.0
 47
0.0
 47
0.0
 47
0.0
 47
1.0
 47
0.0
 47
0.0
 47
0.0
 47
0.0
 47
1.0
171
     0
 49
0.0208333333333333
 49
0.0
 49
0.0
 49
0.0
 49
0.0
 49
0.0208333333333333
 49
0.0
 49
0.0
 49
0.0
 49
0.0
 49
1.0
 49
0.0
 49
0.0
 49
0.0
 49
0.0
 49
1.0
175
     0
142
0.0208333333333333
142
0.0
142
0.0
142
0.0
142
0.0
142
0.0208333333333333
142
0.0
142
0.0
142
0.0
142
0.0
142
1.0
142
0.0
142
0.0
142
0.0
142
0.0
142
1.0
179
     0
144
0.0208333333333333
144
0.0
144
0.0
144
0.0
144
0.0
144
0.0208333333333333
144
0.0
144
0.0
144
0.0
144
0.0
144
1.0
144
0.0
144
0.0
144
0.0
144
0.0
144
1.0
147
0.0208333333333333
147
0.0
147
0.0
147
0.0
147
0.0
147
0.0208333333333333
147
0.0
147
0.0
147
0.0
147
0.0
147
1.0
147
0.0
147
0.0
147
0.0
147
0.0
147
1.0
  0
MATERIAL
  5
4DEF
102
{ACAD_XDICTIONARY
360
4DF0
102
}
102
{ACAD_REACTORS
330
4DEE
102
}
330
4DEE
100
AcDbMaterial
  1
ByLayer
 72
     0
 43
0.0208333333333333
 43
0.0
 43
0.0
 43
0.0
 43
0.0
 43
0.0208333333333333
 43
0.0
 43
0.0
 43
0.0
 43
0.0
 43
1.0
 43
0.0
 43
0.0
 43
0.0
 43
0.0
 43
1.0
 77
     0
 47
0.0208333333333333
 47
0.0
 47
0.0
 47
0.0
 47
0.0
 47
0.0208333333333333
 47
0.0
 47
0.0
 47
0.0
 47
0.0
 47
1.0
 47
0.0
 47
0.0
 47
0.0
 47
0.0
 47
1.0
171
     0
 49
0.0208333333333333
 49
0.0
 49
0.0
 49
0.0
 49
0.0
 49
0.0208333333333333
 49
0.0
 49
0.0
 49
0.0
 49
0.0
 49
1.0
 49
0.0
 49
0.0
 49
0.0
 49
0.0
 49
1.0
175
     0
142
0.0208333333333333
142
0.0
142
0.0
142
0.0
142
0.0
142
0.0208333333333333
142
0.0
142
0.0
142
0.0
142
0.0
142
1.0
142
0.0
142
0.0
142
0.0
142
0.0
142
1.0
179
     0
144
0.0208333333333333
144
0.0
144
0.0
144
0.0
144
0.0
144
0.0208333333333333
144
0.0
144
0.0
144
0.0
144
0.0
144
1.0
144
0.0
144
0.0
144
0.0
144
0.0
144
1.0
147
0.0208333333333333
147
0.0
147
0.0
147
0.0
147
0.0
147
0.0208333333333333
147
0.0
147
0.0
147
0.0
147
0.0
147
1.0
147
0.0
147
0.0
147
0.0
147
0.0
147
1.0
  0
MATERIAL
  5
4DFF
102
{ACAD_XDICTIONARY
360
4E00
102
}
102
{ACAD_REACTORS
330
4DEE
102
}
330
4DEE
100
AcDbMaterial
  1
Global
 72
     0
 43
0.0208333333333333
 43
0.0
 43
0.0
 43
0.0
 43
0.0
 43
0.0208333333333333
 43
0.0
 43
0.0
 43
0.0
 43
0.0
 43
1.0
 43
0.0
 43
0.0
 43
0.0
 43
0.0
 43
1.0
 77
     0
 47
0.0208333333333333
 47
0.0
 47
0.0
 47
0.0
 47
0.0
 47
0.0208333333333333
 47
0.0
 47
0.0
 47
0.0
 47
0.0
 47
1.0
 47
0.0
 47
0.0
 47
0.0
 47
0.0
 47
1.0
171
     0
 49
0.0208333333333333
 49
0.0
 49
0.0
 49
0.0
 49
0.0
 49
0.0208333333333333
 49
0.0
 49
0.0
 49
0.0
 49
0.0
 49
1.0
 49
0.0
 49
0.0
 49
0.0
 49
0.0
 49
1.0
175
     0
142
0.0208333333333333
142
0.0
142
0.0
142
0.0
142
0.0
142
0.0208333333333333
142
0.0
142
0.0
142
0.0
142
0.0
142
1.0
142
0.0
142
0.0
142
0.0
142
0.0
142
1.0
179
     0
144
0.0208333333333333
144
0.0
144
0.0
144
0.0
144
0.0
144
0.0208333333333333
144
0.0
144
0.0
144
0.0
144
0.0
144
1.0
144
0.0
144
0.0
144
0.0
144
0.0
144
1.0
147
0.0208333333333333
147
0.0
147
0.0
147
0.0
147
0.0
147
0.0208333333333333
147
0.0
147
0.0
147
0.0
147
0.0
147
1.0
147
0.0
147
0.0
147
0.0
147
0.0
147
1.0
  0
MLEADERSTYLE
  5
4E36
102
{ACAD_XDICTIONARY
360
4FE6
102
}
102
{ACAD_REACTORS
330
4E35
102
}
330
4E35
100
AcDbMLeaderStyle
170
     2
171
     1
172
     0
 90
        2
 40
0.0
 41
0.0
173
     1
 91
-1056964608
340
12
 92
       -2
290
     1
 42
0.09
291
     1
 43
0.36
  3
Standard
 44
0.18
300

342
F
174
     1
178
     6
175
     1
176
     0
 93
-1056964608
 45
0.18
292
     0
297
     0
 46
0.18
 94
-1056964608
 47
1.0
 49
1.0
140
1.0
293
     1
141
0.0
294
     1
177
     0
142
1.0
295
     0
296
     0
143
0.125
1001
ACAD_MLEADERVER
1070
     2
  0
MLINESTYLE
  5
1C
102
{ACAD_REACTORS
330
1B
102
}
330
1B
100
AcDbMlineStyle
  2
STANDARD
 70
     0
  3

 62
   256
 51
90.0
 52
90.0
 71
     2
 49
0.5
 62
   256
  6
BYLAYER
 49
-0.5
 62
   256
  6
BYLAYER
  0
ACDBPLACEHOLDER
  5
5E8
102
{ACAD_REACTORS
330
5E7
102
}
330
5E7
  0
SCALE
  5
4E24
102
{ACAD_REACTORS
330
4E23
102
}
330
4E23
100
AcDbScale
 70
     0
300
1:1
140
1.0
141
1.0
290
     1
  0
SCALE
  5
4E25
102
{ACAD_REACTORS
330
4E23
102
}
330
4E23
100
AcDbScale
 70
     0
300
1/128" = 1'-0"
140
0.0078125
141
12.0
290
     0
  0
SCALE
  5
4E26
102
{ACAD_REACTORS
330
4E23
102
}
330
4E23
100
AcDbScale
 70
     0
300
1/64" = 1'-0"
140
0.015625
141
12.0
290
     0
  0
SCALE
  5
4E27
102
{ACAD_REACTORS
330
4E23
102
}
330
4E23
100
AcDbScale
 70
     0
300
1/32" = 1'-0"
140
0.03125
141
12.0
290
     0
  0
SCALE
  5
4E28
102
{ACAD_REACTORS
330
4E23
102
}
330
4E23
100
AcDbScale
 70
     0
300
1/16" = 1'-0"
140
0.0625
141
12.0
290
     0
  0
SCALE
  5
4E29
102
{ACAD_REACTORS
330
4E23
102
}
330
4E23
100
AcDbScale
 70
     0
300
3/32" = 1'-0"
140
0.09375
141
12.0
290
     0
  0
SCALE
  5
4E2A
102
{ACAD_REACTORS
330
4E23
102
}
330
4E23
100
AcDbScale
 70
     0
300
1/8" = 1'-0"
140
0.125
141
12.0
290
     0
  0
SCALE
  5
4E2B
102
{ACAD_REACTORS
330
4E23
102
}
330
4E23
100
AcDbScale
 70
     0
300
3/16" = 1'-0"
140
0.1875
141
12.0
290
     0
  0
SCALE
  5
4E2C
102
{ACAD_REACTORS
330
4E23
102
}
330
4E23
100
AcDbScale
 70
     0
300
1/4" = 1'-0"
140
0.25
141
12.0
290
     0
  0
SCALE
  5
4E2D
102
{ACAD_REACTORS
330
4E23
102
}
330
4E23
100
AcDbScale
 70
     0
300
3/8" = 1'-0"
140
0.375
141
12.0
290
     0
  0
SCALE
  5
4E2E
102
{ACAD_REACTORS
330
4E23
102
}
330
4E23
100
AcDbScale
 70
     0
300
1/2" = 1'-0"
140
0.5
141
12.0
290
     0
  0
SCALE
  5
4E2F
102
{ACAD_REACTORS
330
4E23
102
}
330
4E23
100
AcDbScale
 70
     0
300
3/4" = 1'-0"
140
0.75
141
12.0
290
     0
  0
SCALE
  5
4E30
102
{ACAD_REACTORS
330
4E23
102
}
330
4E23
100
AcDbScale
 70
     0
300
1" = 1'-0"
140
1.0
141
12.0
290
     0
  0
SCALE
  5
4E31
102
{ACAD_REACTORS
330
4E23
102
}
330
4E23
100
AcDbScale
 70
     0
300
1-1/2" = 1'-0"
140
1.5
141
12.0
290
     0
  0
SCALE
  5
4E32
102
{ACAD_REACTORS
330
4E23
102
}
330
4E23
100
AcDbScale
 70
     0
300
3" = 1'-0"
140
3.0
141
12.0
290
     0
  0
SCALE
  5
4E33
102
{ACAD_REACTORS
330
4E23
102
}
330
4E23
100
AcDbScale
 70
     0
300
6" = 1'-0"
140
6.0
141
12.0
290
     0
  0
SCALE
  5
4E34
102
{ACAD_REACTORS
330
4E23
102
}
330
4E23
100
AcDbScale
 70
     0
300
1'-0" = 1'-0"
140
12.0
141
12.0
290
     0
  0
ACDBSECTIONVIEWSTYLE
  5
4E39
102
{ACAD_REACTORS
330
4E37
102
}
330
4E37
100
AcDbModelDocViewStyle
 70
     0
  3
Imperial24
290
     0
100
AcDbSectionViewStyle
 70
     0
 71
     0
 90
       78
 71
     1
340
F
 62
   256
 40
0.24
340
0
340
0
 62
   256
 40
0.24
300
I, O, Q, S, X, Z
 40
0.48
 90
        3
 40
0.18
 90
        1
 71
     2
340
4E38
 90
       25
 62
   256
340
14
 90
       50
 62
   256
 40
0.24
 40
0.0
 40
0.24
 71
     3
340
F
 62
   256
 40
0.24
 90
        1
 40
0.75
 90
        1
300
%<\AcVar ViewType \f "%tc1">% %<\AcVar ViewSectionStartId>%-%<\AcVar ViewSectionEndId>%\PMĚŘÍTKO %<\AcVar ViewScale \f "%sn">%
 71
     4
 62
   256
 62
   257
300
ANSI31
 40
1.0
 90
        0
290
     0
290
     0
 90
        6
 40
0.0
 40
1.570796326794896
 40
0.2617993877991494
 40
1.308996938995747
 40
-0.2617993877991494
 40
1.832595714594046
  0
TABLESTYLE
  5
4E22
102
{ACAD_XDICTIONARY
360
4FA4
102
}
102
{ACAD_REACTORS
330
4E21
102
}
330
4E21
100
AcDbTableStyle
  3
Standard
 70
     0
 71
     0
 40
0.06
 41
0.06
280
     0
281
     0
  7
STANDARD
140
0.18
170
     2
 62
     0
 63
     7
283
     0
274
    -2
284
     1
 64
     0
275
    -2
285
     1
 65
     0
276
    -2
286
     1
 66
     0
277
    -2
287
     1
 67
     0
278
    -2
288
     1
 68
     0
279
    -2
289
     1
 69
     0
  7
STANDARD
140
0.25
170
     5
 62
     0
 63
     7
283
     0
274
    -2
284
     1
 64
     0
275
    -2
285
     1
 65
     0
276
    -2
286
     1
 66
     0
277
    -2
287
     1
 67
     0
278
    -2
288
     1
 68
     0
279
    -2
289
     1
 69
     0
  7
STANDARD
140
0.18
170
     5
 62
     0
 63
     7
283
     0
274
    -2
284
     1
 64
     0
275
    -2
285
     1
 65
     0
276
    -2
286
     1
 66
     0
277
    -2
287
     1
 67
     0
278
    -2
288
     1
 68
     0
279
    -2
289
     1
 69
     0
  0
VISUALSTYLE
  5
4E0D
102
{ACAD_XDICTIONARY
360
4FBE
102
}
102
{ACAD_REACTORS
330
4E07
102
}
330
4E07
100
AcDbVisualStyle
  2
2dWireframe
 70
     4
 71
     0
 72
     2
 73
     0
 90
        0
 40
-0.6
 41
-30.0
 62
     5
 63
     7
421
 16777215
 74
     1
 91
        4
 64
     7
 65
   257
 75
     1
175
     1
 42
1.0
 92
        0
 66
   257
 43
1.0
 76
     1
 77
     6
 78
     2
 67
     7
 79
     5
170
     0
171
     0
290
     0
174
     0
 93
        1
 44
0.0
173
     0
291
     0
 45
0.0
1001
ACAD
1000
AcDbSavedByObjectVersion
1070
     0
  0
VISUALSTYLE
  5
4E0C
102
{ACAD_XDICTIONARY
360
4FBC
102
}
102
{ACAD_REACTORS
330
4E07
102
}
330
4E07
100
AcDbVisualStyle
  2
Basic
 70
     7
 71
     1
 72
     0
 73
     1
 90
        0
 40
-0.6
 41
-30.0
 62
     5
 63
     7
421
 16777215
 74
     0
 91
        4
 64
     7
 65
   257
 75
     1
175
     1
 42
1.0
 92
        8
 66
     7
 43
1.0
 76
     1
 77
     6
 78
     2
 67
     7
 79
     5
170
     0
171
     0
290
     0
174
     0
 93
        1
 44
0.0
173
     0
291
     1
 45
0.0
1001
ACAD
1000
AcDbSavedByObjectVersion
1070
     0
  0
VISUALSTYLE
  5
4E13
102
{ACAD_XDICTIONARY
360
4FCA
102
}
102
{ACAD_REACTORS
330
4E07
102
}
330
4E07
100
AcDbVisualStyle
  2
Brighten
 70
    12
 71
     2
 72
     2
 73
     0
 90
        0
 40
-0.6
 41
-30.0
 62
     5
 63
     7
421
 16777215
 74
     1
 91
        4
 64
     7
 65
   257
 75
     1
175
     1
 42
1.0
 92
        8
 66
     7
 43
1.0
 76
     1
 77
     6
 78
     2
 67
     7
 79
     5
170
     0
171
     0
290
     0
174
     0
 93
        1
 44
50.0
173
     0
291
     1
 45
0.0
1001
ACAD
1000
AcDbSavedByObjectVersion
1070
     0
  0
VISUALSTYLE
  5
4E17
102
{ACAD_XDICTIONARY
360
4FD2
102
}
102
{ACAD_REACTORS
330
4E07
102
}
330
4E07
100
AcDbVisualStyle
  2
ColorChange
 70
    16
 71
     2
 72
     2
 73
     3
 90
        0
 40
-0.6
 41
-30.0
 62
     5
 63
     8
421
  8421504
 74
     1
 91
        4
 64
     7
 65
   257
 75
     1
175
     1
 42
1.0
 92
        8
 66
     8
424
  8421504
 43
1.0
 76
     1
 77
     6
 78
     2
 67
     7
 79
     5
170
     0
171
     0
290
     0
174
     0
 93
        1
 44
0.0
173
     0
291
     1
 45
0.0
1001
ACAD
1000
AcDbSavedByObjectVersion
1070
     0
  0
VISUALSTYLE
  5
4E10
102
{ACAD_XDICTIONARY
360
4FC4
102
}
102
{ACAD_REACTORS
330
4E07
102
}
330
4E07
100
AcDbVisualStyle
  2
Conceptual
 70
     9
 71
     3
 72
     2
 73
     0
 90
        0
 40
-0.6
 41
-30.0
 62
     5
 63
     7
421
 16777215
 74
     2
 91
        2
 64
     7
 65
   257
 75
     1
175
     1
 42
179.0
 92
        8
 66
     7
 43
1.0
 76
     1
 77
     6
 78
     2
 67
     7
 79
     3
170
     0
171
     0
290
     0
174
     0
 93
        1
 44
0.0
173
     0
291
     0
 45
0.0
1001
ACAD
1000
AcDbSavedByObjectVersion
1070
     0
  0
VISUALSTYLE
  5
4E12
102
{ACAD_XDICTIONARY
360
4FC8
102
}
102
{ACAD_REACTORS
330
4E07
102
}
330
4E07
100
AcDbVisualStyle
  2
Dim
 70
    11
 71
     2
 72
     2
 73
     0
 90
        0
 40
-0.6
 41
-30.0
 62
     5
 63
     7
421
 16777215
 74
     1
 91
        4
 64
     7
 65
   257
 75
     1
175
     1
 42
1.0
 92
        8
 66
     7
 43
1.0
 76
     1
 77
     6
 78
     2
 67
     7
 79
     5
170
     0
171
     0
290
     0
174
     0
 93
        1
 44
-50.0
173
     0
291
     1
 45
0.0
1001
ACAD
1000
AcDbSavedByObjectVersion
1070
     0
  0
VISUALSTYLE
  5
4E1F
102
{ACAD_XDICTIONARY
360
4FE2
102
}
102
{ACAD_REACTORS
330
4E07
102
}
330
4E07
100
AcDbVisualStyle
  2
EdgeColorOff
 70
    22
 71
     2
 72
     2
 73
     0
 90
        0
 40
-0.6
 41
-30.0
 62
     5
 63
     7
421
 16777215
 74
     1
 91
        4
 64
     7
 65
   257
 75
     1
175
     1
 42
1.0
 92
        8
 66
     7
 43
1.0
 76
     1
 77
     6
 78
     2
 67
     7
 79
     5
170
     0
171
     0
290
     0
174
     0
 93
        1
 44
0.0
173
     0
291
     1
 45
0.0
1001
ACAD
1000
AcDbSavedByObjectVersion
1070
     0
  0
VISUALSTYLE
  5
4E16
102
{ACAD_XDICTIONARY
360
4FD0
102
}
102
{ACAD_REACTORS
330
4E07
102
}
330
4E07
100
AcDbVisualStyle
  2
Facepattern
 70
    15
 71
     2
 72
     2
 73
     0
 90
        0
 40
-0.6
 41
-30.0
 62
     5
 63
     7
421
 16777215
 74
     1
 91
        4
 64
     7
 65
   257
 75
     1
175
     1
 42
1.0
 92
        8
 66
     7
 43
1.0
 76
     1
 77
     6
 78
     2
 67
     7
 79
     5
170
     0
171
     0
290
     0
174
     0
 93
        1
 44
0.0
173
     0
291
     1
 45
0.0
1001
ACAD
1000
AcDbSavedByObjectVersion
1070
     0
  0
VISUALSTYLE
  5
4E08
102
{ACAD_XDICTIONARY
360
4FB4
102
}
102
{ACAD_REACTORS
330
4E07
102
}
330
4E07
100
AcDbVisualStyle
  2
Flat
 70
     0
 71
     2
 72
     1
 73
     1
 90
        2
 40
-0.6
 41
30.0
 62
     5
 63
     7
421
 16777215
 74
     0
 91
        0
 64
     7
 65
   257
 75
     1
175
     1
 42
1.0
 92
        8
 66
     7
 43
1.0
 76
     1
 77
     6
 78
     2
 67
     7
 79
     5
170
     0
171
     0
290
     0
174
     0
 93
       13
 44
0.0
173
     0
291
     1
 45
0.0
1001
ACAD
1000
AcDbSavedByObjectVersion
1070
     0
  0
VISUALSTYLE
  5
4E09
102
{ACAD_XDICTIONARY
360
4FB6
102
}
102
{ACAD_REACTORS
330
4E07
102
}
330
4E07
100
AcDbVisualStyle
  2
FlatWithEdges
 70
     1
 71
     2
 72
     1
 73
     1
 90
        2
 40
-0.6
 41
30.0
 62
     5
 63
     7
421
 16777215
 74
     1
 91
        0
 64
     7
 65
   257
 75
     1
175
     1
 42
1.0
 92
        0
 66
   257
 43
1.0
 76
     1
 77
     6
 78
     2
 67
     7
 79
     5
170
     0
171
     0
290
     0
174
     0
 93
       13
 44
0.0
173
     0
291
     1
 45
0.0
1001
ACAD
1000
AcDbSavedByObjectVersion
1070
     0
  0
VISUALSTYLE
  5
4E0A
102
{ACAD_XDICTIONARY
360
4FB8
102
}
102
{ACAD_REACTORS
330
4E07
102
}
330
4E07
100
AcDbVisualStyle
  2
Gouraud
 70
     2
 71
     2
 72
     2
 73
     1
 90
        2
 40
-0.6
 41
30.0
 62
     5
 63
     7
421
 16777215
 74
     0
 91
        0
 64
     7
 65
   257
 75
     1
175
     1
 42
1.0
 92
        0
 66
     7
 43
1.0
 76
     1
 77
     6
 78
     2
 67
     7
 79
     5
170
     0
171
     0
290
     0
174
     0
 93
       13
 44
0.0
173
     0
291
     1
 45
0.0
1001
ACAD
1000
AcDbSavedByObjectVersion
1070
     0
  0
VISUALSTYLE
  5
4E0B
102
{ACAD_XDICTIONARY
360
4FBA
102
}
102
{ACAD_REACTORS
330
4E07
102
}
330
4E07
100
AcDbVisualStyle
  2
GouraudWithEdges
 70
     3
 71
     2
 72
     2
 73
     1
 90
        2
 40
-0.6
 41
30.0
 62
     5
 63
     7
421
 16777215
 74
     1
 91
        0
 64
     7
 65
   257
 75
     1
175
     1
 42
1.0
 92
        0
 66
   257
 43
1.0
 76
     1
 77
     6
 78
     2
 67
     7
 79
     5
170
     0
171
     0
290
     0
174
     0
 93
       13
 44
0.0
173
     0
291
     1
 45
0.0
1001
ACAD
1000
AcDbSavedByObjectVersion
1070
     0
  0
VISUALSTYLE
  5
4E0F
102
{ACAD_XDICTIONARY
360
4FC2
102
}
102
{ACAD_REACTORS
330
4E07
102
}
330
4E07
100
AcDbVisualStyle
  2
Hidden
 70
     6
 71
     1
 72
     2
 73
     2
 90
        0
 40
-0.6
 41
-30.0
 62
     5
 63
     7
421
 16777215
 74
     2
 91
        2
 64
     7
 65
   257
 75
     2
175
     1
 42
40.0
 92
        0
 66
   257
 43
1.0
 76
     1
 77
     6
 78
     2
 67
     7
 79
     3
170
     0
171
     0
290
     0
174
     0
 93
        1
 44
0.0
173
     0
291
     0
 45
0.0
1001
ACAD
1000
AcDbSavedByObjectVersion
1070
     0
  0
VISUALSTYLE
  5
4E1D
102
{ACAD_XDICTIONARY
360
4FDE
102
}
102
{ACAD_REACTORS
330
4E07
102
}
330
4E07
100
AcDbVisualStyle
  2
JitterOff
 70
    20
 71
     2
 72
     2
 73
     0
 90
        0
 40
-0.6
 41
-30.0
 62
     5
 63
     7
421
 16777215
 74
     1
 91
        4
 64
     7
 65
   257
 75
     1
175
     1
 42
1.0
 92
       10
 66
     7
 43
1.0
 76
     1
 77
     6
 78
     2
 67
     7
 79
     5
170
     0
171
     0
290
     0
174
     0
 93
        1
 44
0.0
173
     0
291
     1
 45
0.0
1001
ACAD
1000
AcDbSavedByObjectVersion
1070
     0
  0
VISUALSTYLE
  5
4E15
102
{ACAD_XDICTIONARY
360
4FCE
102
}
102
{ACAD_REACTORS
330
4E07
102
}
330
4E07
100
AcDbVisualStyle
  2
Linepattern
 70
    14
 71
     2
 72
     2
 73
     0
 90
        0
 40
-0.6
 41
-30.0
 62
     5
 63
     7
421
 16777215
 74
     1
 91
        4
 64
     7
 65
   257
 75
     7
175
     7
 42
1.0
 92
        8
 66
     7
 43
1.0
 76
     1
 77
     6
 78
     2
 67
     7
 79
     5
170
     0
171
     0
290
     0
174
     0
 93
        1
 44
0.0
173
     0
291
     1
 45
0.0
1001
ACAD
1000
AcDbSavedByObjectVersion
1070
     0
  0
VISUALSTYLE
  5
4E1E
102
{ACAD_XDICTIONARY
360
4FE0
102
}
102
{ACAD_REACTORS
330
4E07
102
}
330
4E07
100
AcDbVisualStyle
  2
OverhangOff
 70
    21
 71
     2
 72
     2
 73
     0
 90
        0
 40
-0.6
 41
-30.0
 62
     5
 63
     7
421
 16777215
 74
     1
 91
        4
 64
     7
 65
   257
 75
     1
175
     1
 42
1.0
 92
        9
 66
     7
 43
1.0
 76
     1
 77
     6
 78
     2
 67
     7
 79
     5
170
     0
171
     0
290
     0
174
     0
 93
        1
 44
0.0
173
     0
291
     1
 45
0.0
1001
ACAD
1000
AcDbSavedByObjectVersion
1070
     0
  0
VISUALSTYLE
  5
4E11
102
{ACAD_XDICTIONARY
360
4FC6
102
}
102
{ACAD_REACTORS
330
4E07
102
}
330
4E07
100
AcDbVisualStyle
  2
Realistic
 70
     8
 71
     2
 72
     3
 73
     0
 90
        2
 40
-0.6
 41
30.0
 62
     5
 63
     7
421
 16777215
 74
     0
 91
        0
 64
     7
 65
   257
 75
     1
175
     1
 42
1.0
 92
        8
 66
   257
 43
1.0
 76
     1
 77
     6
 78
     2
 67
     7
 79
     3
170
     0
171
     0
290
     0
174
     0
 93
       13
 44
0.0
173
     0
291
     0
 45
0.0
1001
ACAD
1000
AcDbSavedByObjectVersion
1070
     0
  0
VISUALSTYLE
  5
4E1C
102
{ACAD_XDICTIONARY
360
4FDC
102
}
102
{ACAD_REACTORS
330
4E07
102
}
330
4E07
100
AcDbVisualStyle
  2
Shaded
 70
    27
 71
     2
 72
     2
 73
     1
 90
        2
 40
-0.6
 41
30.0
 62
     5
 63
     7
421
 16777215
 74
     0
 91
        4
 64
     7
 65
   257
 75
     1
175
     1
 42
1.0
 92
        8
 66
   257
 43
1.0
 76
     1
 77
     6
 78
     2
 67
     8
425
  7895160
 79
     3
170
     0
171
     0
290
     0
174
     0
 93
        5
 44
0.0
173
     0
291
     0
 45
0.0
1001
ACAD
1000
AcDbSavedByObjectVersion
1070
     0
  0
VISUALSTYLE
  5
4E1B
102
{ACAD_XDICTIONARY
360
4FDA
102
}
102
{ACAD_REACTORS
330
4E07
102
}
330
4E07
100
AcDbVisualStyle
  2
Shaded with edges
 70
    26
 71
     2
 72
     2
 73
     1
 90
        2
 40
-0.6
 41
30.0
 62
     5
 63
     7
421
 16777215
 74
     1
 91
       10
 64
     7
 65
   257
 75
     2
175
     1
 42
1.0
 92
        8
 66
   257
 43
1.0
 76
     1
 77
     6
 78
     2
 67
     7
 79
     3
170
     0
171
     0
290
     0
174
     0
 93
        5
 44
0.0
173
     0
291
     0
 45
0.0
1001
ACAD
1000
AcDbSavedByObjectVersion
1070
     0
  0
VISUALSTYLE
  5
4E18
102
{ACAD_XDICTIONARY
360
4FD4
102
}
102
{ACAD_REACTORS
330
4E07
102
}
330
4E07
100
AcDbVisualStyle
  2
Shades of Gray
 70
    23
 71
     2
 72
     2
 73
     3
 90
        0
 40
-0.6
 41
-30.0
 62
     5
 63
     7
421
 16777215
 74
     2
 91
        2
 64
     7
 65
     7
 75
     1
175
     1
 42
40.0
 92
        8
 66
     7
 43
1.0
 76
     1
 77
     6
 78
     2
 67
     7
 79
     3
170
     0
171
     0
290
     0
174
     0
 93
        1
 44
0.0
173
     0
291
     0
 45
0.0
1001
ACAD
1000
AcDbSavedByObjectVersion
1070
     0
  0
VISUALSTYLE
  5
4E19
102
{ACAD_XDICTIONARY
360
4FD6
102
}
102
{ACAD_REACTORS
330
4E07
102
}
330
4E07
100
AcDbVisualStyle
  2
Sketchy
 70
    24
 71
     1
 72
     2
 73
     2
 90
        0
 40
-0.6
 41
-30.0
 62
     5
 63
     7
421
 16777215
 74
     2
 91
        2
 64
     7
 65
     7
 75
     1
175
     1
 42
40.0
 92
       11
 66
     7
 43
1.0
 76
     1
 77
     6
 78
     2
 67
     7
 79
     6
170
     0
171
     0
290
     0
174
     0
 93
        1
 44
0.0
173
     0
291
     0
 45
0.0
1001
ACAD
1000
AcDbSavedByObjectVersion
1070
     0
  0
VISUALSTYLE
  5
4E14
102
{ACAD_XDICTIONARY
360
4FCC
102
}
102
{ACAD_REACTORS
330
4E07
102
}
330
4E07
100
AcDbVisualStyle
  2
Thicken
 70
    13
 71
     2
 72
     2
 73
     0
 90
        0
 40
-0.6
 41
-30.0
 62
     5
 63
     7
421
 16777215
 74
     1
 91
        4
 64
     7
 65
   257
 75
     1
175
     1
 42
1.0
 92
       12
 66
     7
 43
1.0
 76
     1
 77
     6
 78
     2
 67
     7
 79
     5
170
     0
171
     0
290
     0
174
     0
 93
        1
 44
0.0
173
     0
291
     1
 45
0.0
1001
ACAD
1000
AcDbSavedByObjectVersion
1070
     0
  0
VISUALSTYLE
  5
4E0E
102
{ACAD_XDICTIONARY
360
4FC0
102
}
102
{ACAD_REACTORS
330
4E07
102
}
330
4E07
100
AcDbVisualStyle
  2
Wireframe
 70
     5
 71
     0
 72
     2
 73
     0
 90
        0
 40
-0.6
 41
-30.0
 62
     5
 63
     7
421
 16777215
 74
     1
 91
        4
 64
     7
 65
   257
 75
     1
175
     1
 42
1.0
 92
        0
 66
   257
 43
1.0
 76
     1
 77
     6
 78
     2
 67
     7
 79
     3
170
     0
171
     0
290
     0
174
     0
 93
        1
 44
0.0
173
     0
291
     0
 45
0.0
1001
ACAD
1000
AcDbSavedByObjectVersion
1070
     0
  0
VISUALSTYLE
  5
4E1A
102
{ACAD_XDICTIONARY
360
4FD8
102
}
102
{ACAD_REACTORS
330
4E07
102
}
330
4E07
100
AcDbVisualStyle
  2
X-Ray
 70
    25
 71
     2
 72
     2
 73
     1
 90
        1
 40
0.5
 41
-30.0
 62
     5
 63
     7
421
 16777215
 74
     1
 91
        0
 64
     7
 65
   257
 75
     1
175
     1
 42
1.0
 92
        8
 66
     7
 43
1.0
 76
     1
 77
     6
 78
     2
 67
     7
 79
     3
170
     0
171
     0
290
     0
174
     0
 93
       13
 44
0.0
173
     0
291
     0
 45
0.0
1001
ACAD
1000
AcDbSavedByObjectVersion
1070
     0
  0
DICTIONARYVAR
  5
4F34
102
{ACAD_REACTORS
330
7F0
102
}
330
7F0
100
DictionaryVariables
280
     0
  1
1:1
  0
DICTIONARYVAR
  5
4F30
102
{ACAD_REACTORS
330
7F0
102
}
330
7F0
100
DictionaryVariables
280
     0
  1
STANDARD
  0
DICTIONARYVAR
  5
4F2F
102
{ACAD_REACTORS
330
7F0
102
}
330
7F0
100
DictionaryVariables
280
     0
  1
STANDARD
  0
DICTIONARYVAR
  5
4F31
102
{ACAD_REACTORS
330
7F0
102
}
330
7F0
100
DictionaryVariables
280
     0
  1
Imperial24
  0
DICTIONARYVAR
  5
4F32
102
{ACAD_REACTORS
330
7F0
102
}
330
7F0
100
DictionaryVariables
280
     0
  1
Imperial24
  0
DICTIONARYVAR
  5
28D2
102
{ACAD_REACTORS
330
7F0
102
}
330
7F0
100
DictionaryVariables
280
     0
  1
1
  0
DICTIONARYVAR
  5
4F36
102
{ACAD_REACTORS
330
7F0
102
}
330
7F0
100
DictionaryVariables
280
     0
  1
1
  0
DICTIONARYVAR
  5
4F37
102
{ACAD_REACTORS
330
7F0
102
}
330
7F0
100
DictionaryVariables
280
     0
  1
15
  0
DICTIONARYVAR
  5
4F35
102
{ACAD_REACTORS
330
7F0
102
}
330
7F0
100
DictionaryVariables
280
     0
  1
0
  0
DICTIONARYVAR
  5
4F33
102
{ACAD_REACTORS
330
7F0
102
}
330
7F0
100
DictionaryVariables
280
     0
  1
0
  0
DICTIONARYVAR
  5
7F1
102
{ACAD_REACTORS
330
7F0
102
}
330
7F0
100
DictionaryVariables
280
     0
  1
96
  0
DICTIONARYVAR
  5
4FA2
102
{ACAD_REACTORS
330
7F0
102
}
330
7F0
100
DictionaryVariables
280
     0
  1
2
  0
DICTIONARY
  5
4FAF
102
{ACAD_REACTORS
330
4FAD
102
}
330
4FAD
100
AcDbDictionary
281
     1
  0
DICTIONARY
  5
4FAE
102
{ACAD_REACTORS
330
4FAD
102
}
330
4FAD
100
AcDbDictionary
281
     1
  3
140695673532032
350
4FA8
  3
140695673532048
350
4FA9
  3
140695673532064
350
4FAA
  3
140695673532080
350
4FAB
  3
140695673532096
350
4FAC
  0
XRECORD
  5
2DEF
102
{ACAD_REACTORS
330
2DED
102
}
330
2DED
100
AcDbXrecord
280
     1
330
1AFB
330
0
330
1BBA
330
298C
330
0
330
0
330
0
330
0
330
0
  0
DICTIONARY
  5
4DF8
330
4DF7
100
AcDbDictionary
280
     1
281
     1
  3
ACAD_XREC_ROUNDTRIP
360
4FB2
  3
BUMPTILE
360
4DFA
  3
DIFFUSETILE
360
4DF9
  3
OPACITYTILE
360
4DFD
  3
REFLECTIONTILE
360
4DFC
  3
REFRACTIONTILE
360
4DFE
  3
SPECULARTILE
360
4DFB
  0
DICTIONARY
  5
4DF0
330
4DEF
100
AcDbDictionary
280
     1
281
     1
  3
ACAD_XREC_ROUNDTRIP
360
4FB1
  3
BUMPTILE
360
4DF2
  3
DIFFUSETILE
360
4DF1
  3
OPACITYTILE
360
4DF5
  3
REFLECTIONTILE
360
4DF4
  3
REFRACTIONTILE
360
4DF6
  3
SPECULARTILE
360
4DF3
  0
DICTIONARY
  5
4E00
330
4DFF
100
AcDbDictionary
280
     1
281
     1
  3
ACAD_XREC_ROUNDTRIP
360
4FB3
  3
BUMPTILE
360
4E02
  3
DIFFUSETILE
360
4E01
  3
OPACITYTILE
360
4E05
  3
REFLECTIONTILE
360
4E04
  3
REFRACTIONTILE
360
4E06
  3
SPECULARTILE
360
4E03
  0
DICTIONARY
  5
4FE6
330
4E36
100
AcDbDictionary
280
     1
281
     1
  3
ACAD_XREC_ROUNDTRIP
360
4FE7
  0
DICTIONARY
  5
4FA4
330
4E22
100
AcDbDictionary
280
     1
281
     1
  3
ACAD_ROUNDTRIP_2008_TABLESTYLE_CELLSTYLEMAP
360
4FA5
  3
ACAD_XREC_ROUNDTRIP
360
4FE4
  0
DICTIONARY
  5
4FBE
330
4E0D
100
AcDbDictionary
280
     1
281
     1
  3
ACAD_XREC_ROUNDTRIP
360
4FBF
  0
DICTIONARY
  5
4FBC
330
4E0C
100
AcDbDictionary
280
     1
281
     1
  3
ACAD_XREC_ROUNDTRIP
360
4FBD
  0
DICTIONARY
  5
4FCA
330
4E13
100
AcDbDictionary
280
     1
281
     1
  3
ACAD_XREC_ROUNDTRIP
360
4FCB
  0
DICTIONARY
  5
4FD2
330
4E17
100
AcDbDictionary
280
     1
281
     1
  3
ACAD_XREC_ROUNDTRIP
360
4FD3
  0
DICTIONARY
  5
4FC4
330
4E10
100
AcDbDictionary
280
     1
281
     1
  3
ACAD_XREC_ROUNDTRIP
360
4FC5
  0
DICTIONARY
  5
4FC8
330
4E12
100
AcDbDictionary
280
     1
281
     1
  3
ACAD_XREC_ROUNDTRIP
360
4FC9
  0
DICTIONARY
  5
4FE2
330
4E1F
100
AcDbDictionary
280
     1
281
     1
  3
ACAD_XREC_ROUNDTRIP
360
4FE3
  0
DICTIONARY
  5
4FD0
330
4E16
100
AcDbDictionary
280
     1
281
     1
  3
ACAD_XREC_ROUNDTRIP
360
4FD1
  0
DICTIONARY
  5
4FB4
330
4E08
100
AcDbDictionary
280
     1
281
     1
  3
ACAD_XREC_ROUNDTRIP
360
4FB5
  0
DICTIONARY
  5
4FB6
330
4E09
100
AcDbDictionary
280
     1
281
     1
  3
ACAD_XREC_ROUNDTRIP
360
4FB7
  0
DICTIONARY
  5
4FB8
330
4E0A
100
AcDbDictionary
280
     1
281
     1
  3
ACAD_XREC_ROUNDTRIP
360
4FB9
  0
DICTIONARY
  5
4FBA
330
4E0B
100
AcDbDictionary
280
     1
281
     1
  3
ACAD_XREC_ROUNDTRIP
360
4FBB
  0
DICTIONARY
  5
4FC2
330
4E0F
100
AcDbDictionary
280
     1
281
     1
  3
ACAD_XREC_ROUNDTRIP
360
4FC3
  0
DICTIONARY
  5
4FDE
330
4E1D
100
AcDbDictionary
280
     1
281
     1
  3
ACAD_XREC_ROUNDTRIP
360
4FDF
  0
DICTIONARY
  5
4FCE
330
4E15
100
AcDbDictionary
280
     1
281
     1
  3
ACAD_XREC_ROUNDTRIP
360
4FCF
  0
DICTIONARY
  5
4FE0
330
4E1E
100
AcDbDictionary
280
     1
281
     1
  3
ACAD_XREC_ROUNDTRIP
360
4FE1
  0
DICTIONARY
  5
4FC6
330
4E11
100
AcDbDictionary
280
     1
281
     1
  3
ACAD_XREC_ROUNDTRIP
360
4FC7
  0
DICTIONARY
  5
4FDC
330
4E1C
100
AcDbDictionary
280
     1
281
     1
  3
ACAD_XREC_ROUNDTRIP
360
4FDD
  0
DICTIONARY
  5
4FDA
330
4E1B
100
AcDbDictionary
280
     1
281
     1
  3
ACAD_XREC_ROUNDTRIP
360
4FDB
  0
DICTIONARY
  5
4FD4
330
4E18
100
AcDbDictionary
280
     1
281
     1
  3
ACAD_XREC_ROUNDTRIP
360
4FD5
  0
DICTIONARY
  5
4FD6
330
4E19
100
AcDbDictionary
280
     1
281
     1
  3
ACAD_XREC_ROUNDTRIP
360
4FD7
  0
DICTIONARY
  5
4FCC
330
4E14
100
AcDbDictionary
280
     1
281
     1
  3
ACAD_XREC_ROUNDTRIP
360
4FCD
  0
DICTIONARY
  5
4FC0
330
4E0E
100
AcDbDictionary
280
     1
281
     1
  3
ACAD_XREC_ROUNDTRIP
360
4FC1
  0
DICTIONARY
  5
4FD8
330
4E1A
100
AcDbDictionary
280
     1
281
     1
  3
ACAD_XREC_ROUNDTRIP
360
4FD9
  0
XRECORD
  5
4FA8
102
{ACAD_REACTORS
330
4FAE
102
}
330
4FAE
100
AcDbXrecord
280
     1
  1
AcDb_Thumbnail_Schema
102
{ATTRRECORD
341
4FA9
  2
AcDbDs::TreatedAsObjectData
280
     1
291
     1
102
ATTRRECORD}
102
{ATTRRECORD
341
4FAA
  2
AcDbDs::Legacy
280
     1
291
     1
102
ATTRRECORD}
  2
AcDbDs::ID
280
    10
 91
        8
102
{ATTRRECORD
341
4FAB
  2
AcDs:Indexable
280
     1
291
     1
102
ATTRRECORD}
102
{ATTRRECORD
341
4FAC
  2
AcDbDs::HandleAttribute
280
     7
282
     1
102
ATTRRECORD}
  2
Thumbnail_Data
280
    15
 91
        0
  0
XRECORD
  5
4FA9
102
{ACAD_REACTORS
330
4FAE
102
}
330
4FAE
100
AcDbXrecord
280
     1
  1
AcDbDs::TreatedAsObjectDataSchema
  2
AcDbDs::TreatedAsObjectData
280
     1
 91
        0
  0
XRECORD
  5
4FAA
102
{ACAD_REACTORS
330
4FAE
102
}
330
4FAE
100
AcDbXrecord
280
     1
  1
AcDbDs::LegacySchema
  2
AcDbDs::Legacy
280
     1
 91
        0
  0
XRECORD
  5
4FAB
102
{ACAD_REACTORS
330
4FAE
102
}
330
4FAE
100
AcDbXrecord
280
     1
  1
AcDbDs::IndexedPropertySchema
  2
AcDs:Indexable
280
     1
 91
        0
  0
XRECORD
  5
4FAC
102
{ACAD_REACTORS
330
4FAE
102
}
330
4FAE
100
AcDbXrecord
280
     1
  1
AcDbDs::HandleAttributeSchema
  2
AcDbDs::HandleAttribute
280
     7
 91
        1
284
     1
  0
XRECORD
  5
4FB2
102
{ACAD_REACTORS
330
4DF8
102
}
330
4DF8
100
AcDbXrecord
280
     1
102
MATERIAL
148
0.0
149
0.0
149
0.0
 93
        0
 94
      127
282
     0
 72
     0
 77
     0
171
     0
175
     0
179
     0
273
     0
  0
XRECORD
  5
4DFA
102
{ACAD_REACTORS
330
4DF8
102
}
330
4DF8
100
AcDbXrecord
280
     1
270
     1
271
     1
  0
XRECORD
  5
4DF9
102
{ACAD_REACTORS
330
4DF8
102
}
330
4DF8
100
AcDbXrecord
280
     1
270
     1
271
     1
  0
XRECORD
  5
4DFD
102
{ACAD_REACTORS
330
4DF8
102
}
330
4DF8
100
AcDbXrecord
280
     1
270
     1
271
     1
  0
XRECORD
  5
4DFC
102
{ACAD_REACTORS
330
4DF8
102
}
330
4DF8
100
AcDbXrecord
280
     1
270
     1
271
     1
  0
XRECORD
  5
4DFE
102
{ACAD_REACTORS
330
4DF8
102
}
330
4DF8
100
AcDbXrecord
280
     1
270
     1
271
     1
  0
XRECORD
  5
4DFB
102
{ACAD_REACTORS
330
4DF8
102
}
330
4DF8
100
AcDbXrecord
280
     1
270
     1
271
     1
  0
XRECORD
  5
4FB1
102
{ACAD_REACTORS
330
4DF0
102
}
330
4DF0
100
AcDbXrecord
280
     1
102
MATERIAL
148
0.0
149
0.0
149
0.0
 93
        0
 94
      127
282
     0
 72
     0
 77
     0
171
     0
175
     0
179
     0
273
     0
  0
XRECORD
  5
4DF2
102
{ACAD_REACTORS
330
4DF0
102
}
330
4DF0
100
AcDbXrecord
280
     1
270
     1
271
     1
  0
XRECORD
  5
4DF1
102
{ACAD_REACTORS
330
4DF0
102
}
330
4DF0
100
AcDbXrecord
280
     1
270
     1
271
     1
  0
XRECORD
  5
4DF5
102
{ACAD_REACTORS
330
4DF0
102
}
330
4DF0
100
AcDbXrecord
280
     1
270
     1
271
     1
  0
XRECORD
  5
4DF4
102
{ACAD_REACTORS
330
4DF0
102
}
330
4DF0
100
AcDbXrecord
280
     1
270
     1
271
     1
  0
XRECORD
  5
4DF6
102
{ACAD_REACTORS
330
4DF0
102
}
330
4DF0
100
AcDbXrecord
280
     1
270
     1
271
     1
  0
XRECORD
  5
4DF3
102
{ACAD_REACTORS
330
4DF0
102
}
330
4DF0
100
AcDbXrecord
280
     1
270
     1
271
     1
  0
XRECORD
  5
4FB3
102
{ACAD_REACTORS
330
4E00
102
}
330
4E00
100
AcDbXrecord
280
     1
102
MATERIAL
148
0.0
149
0.0
149
0.0
 93
        0
 94
      127
282
     0
 72
     0
 77
     0
171
     0
175
     0
179
     0
273
     0
  0
XRECORD
  5
4E02
102
{ACAD_REACTORS
330
4E00
102
}
330
4E00
100
AcDbXrecord
280
     1
270
     1
271
     1
  0
XRECORD
  5
4E01
102
{ACAD_REACTORS
330
4E00
102
}
330
4E00
100
AcDbXrecord
280
     1
270
     1
271
     1
  0
XRECORD
  5
4E05
102
{ACAD_REACTORS
330
4E00
102
}
330
4E00
100
AcDbXrecord
280
     1
270
     1
271
     1
  0
XRECORD
  5
4E04
102
{ACAD_REACTORS
330
4E00
102
}
330
4E00
100
AcDbXrecord
280
     1
270
     1
271
     1
  0
XRECORD
  5
4E06
102
{ACAD_REACTORS
330
4E00
102
}
330
4E00
100
AcDbXrecord
280
     1
270
     1
271
     1
  0
XRECORD
  5
4E03
102
{ACAD_REACTORS
330
4E00
102
}
330
4E00
100
AcDbXrecord
280
     1
270
     1
271
     1
  0
XRECORD
  5
4FE7
102
{ACAD_REACTORS
330
4FE6
102
}
330
4FE6
100
AcDbXrecord
280
     1
102
ACAD_ROUNDTRIP_2012_MLEADER_STYLE
298
     1
  0
CELLSTYLEMAP
  5
4FA5
102
{ACAD_REACTORS
330
4FA4
102
}
330
4FA4
100
AcDbCellStyleMap
 90
        3
300
CELLSTYLE
  1
TABLEFORMAT_BEGIN
 90
        5
170
     1
 91
        0
 92
    32768
 62
   257
 93
        1
300
CONTENTFORMAT
  1
CONTENTFORMAT_BEGIN
 90
        0
 91
        0
 92
      512
 93
        0
300

 40
0.0
140
1.0
 94
        5
 62
     0
340
F
144
0.25
309
CONTENTFORMAT_END
171
     0
 94
        0
309
TABLEFORMAT_END
  1
CELLSTYLE_BEGIN
 90
        1
 91
        1
300
_TITLE
309
CELLSTYLE_END
300
CELLSTYLE
  1
TABLEFORMAT_BEGIN
 90
        5
170
     1
 91
        0
 92
        0
 62
   257
 93
        1
300
CONTENTFORMAT
  1
CONTENTFORMAT_BEGIN
 90
        0
 91
        0
 92
      512
 93
        0
300

 40
0.0
140
1.0
 94
        5
 62
     0
340
F
144
0.18
309
CONTENTFORMAT_END
171
     0
 94
        0
309
TABLEFORMAT_END
  1
CELLSTYLE_BEGIN
 90
        2
 91
        1
300
_HEADER
309
CELLSTYLE_END
300
CELLSTYLE
  1
TABLEFORMAT_BEGIN
 90
        5
170
     1
 91
        0
 92
        0
 62
   257
 93
        1
300
CONTENTFORMAT
  1
CONTENTFORMAT_BEGIN
 90
        0
 91
        0
 92
      512
 93
        0
300

 40
0.0
140
1.0
 94
        2
 62
     0
340
F
144
0.18
309
CONTENTFORMAT_END
171
     0
 94
        0
309
TABLEFORMAT_END
  1
CELLSTYLE_BEGIN
 90
        3
 91
        2
300
_DATA
309
CELLSTYLE_END
  0
XRECORD
  5
4FE4
102
{ACAD_REACTORS
330
4FA4
102
}
330
4FA4
100
AcDbXrecord
280
     1
102
ACAD_ROUNDTRIP_PRE2007_TABLESTYLE
 90
      512
 91
        0
  1

 92
      512
 93
        0
  2

 94
      512
 95
        0
  3

  0
XRECORD
  5
4FBF
102
{ACAD_REACTORS
330
4FBE
102
}
330
4FBE
100
AcDbXrecord
280
     1
102
RTVSPost2010Prop28
280
     1
102
RTVSPost2010PropOp28
 70
     1
102
RTVSPost2010Prop29
280
     1
102
RTVSPost2010PropOp29
 70
     1
102
RTVSPost2010Prop30
280
     0
102
RTVSPost2010PropOp30
 70
     1
102
RTVSPost2010Prop31
280
     0
102
RTVSPost2010PropOp31
 70
     1
102
RTVSPost2010Prop32
280
     0
102
RTVSPost2010PropOp32
 70
     1
102
RTVSPost2010Prop33
280
     0
102
RTVSPost2010PropOp33
 70
     1
102
RTVSPost2010Prop34
280
     0
102
RTVSPost2010PropOp34
 70
     1
102
RTVSPost2010Prop35
280
     0
102
RTVSPost2010PropOp35
 70
     1
102
RTVSPost2010Prop36
280
     0
102
RTVSPost2010PropOp36
 70
     1
102
RTVSPost2010Prop37
 90
       50
102
RTVSPost2010PropOp37
 70
     1
102
RTVSPost2010Prop38
140
0.0
102
RTVSPost2010PropOp38
 70
     1
102
RTVSPost2010Prop39
140
1.0
102
RTVSPost2010PropOp39
 70
     1
102
RTVSPost2010Prop40
 90
        0
102
RTVSPost2010PropOp40
 70
     1
102
RTVSPost2010Prop41ColorIndex
 90
       18
102
RTVSPost2010Prop41ColorRGB
 90
        0
102
RTVSPost2010PropOp41
 70
     1
102
RTVSPost2010Prop42
 90
       50
102
RTVSPost2010PropOp42
 70
     1
102
RTVSPost2010Prop43
 90
        3
102
RTVSPost2010PropOp43
 70
     1
102
RTVSPost2010Prop44ColorIndex
 90
        5
102
RTVSPost2010Prop44ColorRGB
 90
      255
102
RTVSPost2010PropOp44
 70
     1
102
RTVSPost2010Prop45
280
     0
102
RTVSPost2010PropOp45
 70
     1
102
RTVSPost2010Prop46
 90
       50
102
RTVSPost2010PropOp46
 70
     1
102
RTVSPost2010Prop47
 90
       50
102
RTVSPost2010PropOp47
 70
     1
102
RTVSPost2010Prop48
 90
       50
102
RTVSPost2010PropOp48
 70
     1
102
RTVSPost2010Prop49
280
     0
102
RTVSPost2010PropOp49
 70
     1
102
RTVSPost2010Prop50
 90
       50
102
RTVSPost2010PropOp50
 70
     1
102
RTVSPost2010Prop51ColorIndex
 90
      256
102
RTVSPost2010Prop51ColorRGB
 90
-16777216
102
RTVSPost2010PropOp51
 70
     0
102
RTVSPost2010Prop52
140
1.0
102
RTVSPost2010PropOp52
 70
     0
102
RTVSPost2010Prop53
 90
        2
102
RTVSPost2010PropOp53
 70
     1
102
RTVSPost2010Prop54
  1
strokes_ogs.tif
102
RTVSPost2010PropOp54
 70
     1
102
RTVSPost2010Prop55
280
     0
102
RTVSPost2010PropOp55
 70
     1
102
RTVSPost2010Prop56
140
1.0
102
RTVSPost2010PropOp56
 70
     1
102
RTVSPost2010Prop57
140
1.0
102
RTVSPost2010PropOp57
 70
     1
102
RTVSPropertyOp0
 70
     1
102
RTVSPropertyOp1
 70
     1
102
RTVSPropertyOp2
 70
     1
102
RTVSPropertyOp3
 70
     1
102
RTVSPropertyOp4
 70
     1
102
RTVSPropertyOp5
 70
     1
102
RTVSPropertyOp6
 70
     1
102
RTVSPropertyOp7
 70
     1
102
RTVSPropertyOp8
 70
     1
102
RTVSPropertyOp9
 70
     1
102
RTVSPropertyOp10
 70
     1
102
RTVSPropertyOp11
 70
     1
102
RTVSPropertyOp12
 70
     1
102
RTVSPropertyOp13
 70
     1
102
RTVSPropertyOp14
 70
     1
102
RTVSPropertyOp15
 70
     1
102
RTVSPropertyOp16
 70
     1
102
RTVSPropertyOp17
 70
     1
102
RTVSPropertyOp18
 70
     1
102
RTVSPropertyOp19
 70
     1
102
RTVSPropertyOp20
 70
     1
102
RTVSPropertyOp21
 70
     1
102
RTVSPropertyOp22
 70
     1
102
RTVSPropertyOp23
 70
     1
102
RTVSPropertyOp24
 70
     1
102
RTVSPropertyOp25
 70
     1
102
RTVSPropertyOp26
 70
     1
102
RTVSPropertyOp27
 70
     1
102
RTVSPropertyOp28
 70
     1
102
RTVSPropertyOp29
 70
     1
102
RTVSPropertyOp30
 70
     1
102
RTVSPropertyOp31
 70
     1
102
RTVSPropertyOp32
 70
     1
102
RTVSPropertyOp33
 70
     1
102
RTVSPropertyOp34
 70
     1
102
RTVSPropertyOp35
 70
     1
102
RTVSPropertyOp36
 70
     1
102
RTVSPropertyOp37
 70
     1
102
RTVSPropertyOp38
 70
     1
102
RTVSPropertyOp39
 70
     1
102
RTVSPropertyOp40
 70
     1
102
RTVSPropertyOp41
 70
     1
102
RTVSPropertyOp42
 70
     1
102
RTVSPropertyOp43
 70
     1
102
RTVSPropertyOp44
 70
     1
102
RTVSPropertyOp45
 70
     1
102
RTVSPropertyOp46
 70
     1
102
RTVSPropertyOp47
 70
     1
102
RTVSPropertyOp48
 70
     1
102
RTVSPropertyOp49
 70
     1
102
RTVSPropertyOp50
 70
     1
102
RTVSPropertyOp51
 70
     0
102
RTVSPropertyOp52
 70
     0
102
RTVSPropertyOp53
 70
     1
102
RTVSPropertyOp54
 70
     1
102
RTVSPropertyOp55
 70
     1
102
RTVSPropertyOp56
 70
     1
102
RTVSPropertyOp57
 70
     1
102
RTVSPropertyOp58
 70
     1
102
RTVSPropertyOp59
 70
     1
102
RTVSPropertyOp60
 70
     1
102
RTVSPropertyOp61
 70
     1
102
RTVSPropertyOp62
 70
     1
  0
XRECORD
  5
4FBD
102
{ACAD_REACTORS
330
4FBC
102
}
330
4FBC
100
AcDbXrecord
280
     1
102
RTVSPost2010Prop28
280
     0
102
RTVSPost2010PropOp28
 70
     1
102
RTVSPost2010Prop29
280
     1
102
RTVSPost2010PropOp29
 70
     1
102
RTVSPost2010Prop30
280
     1
102
RTVSPost2010PropOp30
 70
     1
102
RTVSPost2010Prop31
280
     0
102
RTVSPost2010PropOp31
 70
     1
102
RTVSPost2010Prop32
280
     0
102
RTVSPost2010PropOp32
 70
     1
102
RTVSPost2010Prop33
280
     0
102
RTVSPost2010PropOp33
 70
     1
102
RTVSPost2010Prop34
280
     0
102
RTVSPost2010PropOp34
 70
     1
102
RTVSPost2010Prop35
280
     0
102
RTVSPost2010PropOp35
 70
     1
102
RTVSPost2010Prop36
280
     0
102
RTVSPost2010PropOp36
 70
     1
102
RTVSPost2010Prop37
 90
       50
102
RTVSPost2010PropOp37
 70
     1
102
RTVSPost2010Prop38
140
0.0
102
RTVSPost2010PropOp38
 70
     1
102
RTVSPost2010Prop39
140
1.0
102
RTVSPost2010PropOp39
 70
     1
102
RTVSPost2010Prop40
 90
        0
102
RTVSPost2010PropOp40
 70
     1
102
RTVSPost2010Prop41ColorIndex
 90
       18
102
RTVSPost2010Prop41ColorRGB
 90
        0
102
RTVSPost2010PropOp41
 70
     1
102
RTVSPost2010Prop42
 90
       50
102
RTVSPost2010PropOp42
 70
     1
102
RTVSPost2010Prop43
 90
        3
102
RTVSPost2010PropOp43
 70
     1
102
RTVSPost2010Prop44ColorIndex
 90
        5
102
RTVSPost2010Prop44ColorRGB
 90
      255
102
RTVSPost2010PropOp44
 70
     1
102
RTVSPost2010Prop45
280
     0
102
RTVSPost2010PropOp45
 70
     1
102
RTVSPost2010Prop46
 90
       50
102
RTVSPost2010PropOp46
 70
     1
102
RTVSPost2010Prop47
 90
       50
102
RTVSPost2010PropOp47
 70
     1
102
RTVSPost2010Prop48
 90
       50
102
RTVSPost2010PropOp48
 70
     1
102
RTVSPost2010Prop49
280
     0
102
RTVSPost2010PropOp49
 70
     1
102
RTVSPost2010Prop50
 90
       50
102
RTVSPost2010PropOp50
 70
     1
102
RTVSPost2010Prop51ColorIndex
 90
      256
102
RTVSPost2010Prop51ColorRGB
 90
-16777216
102
RTVSPost2010PropOp51
 70
     0
102
RTVSPost2010Prop52
140
1.0
102
RTVSPost2010PropOp52
 70
     0
102
RTVSPost2010Prop53
 90
        2
102
RTVSPost2010PropOp53
 70
     1
102
RTVSPost2010Prop54
  1
strokes_ogs.tif
102
RTVSPost2010PropOp54
 70
     1
102
RTVSPost2010Prop55
280
     0
102
RTVSPost2010PropOp55
 70
     1
102
RTVSPost2010Prop56
140
1.0
102
RTVSPost2010PropOp56
 70
     1
102
RTVSPost2010Prop57
140
1.0
102
RTVSPost2010PropOp57
 70
     1
102
RTVSPropertyOp0
 70
     1
102
RTVSPropertyOp1
 70
     1
102
RTVSPropertyOp2
 70
     1
102
RTVSPropertyOp3
 70
     1
102
RTVSPropertyOp4
 70
     1
102
RTVSPropertyOp5
 70
     1
102
RTVSPropertyOp6
 70
     1
102
RTVSPropertyOp7
 70
     1
102
RTVSPropertyOp8
 70
     1
102
RTVSPropertyOp9
 70
     1
102
RTVSPropertyOp10
 70
     1
102
RTVSPropertyOp11
 70
     1
102
RTVSPropertyOp12
 70
     1
102
RTVSPropertyOp13
 70
     1
102
RTVSPropertyOp14
 70
     1
102
RTVSPropertyOp15
 70
     1
102
RTVSPropertyOp16
 70
     1
102
RTVSPropertyOp17
 70
     1
102
RTVSPropertyOp18
 70
     1
102
RTVSPropertyOp19
 70
     1
102
RTVSPropertyOp20
 70
     1
102
RTVSPropertyOp21
 70
     1
102
RTVSPropertyOp22
 70
     1
102
RTVSPropertyOp23
 70
     1
102
RTVSPropertyOp24
 70
     1
102
RTVSPropertyOp25
 70
     1
102
RTVSPropertyOp26
 70
     1
102
RTVSPropertyOp27
 70
     1
102
RTVSPropertyOp28
 70
     1
102
RTVSPropertyOp29
 70
     1
102
RTVSPropertyOp30
 70
     1
102
RTVSPropertyOp31
 70
     1
102
RTVSPropertyOp32
 70
     1
102
RTVSPropertyOp33
 70
     1
102
RTVSPropertyOp34
 70
     1
102
RTVSPropertyOp35
 70
     1
102
RTVSPropertyOp36
 70
     1
102
RTVSPropertyOp37
 70
     1
102
RTVSPropertyOp38
 70
     1
102
RTVSPropertyOp39
 70
     1
102
RTVSPropertyOp40
 70
     1
102
RTVSPropertyOp41
 70
     1
102
RTVSPropertyOp42
 70
     1
102
RTVSPropertyOp43
 70
     1
102
RTVSPropertyOp44
 70
     1
102
RTVSPropertyOp45
 70
     1
102
RTVSPropertyOp46
 70
     1
102
RTVSPropertyOp47
 70
     1
102
RTVSPropertyOp48
 70
     1
102
RTVSPropertyOp49
 70
     1
102
RTVSPropertyOp50
 70
     1
102
RTVSPropertyOp51
 70
     0
102
RTVSPropertyOp52
 70
     0
102
RTVSPropertyOp53
 70
     1
102
RTVSPropertyOp54
 70
     1
102
RTVSPropertyOp55
 70
     1
102
RTVSPropertyOp56
 70
     1
102
RTVSPropertyOp57
 70
     1
102
RTVSPropertyOp58
 70
     1
102
RTVSPropertyOp59
 70
     1
102
RTVSPropertyOp60
 70
     1
102
RTVSPropertyOp61
 70
     1
102
RTVSPropertyOp62
 70
     1
  0
XRECORD
  5
4FCB
102
{ACAD_REACTORS
330
4FCA
102
}
330
4FCA
100
AcDbXrecord
280
     1
102
RTVSPost2010Prop28
280
     0
102
RTVSPost2010PropOp28
 70
     1
102
RTVSPost2010Prop29
280
     1
102
RTVSPost2010PropOp29
 70
     1
102
RTVSPost2010Prop30
280
     1
102
RTVSPost2010PropOp30
 70
     1
102
RTVSPost2010Prop31
280
     0
102
RTVSPost2010PropOp31
 70
     1
102
RTVSPost2010Prop32
280
     0
102
RTVSPost2010PropOp32
 70
     1
102
RTVSPost2010Prop33
280
     0
102
RTVSPost2010PropOp33
 70
     1
102
RTVSPost2010Prop34
280
     0
102
RTVSPost2010PropOp34
 70
     1
102
RTVSPost2010Prop35
280
     0
102
RTVSPost2010PropOp35
 70
     1
102
RTVSPost2010Prop36
280
     0
102
RTVSPost2010PropOp36
 70
     1
102
RTVSPost2010Prop37
 90
       50
102
RTVSPost2010PropOp37
 70
     1
102
RTVSPost2010Prop38
140
0.0
102
RTVSPost2010PropOp38
 70
     1
102
RTVSPost2010Prop39
140
1.0
102
RTVSPost2010PropOp39
 70
     1
102
RTVSPost2010Prop40
 90
        0
102
RTVSPost2010PropOp40
 70
     1
102
RTVSPost2010Prop41ColorIndex
 90
       18
102
RTVSPost2010Prop41ColorRGB
 90
        0
102
RTVSPost2010PropOp41
 70
     1
102
RTVSPost2010Prop42
 90
       50
102
RTVSPost2010PropOp42
 70
     1
102
RTVSPost2010Prop43
 90
        3
102
RTVSPost2010PropOp43
 70
     1
102
RTVSPost2010Prop44ColorIndex
 90
        5
102
RTVSPost2010Prop44ColorRGB
 90
      255
102
RTVSPost2010PropOp44
 70
     1
102
RTVSPost2010Prop45
280
     0
102
RTVSPost2010PropOp45
 70
     1
102
RTVSPost2010Prop46
 90
       50
102
RTVSPost2010PropOp46
 70
     1
102
RTVSPost2010Prop47
 90
       50
102
RTVSPost2010PropOp47
 70
     1
102
RTVSPost2010Prop48
 90
       50
102
RTVSPost2010PropOp48
 70
     1
102
RTVSPost2010Prop49
280
     0
102
RTVSPost2010PropOp49
 70
     1
102
RTVSPost2010Prop50
 90
       50
102
RTVSPost2010PropOp50
 70
     1
102
RTVSPost2010Prop51ColorIndex
 90
      256
102
RTVSPost2010Prop51ColorRGB
 90
-16777216
102
RTVSPost2010PropOp51
 70
     0
102
RTVSPost2010Prop52
140
1.0
102
RTVSPost2010PropOp52
 70
     0
102
RTVSPost2010Prop53
 90
        2
102
RTVSPost2010PropOp53
 70
     1
102
RTVSPost2010Prop54
  1
strokes_ogs.tif
102
RTVSPost2010PropOp54
 70
     1
102
RTVSPost2010Prop55
280
     0
102
RTVSPost2010PropOp55
 70
     1
102
RTVSPost2010Prop56
140
1.0
102
RTVSPost2010PropOp56
 70
     1
102
RTVSPost2010Prop57
140
1.0
102
RTVSPost2010PropOp57
 70
     1
102
RTVSPropertyOp0
 70
     1
102
RTVSPropertyOp1
 70
     1
102
RTVSPropertyOp2
 70
     1
102
RTVSPropertyOp3
 70
     1
102
RTVSPropertyOp4
 70
     1
102
RTVSPropertyOp5
 70
     1
102
RTVSPropertyOp6
 70
     1
102
RTVSPropertyOp7
 70
     1
102
RTVSPropertyOp8
 70
     1
102
RTVSPropertyOp9
 70
     1
102
RTVSPropertyOp10
 70
     1
102
RTVSPropertyOp11
 70
     1
102
RTVSPropertyOp12
 70
     1
102
RTVSPropertyOp13
 70
     1
102
RTVSPropertyOp14
 70
     1
102
RTVSPropertyOp15
 70
     1
102
RTVSPropertyOp16
 70
     1
102
RTVSPropertyOp17
 70
     1
102
RTVSPropertyOp18
 70
     1
102
RTVSPropertyOp19
 70
     1
102
RTVSPropertyOp20
 70
     1
102
RTVSPropertyOp21
 70
     1
102
RTVSPropertyOp22
 70
     1
102
RTVSPropertyOp23
 70
     1
102
RTVSPropertyOp24
 70
     1
102
RTVSPropertyOp25
 70
     1
102
RTVSPropertyOp26
 70
     1
102
RTVSPropertyOp27
 70
     1
102
RTVSPropertyOp28
 70
     1
102
RTVSPropertyOp29
 70
     1
102
RTVSPropertyOp30
 70
     1
102
RTVSPropertyOp31
 70
     1
102
RTVSPropertyOp32
 70
     1
102
RTVSPropertyOp33
 70
     1
102
RTVSPropertyOp34
 70
     1
102
RTVSPropertyOp35
 70
     1
102
RTVSPropertyOp36
 70
     1
102
RTVSPropertyOp37
 70
     1
102
RTVSPropertyOp38
 70
     1
102
RTVSPropertyOp39
 70
     1
102
RTVSPropertyOp40
 70
     1
102
RTVSPropertyOp41
 70
     1
102
RTVSPropertyOp42
 70
     1
102
RTVSPropertyOp43
 70
     1
102
RTVSPropertyOp44
 70
     1
102
RTVSPropertyOp45
 70
     1
102
RTVSPropertyOp46
 70
     1
102
RTVSPropertyOp47
 70
     1
102
RTVSPropertyOp48
 70
     1
102
RTVSPropertyOp49
 70
     1
102
RTVSPropertyOp50
 70
     1
102
RTVSPropertyOp51
 70
     0
102
RTVSPropertyOp52
 70
     0
102
RTVSPropertyOp53
 70
     1
102
RTVSPropertyOp54
 70
     1
102
RTVSPropertyOp55
 70
     1
102
RTVSPropertyOp56
 70
     1
102
RTVSPropertyOp57
 70
     1
102
RTVSPropertyOp58
 70
     1
102
RTVSPropertyOp59
 70
     1
102
RTVSPropertyOp60
 70
     1
102
RTVSPropertyOp61
 70
     1
102
RTVSPropertyOp62
 70
     1
  0
XRECORD
  5
4FD3
102
{ACAD_REACTORS
330
4FD2
102
}
330
4FD2
100
AcDbXrecord
280
     1
102
RTVSPost2010Prop28
280
     0
102
RTVSPost2010PropOp28
 70
     1
102
RTVSPost2010Prop29
280
     1
102
RTVSPost2010PropOp29
 70
     1
102
RTVSPost2010Prop30
280
     1
102
RTVSPost2010PropOp30
 70
     1
102
RTVSPost2010Prop31
280
     0
102
RTVSPost2010PropOp31
 70
     1
102
RTVSPost2010Prop32
280
     0
102
RTVSPost2010PropOp32
 70
     1
102
RTVSPost2010Prop33
280
     0
102
RTVSPost2010PropOp33
 70
     1
102
RTVSPost2010Prop34
280
     0
102
RTVSPost2010PropOp34
 70
     1
102
RTVSPost2010Prop35
280
     0
102
RTVSPost2010PropOp35
 70
     1
102
RTVSPost2010Prop36
280
     0
102
RTVSPost2010PropOp36
 70
     1
102
RTVSPost2010Prop37
 90
       50
102
RTVSPost2010PropOp37
 70
     1
102
RTVSPost2010Prop38
140
0.0
102
RTVSPost2010PropOp38
 70
     1
102
RTVSPost2010Prop39
140
1.0
102
RTVSPost2010PropOp39
 70
     1
102
RTVSPost2010Prop40
 90
        0
102
RTVSPost2010PropOp40
 70
     1
102
RTVSPost2010Prop41ColorIndex
 90
       18
102
RTVSPost2010Prop41ColorRGB
 90
        0
102
RTVSPost2010PropOp41
 70
     1
102
RTVSPost2010Prop42
 90
       50
102
RTVSPost2010PropOp42
 70
     1
102
RTVSPost2010Prop43
 90
        3
102
RTVSPost2010PropOp43
 70
     1
102
RTVSPost2010Prop44ColorIndex
 90
        5
102
RTVSPost2010Prop44ColorRGB
 90
      255
102
RTVSPost2010PropOp44
 70
     1
102
RTVSPost2010Prop45
280
     0
102
RTVSPost2010PropOp45
 70
     1
102
RTVSPost2010Prop46
 90
       50
102
RTVSPost2010PropOp46
 70
     1
102
RTVSPost2010Prop47
 90
       50
102
RTVSPost2010PropOp47
 70
     1
102
RTVSPost2010Prop48
 90
       50
102
RTVSPost2010PropOp48
 70
     1
102
RTVSPost2010Prop49
280
     0
102
RTVSPost2010PropOp49
 70
     1
102
RTVSPost2010Prop50
 90
       50
102
RTVSPost2010PropOp50
 70
     1
102
RTVSPost2010Prop51ColorIndex
 90
      256
102
RTVSPost2010Prop51ColorRGB
 90
-16777216
102
RTVSPost2010PropOp51
 70
     0
102
RTVSPost2010Prop52
140
1.0
102
RTVSPost2010PropOp52
 70
     0
102
RTVSPost2010Prop53
 90
        2
102
RTVSPost2010PropOp53
 70
     1
102
RTVSPost2010Prop54
  1
strokes_ogs.tif
102
RTVSPost2010PropOp54
 70
     1
102
RTVSPost2010Prop55
280
     0
102
RTVSPost2010PropOp55
 70
     1
102
RTVSPost2010Prop56
140
1.0
102
RTVSPost2010PropOp56
 70
     1
102
RTVSPost2010Prop57
140
1.0
102
RTVSPost2010PropOp57
 70
     1
102
RTVSPropertyOp0
 70
     1
102
RTVSPropertyOp1
 70
     1
102
RTVSPropertyOp2
 70
     1
102
RTVSPropertyOp3
 70
     1
102
RTVSPropertyOp4
 70
     1
102
RTVSPropertyOp5
 70
     1
102
RTVSPropertyOp6
 70
     1
102
RTVSPropertyOp7
 70
     1
102
RTVSPropertyOp8
 70
     1
102
RTVSPropertyOp9
 70
     1
102
RTVSPropertyOp10
 70
     1
102
RTVSPropertyOp11
 70
     1
102
RTVSPropertyOp12
 70
     1
102
RTVSPropertyOp13
 70
     1
102
RTVSPropertyOp14
 70
     1
102
RTVSPropertyOp15
 70
     1
102
RTVSPropertyOp16
 70
     1
102
RTVSPropertyOp17
 70
     1
102
RTVSPropertyOp18
 70
     1
102
RTVSPropertyOp19
 70
     1
102
RTVSPropertyOp20
 70
     1
102
RTVSPropertyOp21
 70
     1
102
RTVSPropertyOp22
 70
     1
102
RTVSPropertyOp23
 70
     1
102
RTVSPropertyOp24
 70
     1
102
RTVSPropertyOp25
 70
     1
102
RTVSPropertyOp26
 70
     1
102
RTVSPropertyOp27
 70
     1
102
RTVSPropertyOp28
 70
     1
102
RTVSPropertyOp29
 70
     1
102
RTVSPropertyOp30
 70
     1
102
RTVSPropertyOp31
 70
     1
102
RTVSPropertyOp32
 70
     1
102
RTVSPropertyOp33
 70
     1
102
RTVSPropertyOp34
 70
     1
102
RTVSPropertyOp35
 70
     1
102
RTVSPropertyOp36
 70
     1
102
RTVSPropertyOp37
 70
     1
102
RTVSPropertyOp38
 70
     1
102
RTVSPropertyOp39
 70
     1
102
RTVSPropertyOp40
 70
     1
102
RTVSPropertyOp41
 70
     1
102
RTVSPropertyOp42
 70
     1
102
RTVSPropertyOp43
 70
     1
102
RTVSPropertyOp44
 70
     1
102
RTVSPropertyOp45
 70
     1
102
RTVSPropertyOp46
 70
     1
102
RTVSPropertyOp47
 70
     1
102
RTVSPropertyOp48
 70
     1
102
RTVSPropertyOp49
 70
     1
102
RTVSPropertyOp50
 70
     1
102
RTVSPropertyOp51
 70
     0
102
RTVSPropertyOp52
 70
     0
102
RTVSPropertyOp53
 70
     1
102
RTVSPropertyOp54
 70
     1
102
RTVSPropertyOp55
 70
     1
102
RTVSPropertyOp56
 70
     1
102
RTVSPropertyOp57
 70
     1
102
RTVSPropertyOp58
 70
     1
102
RTVSPropertyOp59
 70
     1
102
RTVSPropertyOp60
 70
     1
102
RTVSPropertyOp61
 70
     1
102
RTVSPropertyOp62
 70
     1
  0
XRECORD
  5
4FC5
102
{ACAD_REACTORS
330
4FC4
102
}
330
4FC4
100
AcDbXrecord
280
     1
102
RTVSPost2010Prop28
280
     0
102
RTVSPost2010PropOp28
 70
     1
102
RTVSPost2010Prop29
280
     1
102
RTVSPost2010PropOp29
 70
     1
102
RTVSPost2010Prop30
280
     1
102
RTVSPost2010PropOp30
 70
     1
102
RTVSPost2010Prop31
280
     0
102
RTVSPost2010PropOp31
 70
     1
102
RTVSPost2010Prop32
280
     0
102
RTVSPost2010PropOp32
 70
     1
102
RTVSPost2010Prop33
280
     0
102
RTVSPost2010PropOp33
 70
     1
102
RTVSPost2010Prop34
280
     0
102
RTVSPost2010PropOp34
 70
     1
102
RTVSPost2010Prop35
280
     0
102
RTVSPost2010PropOp35
 70
     1
102
RTVSPost2010Prop36
280
     0
102
RTVSPost2010PropOp36
 70
     1
102
RTVSPost2010Prop37
 90
       50
102
RTVSPost2010PropOp37
 70
     1
102
RTVSPost2010Prop38
140
0.0
102
RTVSPost2010PropOp38
 70
     1
102
RTVSPost2010Prop39
140
1.0
102
RTVSPost2010PropOp39
 70
     1
102
RTVSPost2010Prop40
 90
        0
102
RTVSPost2010PropOp40
 70
     1
102
RTVSPost2010Prop41ColorIndex
 90
       18
102
RTVSPost2010Prop41ColorRGB
 90
        0
102
RTVSPost2010PropOp41
 70
     1
102
RTVSPost2010Prop42
 90
       50
102
RTVSPost2010PropOp42
 70
     1
102
RTVSPost2010Prop43
 90
        3
102
RTVSPost2010PropOp43
 70
     1
102
RTVSPost2010Prop44ColorIndex
 90
        5
102
RTVSPost2010Prop44ColorRGB
 90
      255
102
RTVSPost2010PropOp44
 70
     1
102
RTVSPost2010Prop45
280
     0
102
RTVSPost2010PropOp45
 70
     1
102
RTVSPost2010Prop46
 90
       50
102
RTVSPost2010PropOp46
 70
     1
102
RTVSPost2010Prop47
 90
       50
102
RTVSPost2010PropOp47
 70
     1
102
RTVSPost2010Prop48
 90
       50
102
RTVSPost2010PropOp48
 70
     1
102
RTVSPost2010Prop49
280
     0
102
RTVSPost2010PropOp49
 70
     1
102
RTVSPost2010Prop50
 90
       50
102
RTVSPost2010PropOp50
 70
     1
102
RTVSPost2010Prop51ColorIndex
 90
      256
102
RTVSPost2010Prop51ColorRGB
 90
-16777216
102
RTVSPost2010PropOp51
 70
     0
102
RTVSPost2010Prop52
140
1.0
102
RTVSPost2010PropOp52
 70
     0
102
RTVSPost2010Prop53
 90
        2
102
RTVSPost2010PropOp53
 70
     1
102
RTVSPost2010Prop54
  1
strokes_ogs.tif
102
RTVSPost2010PropOp54
 70
     1
102
RTVSPost2010Prop55
280
     0
102
RTVSPost2010PropOp55
 70
     1
102
RTVSPost2010Prop56
140
1.0
102
RTVSPost2010PropOp56
 70
     1
102
RTVSPost2010Prop57
140
1.0
102
RTVSPost2010PropOp57
 70
     1
102
RTVSPropertyOp0
 70
     1
102
RTVSPropertyOp1
 70
     1
102
RTVSPropertyOp2
 70
     1
102
RTVSPropertyOp3
 70
     1
102
RTVSPropertyOp4
 70
     1
102
RTVSPropertyOp5
 70
     1
102
RTVSPropertyOp6
 70
     1
102
RTVSPropertyOp7
 70
     1
102
RTVSPropertyOp8
 70
     1
102
RTVSPropertyOp9
 70
     1
102
RTVSPropertyOp10
 70
     1
102
RTVSPropertyOp11
 70
     1
102
RTVSPropertyOp12
 70
     1
102
RTVSPropertyOp13
 70
     1
102
RTVSPropertyOp14
 70
     1
102
RTVSPropertyOp15
 70
     1
102
RTVSPropertyOp16
 70
     1
102
RTVSPropertyOp17
 70
     1
102
RTVSPropertyOp18
 70
     1
102
RTVSPropertyOp19
 70
     1
102
RTVSPropertyOp20
 70
     1
102
RTVSPropertyOp21
 70
     1
102
RTVSPropertyOp22
 70
     1
102
RTVSPropertyOp23
 70
     1
102
RTVSPropertyOp24
 70
     1
102
RTVSPropertyOp25
 70
     1
102
RTVSPropertyOp26
 70
     1
102
RTVSPropertyOp27
 70
     1
102
RTVSPropertyOp28
 70
     1
102
RTVSPropertyOp29
 70
     1
102
RTVSPropertyOp30
 70
     1
102
RTVSPropertyOp31
 70
     1
102
RTVSPropertyOp32
 70
     1
102
RTVSPropertyOp33
 70
     1
102
RTVSPropertyOp34
 70
     1
102
RTVSPropertyOp35
 70
     1
102
RTVSPropertyOp36
 70
     1
102
RTVSPropertyOp37
 70
     1
102
RTVSPropertyOp38
 70
     1
102
RTVSPropertyOp39
 70
     1
102
RTVSPropertyOp40
 70
     1
102
RTVSPropertyOp41
 70
     1
102
RTVSPropertyOp42
 70
     1
102
RTVSPropertyOp43
 70
     1
102
RTVSPropertyOp44
 70
     1
102
RTVSPropertyOp45
 70
     1
102
RTVSPropertyOp46
 70
     1
102
RTVSPropertyOp47
 70
     1
102
RTVSPropertyOp48
 70
     1
102
RTVSPropertyOp49
 70
     1
102
RTVSPropertyOp50
 70
     1
102
RTVSPropertyOp51
 70
     0
102
RTVSPropertyOp52
 70
     0
102
RTVSPropertyOp53
 70
     1
102
RTVSPropertyOp54
 70
     1
102
RTVSPropertyOp55
 70
     1
102
RTVSPropertyOp56
 70
     1
102
RTVSPropertyOp57
 70
     1
102
RTVSPropertyOp58
 70
     1
102
RTVSPropertyOp59
 70
     1
102
RTVSPropertyOp60
 70
     1
102
RTVSPropertyOp61
 70
     1
102
RTVSPropertyOp62
 70
     1
  0
XRECORD
  5
4FC9
102
{ACAD_REACTORS
330
4FC8
102
}
330
4FC8
100
AcDbXrecord
280
     1
102
RTVSPost2010Prop28
280
     0
102
RTVSPost2010PropOp28
 70
     1
102
RTVSPost2010Prop29
280
     1
102
RTVSPost2010PropOp29
 70
     1
102
RTVSPost2010Prop30
280
     1
102
RTVSPost2010PropOp30
 70
     1
102
RTVSPost2010Prop31
280
     0
102
RTVSPost2010PropOp31
 70
     1
102
RTVSPost2010Prop32
280
     0
102
RTVSPost2010PropOp32
 70
     1
102
RTVSPost2010Prop33
280
     0
102
RTVSPost2010PropOp33
 70
     1
102
RTVSPost2010Prop34
280
     0
102
RTVSPost2010PropOp34
 70
     1
102
RTVSPost2010Prop35
280
     0
102
RTVSPost2010PropOp35
 70
     1
102
RTVSPost2010Prop36
280
     0
102
RTVSPost2010PropOp36
 70
     1
102
RTVSPost2010Prop37
 90
       50
102
RTVSPost2010PropOp37
 70
     1
102
RTVSPost2010Prop38
140
0.0
102
RTVSPost2010PropOp38
 70
     1
102
RTVSPost2010Prop39
140
1.0
102
RTVSPost2010PropOp39
 70
     1
102
RTVSPost2010Prop40
 90
        0
102
RTVSPost2010PropOp40
 70
     1
102
RTVSPost2010Prop41ColorIndex
 90
       18
102
RTVSPost2010Prop41ColorRGB
 90
        0
102
RTVSPost2010PropOp41
 70
     1
102
RTVSPost2010Prop42
 90
       50
102
RTVSPost2010PropOp42
 70
     1
102
RTVSPost2010Prop43
 90
        3
102
RTVSPost2010PropOp43
 70
     1
102
RTVSPost2010Prop44ColorIndex
 90
        5
102
RTVSPost2010Prop44ColorRGB
 90
      255
102
RTVSPost2010PropOp44
 70
     1
102
RTVSPost2010Prop45
280
     0
102
RTVSPost2010PropOp45
 70
     1
102
RTVSPost2010Prop46
 90
       50
102
RTVSPost2010PropOp46
 70
     1
102
RTVSPost2010Prop47
 90
       50
102
RTVSPost2010PropOp47
 70
     1
102
RTVSPost2010Prop48
 90
       50
102
RTVSPost2010PropOp48
 70
     1
102
RTVSPost2010Prop49
280
     0
102
RTVSPost2010PropOp49
 70
     1
102
RTVSPost2010Prop50
 90
       50
102
RTVSPost2010PropOp50
 70
     1
102
RTVSPost2010Prop51ColorIndex
 90
      256
102
RTVSPost2010Prop51ColorRGB
 90
-16777216
102
RTVSPost2010PropOp51
 70
     0
102
RTVSPost2010Prop52
140
1.0
102
RTVSPost2010PropOp52
 70
     0
102
RTVSPost2010Prop53
 90
        2
102
RTVSPost2010PropOp53
 70
     1
102
RTVSPost2010Prop54
  1
strokes_ogs.tif
102
RTVSPost2010PropOp54
 70
     1
102
RTVSPost2010Prop55
280
     0
102
RTVSPost2010PropOp55
 70
     1
102
RTVSPost2010Prop56
140
1.0
102
RTVSPost2010PropOp56
 70
     1
102
RTVSPost2010Prop57
140
1.0
102
RTVSPost2010PropOp57
 70
     1
102
RTVSPropertyOp0
 70
     1
102
RTVSPropertyOp1
 70
     1
102
RTVSPropertyOp2
 70
     1
102
RTVSPropertyOp3
 70
     1
102
RTVSPropertyOp4
 70
     1
102
RTVSPropertyOp5
 70
     1
102
RTVSPropertyOp6
 70
     1
102
RTVSPropertyOp7
 70
     1
102
RTVSPropertyOp8
 70
     1
102
RTVSPropertyOp9
 70
     1
102
RTVSPropertyOp10
 70
     1
102
RTVSPropertyOp11
 70
     1
102
RTVSPropertyOp12
 70
     1
102
RTVSPropertyOp13
 70
     1
102
RTVSPropertyOp14
 70
     1
102
RTVSPropertyOp15
 70
     1
102
RTVSPropertyOp16
 70
     1
102
RTVSPropertyOp17
 70
     1
102
RTVSPropertyOp18
 70
     1
102
RTVSPropertyOp19
 70
     1
102
RTVSPropertyOp20
 70
     1
102
RTVSPropertyOp21
 70
     1
102
RTVSPropertyOp22
 70
     1
102
RTVSPropertyOp23
 70
     1
102
RTVSPropertyOp24
 70
     1
102
RTVSPropertyOp25
 70
     1
102
RTVSPropertyOp26
 70
     1
102
RTVSPropertyOp27
 70
     1
102
RTVSPropertyOp28
 70
     1
102
RTVSPropertyOp29
 70
     1
102
RTVSPropertyOp30
 70
     1
102
RTVSPropertyOp31
 70
     1
102
RTVSPropertyOp32
 70
     1
102
RTVSPropertyOp33
 70
     1
102
RTVSPropertyOp34
 70
     1
102
RTVSPropertyOp35
 70
     1
102
RTVSPropertyOp36
 70
     1
102
RTVSPropertyOp37
 70
     1
102
RTVSPropertyOp38
 70
     1
102
RTVSPropertyOp39
 70
     1
102
RTVSPropertyOp40
 70
     1
102
RTVSPropertyOp41
 70
     1
102
RTVSPropertyOp42
 70
     1
102
RTVSPropertyOp43
 70
     1
102
RTVSPropertyOp44
 70
     1
102
RTVSPropertyOp45
 70
     1
102
RTVSPropertyOp46
 70
     1
102
RTVSPropertyOp47
 70
     1
102
RTVSPropertyOp48
 70
     1
102
RTVSPropertyOp49
 70
     1
102
RTVSPropertyOp50
 70
     1
102
RTVSPropertyOp51
 70
     0
102
RTVSPropertyOp52
 70
     0
102
RTVSPropertyOp53
 70
     1
102
RTVSPropertyOp54
 70
     1
102
RTVSPropertyOp55
 70
     1
102
RTVSPropertyOp56
 70
     1
102
RTVSPropertyOp57
 70
     1
102
RTVSPropertyOp58
 70
     1
102
RTVSPropertyOp59
 70
     1
102
RTVSPropertyOp60
 70
     1
102
RTVSPropertyOp61
 70
     1
102
RTVSPropertyOp62
 70
     1
  0
XRECORD
  5
4FE3
102
{ACAD_REACTORS
330
4FE2
102
}
330
4FE2
100
AcDbXrecord
280
     1
102
RTVSPost2010Prop28
280
     0
102
RTVSPost2010PropOp28
 70
     0
102
RTVSPost2010Prop29
280
     1
102
RTVSPost2010PropOp29
 70
     0
102
RTVSPost2010Prop30
280
     1
102
RTVSPost2010PropOp30
 70
     0
102
RTVSPost2010Prop31
280
     0
102
RTVSPost2010PropOp31
 70
     0
102
RTVSPost2010Prop32
280
     0
102
RTVSPost2010PropOp32
 70
     0
102
RTVSPost2010Prop33
280
     0
102
RTVSPost2010PropOp33
 70
     0
102
RTVSPost2010Prop34
280
     0
102
RTVSPost2010PropOp34
 70
     0
102
RTVSPost2010Prop35
280
     0
102
RTVSPost2010PropOp35
 70
     0
102
RTVSPost2010Prop36
280
     0
102
RTVSPost2010PropOp36
 70
     0
102
RTVSPost2010Prop37
 90
       50
102
RTVSPost2010PropOp37
 70
     0
102
RTVSPost2010Prop38
140
0.0
102
RTVSPost2010PropOp38
 70
     0
102
RTVSPost2010Prop39
140
1.0
102
RTVSPost2010PropOp39
 70
     0
102
RTVSPost2010Prop40
 90
        0
102
RTVSPost2010PropOp40
 70
     0
102
RTVSPost2010Prop41ColorIndex
 90
       18
102
RTVSPost2010Prop41ColorRGB
 90
        0
102
RTVSPost2010PropOp41
 70
     0
102
RTVSPost2010Prop42
 90
       50
102
RTVSPost2010PropOp42
 70
     0
102
RTVSPost2010Prop43
 90
        3
102
RTVSPost2010PropOp43
 70
     0
102
RTVSPost2010Prop44ColorIndex
 90
        5
102
RTVSPost2010Prop44ColorRGB
 90
      255
102
RTVSPost2010PropOp44
 70
     0
102
RTVSPost2010Prop45
280
     0
102
RTVSPost2010PropOp45
 70
     0
102
RTVSPost2010Prop46
 90
       50
102
RTVSPost2010PropOp46
 70
     0
102
RTVSPost2010Prop47
 90
       50
102
RTVSPost2010PropOp47
 70
     0
102
RTVSPost2010Prop48
 90
       50
102
RTVSPost2010PropOp48
 70
     0
102
RTVSPost2010Prop49
280
     0
102
RTVSPost2010PropOp49
 70
     0
102
RTVSPost2010Prop50
 90
       50
102
RTVSPost2010PropOp50
 70
     0
102
RTVSPost2010Prop51ColorIndex
 90
      256
102
RTVSPost2010Prop51ColorRGB
 90
-16777216
102
RTVSPost2010PropOp51
 70
     0
102
RTVSPost2010Prop52
140
1.0
102
RTVSPost2010PropOp52
 70
     0
102
RTVSPost2010Prop53
 90
        2
102
RTVSPost2010PropOp53
 70
     0
102
RTVSPost2010Prop54
  1
strokes_ogs.tif
102
RTVSPost2010PropOp54
 70
     0
102
RTVSPost2010Prop55
280
     0
102
RTVSPost2010PropOp55
 70
     0
102
RTVSPost2010Prop56
140
1.0
102
RTVSPost2010PropOp56
 70
     0
102
RTVSPost2010Prop57
140
1.0
102
RTVSPost2010PropOp57
 70
     0
102
RTVSPropertyOp0
 70
     0
102
RTVSPropertyOp1
 70
     0
102
RTVSPropertyOp2
 70
     0
102
RTVSPropertyOp3
 70
     0
102
RTVSPropertyOp4
 70
     0
102
RTVSPropertyOp5
 70
     0
102
RTVSPropertyOp6
 70
     0
102
RTVSPropertyOp7
 70
     0
102
RTVSPropertyOp8
 70
     0
102
RTVSPropertyOp9
 70
     0
102
RTVSPropertyOp10
 70
     0
102
RTVSPropertyOp11
 70
     0
102
RTVSPropertyOp12
 70
     0
102
RTVSPropertyOp13
 70
     0
102
RTVSPropertyOp14
 70
     2
102
RTVSPropertyOp15
 70
     0
102
RTVSPropertyOp16
 70
     0
102
RTVSPropertyOp17
 70
     0
102
RTVSPropertyOp18
 70
     0
102
RTVSPropertyOp19
 70
     0
102
RTVSPropertyOp20
 70
     0
102
RTVSPropertyOp21
 70
     0
102
RTVSPropertyOp22
 70
     0
102
RTVSPropertyOp23
 70
     0
102
RTVSPropertyOp24
 70
     0
102
RTVSPropertyOp25
 70
     0
102
RTVSPropertyOp26
 70
     0
102
RTVSPropertyOp27
 70
     0
102
RTVSPropertyOp28
 70
     0
102
RTVSPropertyOp29
 70
     0
102
RTVSPropertyOp30
 70
     0
102
RTVSPropertyOp31
 70
     0
102
RTVSPropertyOp32
 70
     0
102
RTVSPropertyOp33
 70
     0
102
RTVSPropertyOp34
 70
     0
102
RTVSPropertyOp35
 70
     0
102
RTVSPropertyOp36
 70
     0
102
RTVSPropertyOp37
 70
     0
102
RTVSPropertyOp38
 70
     0
102
RTVSPropertyOp39
 70
     0
102
RTVSPropertyOp40
 70
     0
102
RTVSPropertyOp41
 70
     0
102
RTVSPropertyOp42
 70
     0
102
RTVSPropertyOp43
 70
     0
102
RTVSPropertyOp44
 70
     0
102
RTVSPropertyOp45
 70
     0
102
RTVSPropertyOp46
 70
     0
102
RTVSPropertyOp47
 70
     0
102
RTVSPropertyOp48
 70
     0
102
RTVSPropertyOp49
 70
     0
102
RTVSPropertyOp50
 70
     0
102
RTVSPropertyOp51
 70
     0
102
RTVSPropertyOp52
 70
     0
102
RTVSPropertyOp53
 70
     0
102
RTVSPropertyOp54
 70
     0
102
RTVSPropertyOp55
 70
     0
102
RTVSPropertyOp56
 70
     0
102
RTVSPropertyOp57
 70
     0
102
RTVSPropertyOp58
 70
     1
102
RTVSPropertyOp59
 70
     1
102
RTVSPropertyOp60
 70
     1
102
RTVSPropertyOp61
 70
     1
102
RTVSPropertyOp62
 70
     1
  0
XRECORD
  5
4FD1
102
{ACAD_REACTORS
330
4FD0
102
}
330
4FD0
100
AcDbXrecord
280
     1
102
RTVSPost2010Prop28
280
     0
102
RTVSPost2010PropOp28
 70
     1
102
RTVSPost2010Prop29
280
     1
102
RTVSPost2010PropOp29
 70
     1
102
RTVSPost2010Prop30
280
     1
102
RTVSPost2010PropOp30
 70
     1
102
RTVSPost2010Prop31
280
     0
102
RTVSPost2010PropOp31
 70
     1
102
RTVSPost2010Prop32
280
     0
102
RTVSPost2010PropOp32
 70
     1
102
RTVSPost2010Prop33
280
     0
102
RTVSPost2010PropOp33
 70
     1
102
RTVSPost2010Prop34
280
     0
102
RTVSPost2010PropOp34
 70
     1
102
RTVSPost2010Prop35
280
     0
102
RTVSPost2010PropOp35
 70
     1
102
RTVSPost2010Prop36
280
     0
102
RTVSPost2010PropOp36
 70
     1
102
RTVSPost2010Prop37
 90
       50
102
RTVSPost2010PropOp37
 70
     1
102
RTVSPost2010Prop38
140
0.0
102
RTVSPost2010PropOp38
 70
     1
102
RTVSPost2010Prop39
140
1.0
102
RTVSPost2010PropOp39
 70
     1
102
RTVSPost2010Prop40
 90
        0
102
RTVSPost2010PropOp40
 70
     1
102
RTVSPost2010Prop41ColorIndex
 90
       18
102
RTVSPost2010Prop41ColorRGB
 90
        0
102
RTVSPost2010PropOp41
 70
     1
102
RTVSPost2010Prop42
 90
       50
102
RTVSPost2010PropOp42
 70
     1
102
RTVSPost2010Prop43
 90
        3
102
RTVSPost2010PropOp43
 70
     1
102
RTVSPost2010Prop44ColorIndex
 90
        5
102
RTVSPost2010Prop44ColorRGB
 90
      255
102
RTVSPost2010PropOp44
 70
     1
102
RTVSPost2010Prop45
280
     0
102
RTVSPost2010PropOp45
 70
     1
102
RTVSPost2010Prop46
 90
       50
102
RTVSPost2010PropOp46
 70
     1
102
RTVSPost2010Prop47
 90
       50
102
RTVSPost2010PropOp47
 70
     1
102
RTVSPost2010Prop48
 90
       50
102
RTVSPost2010PropOp48
 70
     1
102
RTVSPost2010Prop49
280
     0
102
RTVSPost2010PropOp49
 70
     1
102
RTVSPost2010Prop50
 90
       50
102
RTVSPost2010PropOp50
 70
     1
102
RTVSPost2010Prop51ColorIndex
 90
      256
102
RTVSPost2010Prop51ColorRGB
 90
-16777216
102
RTVSPost2010PropOp51
 70
     0
102
RTVSPost2010Prop52
140
1.0
102
RTVSPost2010PropOp52
 70
     0
102
RTVSPost2010Prop53
 90
        2
102
RTVSPost2010PropOp53
 70
     1
102
RTVSPost2010Prop54
  1
strokes_ogs.tif
102
RTVSPost2010PropOp54
 70
     1
102
RTVSPost2010Prop55
280
     0
102
RTVSPost2010PropOp55
 70
     1
102
RTVSPost2010Prop56
140
1.0
102
RTVSPost2010PropOp56
 70
     1
102
RTVSPost2010Prop57
140
1.0
102
RTVSPost2010PropOp57
 70
     1
102
RTVSPropertyOp0
 70
     1
102
RTVSPropertyOp1
 70
     1
102
RTVSPropertyOp2
 70
     1
102
RTVSPropertyOp3
 70
     1
102
RTVSPropertyOp4
 70
     1
102
RTVSPropertyOp5
 70
     1
102
RTVSPropertyOp6
 70
     1
102
RTVSPropertyOp7
 70
     1
102
RTVSPropertyOp8
 70
     1
102
RTVSPropertyOp9
 70
     1
102
RTVSPropertyOp10
 70
     1
102
RTVSPropertyOp11
 70
     1
102
RTVSPropertyOp12
 70
     1
102
RTVSPropertyOp13
 70
     1
102
RTVSPropertyOp14
 70
     1
102
RTVSPropertyOp15
 70
     1
102
RTVSPropertyOp16
 70
     1
102
RTVSPropertyOp17
 70
     1
102
RTVSPropertyOp18
 70
     1
102
RTVSPropertyOp19
 70
     1
102
RTVSPropertyOp20
 70
     1
102
RTVSPropertyOp21
 70
     1
102
RTVSPropertyOp22
 70
     1
102
RTVSPropertyOp23
 70
     1
102
RTVSPropertyOp24
 70
     1
102
RTVSPropertyOp25
 70
     1
102
RTVSPropertyOp26
 70
     1
102
RTVSPropertyOp27
 70
     1
102
RTVSPropertyOp28
 70
     1
102
RTVSPropertyOp29
 70
     1
102
RTVSPropertyOp30
 70
     1
102
RTVSPropertyOp31
 70
     1
102
RTVSPropertyOp32
 70
     1
102
RTVSPropertyOp33
 70
     1
102
RTVSPropertyOp34
 70
     1
102
RTVSPropertyOp35
 70
     1
102
RTVSPropertyOp36
 70
     1
102
RTVSPropertyOp37
 70
     1
102
RTVSPropertyOp38
 70
     1
102
RTVSPropertyOp39
 70
     1
102
RTVSPropertyOp40
 70
     1
102
RTVSPropertyOp41
 70
     1
102
RTVSPropertyOp42
 70
     1
102
RTVSPropertyOp43
 70
     1
102
RTVSPropertyOp44
 70
     1
102
RTVSPropertyOp45
 70
     1
102
RTVSPropertyOp46
 70
     1
102
RTVSPropertyOp47
 70
     1
102
RTVSPropertyOp48
 70
     1
102
RTVSPropertyOp49
 70
     1
102
RTVSPropertyOp50
 70
     1
102
RTVSPropertyOp51
 70
     0
102
RTVSPropertyOp52
 70
     0
102
RTVSPropertyOp53
 70
     1
102
RTVSPropertyOp54
 70
     1
102
RTVSPropertyOp55
 70
     1
102
RTVSPropertyOp56
 70
     1
102
RTVSPropertyOp57
 70
     1
102
RTVSPropertyOp58
 70
     1
102
RTVSPropertyOp59
 70
     1
102
RTVSPropertyOp60
 70
     1
102
RTVSPropertyOp61
 70
     1
102
RTVSPropertyOp62
 70
     1
  0
XRECORD
  5
4FB5
102
{ACAD_REACTORS
330
4FB4
102
}
330
4FB4
100
AcDbXrecord
280
     1
102
RTVSPost2010Prop28
280
     0
102
RTVSPost2010PropOp28
 70
     1
102
RTVSPost2010Prop29
280
     1
102
RTVSPost2010PropOp29
 70
     1
102
RTVSPost2010Prop30
280
     1
102
RTVSPost2010PropOp30
 70
     1
102
RTVSPost2010Prop31
280
     0
102
RTVSPost2010PropOp31
 70
     1
102
RTVSPost2010Prop32
280
     0
102
RTVSPost2010PropOp32
 70
     1
102
RTVSPost2010Prop33
280
     0
102
RTVSPost2010PropOp33
 70
     1
102
RTVSPost2010Prop34
280
     0
102
RTVSPost2010PropOp34
 70
     1
102
RTVSPost2010Prop35
280
     0
102
RTVSPost2010PropOp35
 70
     1
102
RTVSPost2010Prop36
280
     0
102
RTVSPost2010PropOp36
 70
     1
102
RTVSPost2010Prop37
 90
       50
102
RTVSPost2010PropOp37
 70
     1
102
RTVSPost2010Prop38
140
0.0
102
RTVSPost2010PropOp38
 70
     1
102
RTVSPost2010Prop39
140
1.0
102
RTVSPost2010PropOp39
 70
     1
102
RTVSPost2010Prop40
 90
        0
102
RTVSPost2010PropOp40
 70
     1
102
RTVSPost2010Prop41ColorIndex
 90
       18
102
RTVSPost2010Prop41ColorRGB
 90
        0
102
RTVSPost2010PropOp41
 70
     1
102
RTVSPost2010Prop42
 90
       50
102
RTVSPost2010PropOp42
 70
     1
102
RTVSPost2010Prop43
 90
        3
102
RTVSPost2010PropOp43
 70
     1
102
RTVSPost2010Prop44ColorIndex
 90
        5
102
RTVSPost2010Prop44ColorRGB
 90
      255
102
RTVSPost2010PropOp44
 70
     1
102
RTVSPost2010Prop45
280
     0
102
RTVSPost2010PropOp45
 70
     1
102
RTVSPost2010Prop46
 90
       50
102
RTVSPost2010PropOp46
 70
     1
102
RTVSPost2010Prop47
 90
       50
102
RTVSPost2010PropOp47
 70
     1
102
RTVSPost2010Prop48
 90
       50
102
RTVSPost2010PropOp48
 70
     1
102
RTVSPost2010Prop49
280
     0
102
RTVSPost2010PropOp49
 70
     1
102
RTVSPost2010Prop50
 90
       50
102
RTVSPost2010PropOp50
 70
     1
102
RTVSPost2010Prop51ColorIndex
 90
      256
102
RTVSPost2010Prop51ColorRGB
 90
-16777216
102
RTVSPost2010PropOp51
 70
     0
102
RTVSPost2010Prop52
140
1.0
102
RTVSPost2010PropOp52
 70
     0
102
RTVSPost2010Prop53
 90
        2
102
RTVSPost2010PropOp53
 70
     1
102
RTVSPost2010Prop54
  1
strokes_ogs.tif
102
RTVSPost2010PropOp54
 70
     1
102
RTVSPost2010Prop55
280
     0
102
RTVSPost2010PropOp55
 70
     1
102
RTVSPost2010Prop56
140
1.0
102
RTVSPost2010PropOp56
 70
     1
102
RTVSPost2010Prop57
140
1.0
102
RTVSPost2010PropOp57
 70
     1
102
RTVSPropertyOp0
 70
     1
102
RTVSPropertyOp1
 70
     1
102
RTVSPropertyOp2
 70
     1
102
RTVSPropertyOp3
 70
     1
102
RTVSPropertyOp4
 70
     1
102
RTVSPropertyOp5
 70
     1
102
RTVSPropertyOp6
 70
     1
102
RTVSPropertyOp7
 70
     1
102
RTVSPropertyOp8
 70
     1
102
RTVSPropertyOp9
 70
     1
102
RTVSPropertyOp10
 70
     1
102
RTVSPropertyOp11
 70
     1
102
RTVSPropertyOp12
 70
     1
102
RTVSPropertyOp13
 70
     1
102
RTVSPropertyOp14
 70
     1
102
RTVSPropertyOp15
 70
     1
102
RTVSPropertyOp16
 70
     1
102
RTVSPropertyOp17
 70
     1
102
RTVSPropertyOp18
 70
     1
102
RTVSPropertyOp19
 70
     1
102
RTVSPropertyOp20
 70
     1
102
RTVSPropertyOp21
 70
     1
102
RTVSPropertyOp22
 70
     1
102
RTVSPropertyOp23
 70
     1
102
RTVSPropertyOp24
 70
     1
102
RTVSPropertyOp25
 70
     1
102
RTVSPropertyOp26
 70
     1
102
RTVSPropertyOp27
 70
     1
102
RTVSPropertyOp28
 70
     1
102
RTVSPropertyOp29
 70
     1
102
RTVSPropertyOp30
 70
     1
102
RTVSPropertyOp31
 70
     1
102
RTVSPropertyOp32
 70
     1
102
RTVSPropertyOp33
 70
     1
102
RTVSPropertyOp34
 70
     1
102
RTVSPropertyOp35
 70
     1
102
RTVSPropertyOp36
 70
     1
102
RTVSPropertyOp37
 70
     1
102
RTVSPropertyOp38
 70
     1
102
RTVSPropertyOp39
 70
     1
102
RTVSPropertyOp40
 70
     1
102
RTVSPropertyOp41
 70
     1
102
RTVSPropertyOp42
 70
     1
102
RTVSPropertyOp43
 70
     1
102
RTVSPropertyOp44
 70
     1
102
RTVSPropertyOp45
 70
     1
102
RTVSPropertyOp46
 70
     1
102
RTVSPropertyOp47
 70
     1
102
RTVSPropertyOp48
 70
     1
102
RTVSPropertyOp49
 70
     1
102
RTVSPropertyOp50
 70
     1
102
RTVSPropertyOp51
 70
     0
102
RTVSPropertyOp52
 70
     0
102
RTVSPropertyOp53
 70
     1
102
RTVSPropertyOp54
 70
     1
102
RTVSPropertyOp55
 70
     1
102
RTVSPropertyOp56
 70
     1
102
RTVSPropertyOp57
 70
     1
102
RTVSPropertyOp58
 70
     1
102
RTVSPropertyOp59
 70
     1
102
RTVSPropertyOp60
 70
     1
102
RTVSPropertyOp61
 70
     1
102
RTVSPropertyOp62
 70
     1
  0
XRECORD
  5
4FB7
102
{ACAD_REACTORS
330
4FB6
102
}
330
4FB6
100
AcDbXrecord
280
     1
102
RTVSPost2010Prop28
280
     0
102
RTVSPost2010PropOp28
 70
     1
102
RTVSPost2010Prop29
280
     1
102
RTVSPost2010PropOp29
 70
     1
102
RTVSPost2010Prop30
280
     1
102
RTVSPost2010PropOp30
 70
     1
102
RTVSPost2010Prop31
280
     0
102
RTVSPost2010PropOp31
 70
     1
102
RTVSPost2010Prop32
280
     0
102
RTVSPost2010PropOp32
 70
     1
102
RTVSPost2010Prop33
280
     0
102
RTVSPost2010PropOp33
 70
     1
102
RTVSPost2010Prop34
280
     0
102
RTVSPost2010PropOp34
 70
     1
102
RTVSPost2010Prop35
280
     0
102
RTVSPost2010PropOp35
 70
     1
102
RTVSPost2010Prop36
280
     0
102
RTVSPost2010PropOp36
 70
     1
102
RTVSPost2010Prop37
 90
       50
102
RTVSPost2010PropOp37
 70
     1
102
RTVSPost2010Prop38
140
0.0
102
RTVSPost2010PropOp38
 70
     1
102
RTVSPost2010Prop39
140
1.0
102
RTVSPost2010PropOp39
 70
     1
102
RTVSPost2010Prop40
 90
        0
102
RTVSPost2010PropOp40
 70
     1
102
RTVSPost2010Prop41ColorIndex
 90
       18
102
RTVSPost2010Prop41ColorRGB
 90
        0
102
RTVSPost2010PropOp41
 70
     1
102
RTVSPost2010Prop42
 90
       50
102
RTVSPost2010PropOp42
 70
     1
102
RTVSPost2010Prop43
 90
        3
102
RTVSPost2010PropOp43
 70
     1
102
RTVSPost2010Prop44ColorIndex
 90
        5
102
RTVSPost2010Prop44ColorRGB
 90
      255
102
RTVSPost2010PropOp44
 70
     1
102
RTVSPost2010Prop45
280
     0
102
RTVSPost2010PropOp45
 70
     1
102
RTVSPost2010Prop46
 90
       50
102
RTVSPost2010PropOp46
 70
     1
102
RTVSPost2010Prop47
 90
       50
102
RTVSPost2010PropOp47
 70
     1
102
RTVSPost2010Prop48
 90
       50
102
RTVSPost2010PropOp48
 70
     1
102
RTVSPost2010Prop49
280
     0
102
RTVSPost2010PropOp49
 70
     1
102
RTVSPost2010Prop50
 90
       50
102
RTVSPost2010PropOp50
 70
     1
102
RTVSPost2010Prop51ColorIndex
 90
      256
102
RTVSPost2010Prop51ColorRGB
 90
-16777216
102
RTVSPost2010PropOp51
 70
     0
102
RTVSPost2010Prop52
140
1.0
102
RTVSPost2010PropOp52
 70
     0
102
RTVSPost2010Prop53
 90
        2
102
RTVSPost2010PropOp53
 70
     1
102
RTVSPost2010Prop54
  1
strokes_ogs.tif
102
RTVSPost2010PropOp54
 70
     1
102
RTVSPost2010Prop55
280
     0
102
RTVSPost2010PropOp55
 70
     1
102
RTVSPost2010Prop56
140
1.0
102
RTVSPost2010PropOp56
 70
     1
102
RTVSPost2010Prop57
140
1.0
102
RTVSPost2010PropOp57
 70
     1
102
RTVSPropertyOp0
 70
     1
102
RTVSPropertyOp1
 70
     1
102
RTVSPropertyOp2
 70
     1
102
RTVSPropertyOp3
 70
     1
102
RTVSPropertyOp4
 70
     1
102
RTVSPropertyOp5
 70
     1
102
RTVSPropertyOp6
 70
     1
102
RTVSPropertyOp7
 70
     1
102
RTVSPropertyOp8
 70
     1
102
RTVSPropertyOp9
 70
     1
102
RTVSPropertyOp10
 70
     1
102
RTVSPropertyOp11
 70
     1
102
RTVSPropertyOp12
 70
     1
102
RTVSPropertyOp13
 70
     1
102
RTVSPropertyOp14
 70
     1
102
RTVSPropertyOp15
 70
     1
102
RTVSPropertyOp16
 70
     1
102
RTVSPropertyOp17
 70
     1
102
RTVSPropertyOp18
 70
     1
102
RTVSPropertyOp19
 70
     1
102
RTVSPropertyOp20
 70
     1
102
RTVSPropertyOp21
 70
     1
102
RTVSPropertyOp22
 70
     1
102
RTVSPropertyOp23
 70
     1
102
RTVSPropertyOp24
 70
     1
102
RTVSPropertyOp25
 70
     1
102
RTVSPropertyOp26
 70
     1
102
RTVSPropertyOp27
 70
     1
102
RTVSPropertyOp28
 70
     1
102
RTVSPropertyOp29
 70
     1
102
RTVSPropertyOp30
 70
     1
102
RTVSPropertyOp31
 70
     1
102
RTVSPropertyOp32
 70
     1
102
RTVSPropertyOp33
 70
     1
102
RTVSPropertyOp34
 70
     1
102
RTVSPropertyOp35
 70
     1
102
RTVSPropertyOp36
 70
     1
102
RTVSPropertyOp37
 70
     1
102
RTVSPropertyOp38
 70
     1
102
RTVSPropertyOp39
 70
     1
102
RTVSPropertyOp40
 70
     1
102
RTVSPropertyOp41
 70
     1
102
RTVSPropertyOp42
 70
     1
102
RTVSPropertyOp43
 70
     1
102
RTVSPropertyOp44
 70
     1
102
RTVSPropertyOp45
 70
     1
102
RTVSPropertyOp46
 70
     1
102
RTVSPropertyOp47
 70
     1
102
RTVSPropertyOp48
 70
     1
102
RTVSPropertyOp49
 70
     1
102
RTVSPropertyOp50
 70
     1
102
RTVSPropertyOp51
 70
     0
102
RTVSPropertyOp52
 70
     0
102
RTVSPropertyOp53
 70
     1
102
RTVSPropertyOp54
 70
     1
102
RTVSPropertyOp55
 70
     1
102
RTVSPropertyOp56
 70
     1
102
RTVSPropertyOp57
 70
     1
102
RTVSPropertyOp58
 70
     1
102
RTVSPropertyOp59
 70
     1
102
RTVSPropertyOp60
 70
     1
102
RTVSPropertyOp61
 70
     1
102
RTVSPropertyOp62
 70
     1
  0
XRECORD
  5
4FB9
102
{ACAD_REACTORS
330
4FB8
102
}
330
4FB8
100
AcDbXrecord
280
     1
102
RTVSPost2010Prop28
280
     0
102
RTVSPost2010PropOp28
 70
     1
102
RTVSPost2010Prop29
280
     1
102
RTVSPost2010PropOp29
 70
     1
102
RTVSPost2010Prop30
280
     1
102
RTVSPost2010PropOp30
 70
     1
102
RTVSPost2010Prop31
280
     0
102
RTVSPost2010PropOp31
 70
     1
102
RTVSPost2010Prop32
280
     0
102
RTVSPost2010PropOp32
 70
     1
102
RTVSPost2010Prop33
280
     0
102
RTVSPost2010PropOp33
 70
     1
102
RTVSPost2010Prop34
280
     0
102
RTVSPost2010PropOp34
 70
     1
102
RTVSPost2010Prop35
280
     0
102
RTVSPost2010PropOp35
 70
     1
102
RTVSPost2010Prop36
280
     0
102
RTVSPost2010PropOp36
 70
     1
102
RTVSPost2010Prop37
 90
       50
102
RTVSPost2010PropOp37
 70
     1
102
RTVSPost2010Prop38
140
0.0
102
RTVSPost2010PropOp38
 70
     1
102
RTVSPost2010Prop39
140
1.0
102
RTVSPost2010PropOp39
 70
     1
102
RTVSPost2010Prop40
 90
        0
102
RTVSPost2010PropOp40
 70
     1
102
RTVSPost2010Prop41ColorIndex
 90
       18
102
RTVSPost2010Prop41ColorRGB
 90
        0
102
RTVSPost2010PropOp41
 70
     1
102
RTVSPost2010Prop42
 90
       50
102
RTVSPost2010PropOp42
 70
     1
102
RTVSPost2010Prop43
 90
        3
102
RTVSPost2010PropOp43
 70
     1
102
RTVSPost2010Prop44ColorIndex
 90
        5
102
RTVSPost2010Prop44ColorRGB
 90
      255
102
RTVSPost2010PropOp44
 70
     1
102
RTVSPost2010Prop45
280
     0
102
RTVSPost2010PropOp45
 70
     1
102
RTVSPost2010Prop46
 90
       50
102
RTVSPost2010PropOp46
 70
     1
102
RTVSPost2010Prop47
 90
       50
102
RTVSPost2010PropOp47
 70
     1
102
RTVSPost2010Prop48
 90
       50
102
RTVSPost2010PropOp48
 70
     1
102
RTVSPost2010Prop49
280
     0
102
RTVSPost2010PropOp49
 70
     1
102
RTVSPost2010Prop50
 90
       50
102
RTVSPost2010PropOp50
 70
     1
102
RTVSPost2010Prop51ColorIndex
 90
      256
102
RTVSPost2010Prop51ColorRGB
 90
-16777216
102
RTVSPost2010PropOp51
 70
     0
102
RTVSPost2010Prop52
140
1.0
102
RTVSPost2010PropOp52
 70
     0
102
RTVSPost2010Prop53
 90
        2
102
RTVSPost2010PropOp53
 70
     1
102
RTVSPost2010Prop54
  1
strokes_ogs.tif
102
RTVSPost2010PropOp54
 70
     1
102
RTVSPost2010Prop55
280
     0
102
RTVSPost2010PropOp55
 70
     1
102
RTVSPost2010Prop56
140
1.0
102
RTVSPost2010PropOp56
 70
     1
102
RTVSPost2010Prop57
140
1.0
102
RTVSPost2010PropOp57
 70
     1
102
RTVSPropertyOp0
 70
     1
102
RTVSPropertyOp1
 70
     1
102
RTVSPropertyOp2
 70
     1
102
RTVSPropertyOp3
 70
     1
102
RTVSPropertyOp4
 70
     1
102
RTVSPropertyOp5
 70
     1
102
RTVSPropertyOp6
 70
     1
102
RTVSPropertyOp7
 70
     1
102
RTVSPropertyOp8
 70
     1
102
RTVSPropertyOp9
 70
     1
102
RTVSPropertyOp10
 70
     1
102
RTVSPropertyOp11
 70
     1
102
RTVSPropertyOp12
 70
     1
102
RTVSPropertyOp13
 70
     1
102
RTVSPropertyOp14
 70
     1
102
RTVSPropertyOp15
 70
     1
102
RTVSPropertyOp16
 70
     1
102
RTVSPropertyOp17
 70
     1
102
RTVSPropertyOp18
 70
     1
102
RTVSPropertyOp19
 70
     1
102
RTVSPropertyOp20
 70
     1
102
RTVSPropertyOp21
 70
     1
102
RTVSPropertyOp22
 70
     1
102
RTVSPropertyOp23
 70
     1
102
RTVSPropertyOp24
 70
     1
102
RTVSPropertyOp25
 70
     1
102
RTVSPropertyOp26
 70
     1
102
RTVSPropertyOp27
 70
     1
102
RTVSPropertyOp28
 70
     1
102
RTVSPropertyOp29
 70
     1
102
RTVSPropertyOp30
 70
     1
102
RTVSPropertyOp31
 70
     1
102
RTVSPropertyOp32
 70
     1
102
RTVSPropertyOp33
 70
     1
102
RTVSPropertyOp34
 70
     1
102
RTVSPropertyOp35
 70
     1
102
RTVSPropertyOp36
 70
     1
102
RTVSPropertyOp37
 70
     1
102
RTVSPropertyOp38
 70
     1
102
RTVSPropertyOp39
 70
     1
102
RTVSPropertyOp40
 70
     1
102
RTVSPropertyOp41
 70
     1
102
RTVSPropertyOp42
 70
     1
102
RTVSPropertyOp43
 70
     1
102
RTVSPropertyOp44
 70
     1
102
RTVSPropertyOp45
 70
     1
102
RTVSPropertyOp46
 70
     1
102
RTVSPropertyOp47
 70
     1
102
RTVSPropertyOp48
 70
     1
102
RTVSPropertyOp49
 70
     1
102
RTVSPropertyOp50
 70
     1
102
RTVSPropertyOp51
 70
     0
102
RTVSPropertyOp52
 70
     0
102
RTVSPropertyOp53
 70
     1
102
RTVSPropertyOp54
 70
     1
102
RTVSPropertyOp55
 70
     1
102
RTVSPropertyOp56
 70
     1
102
RTVSPropertyOp57
 70
     1
102
RTVSPropertyOp58
 70
     1
102
RTVSPropertyOp59
 70
     1
102
RTVSPropertyOp60
 70
     1
102
RTVSPropertyOp61
 70
     1
102
RTVSPropertyOp62
 70
     1
  0
XRECORD
  5
4FBB
102
{ACAD_REACTORS
330
4FBA
102
}
330
4FBA
100
AcDbXrecord
280
     1
102
RTVSPost2010Prop28
280
     0
102
RTVSPost2010PropOp28
 70
     1
102
RTVSPost2010Prop29
280
     1
102
RTVSPost2010PropOp29
 70
     1
102
RTVSPost2010Prop30
280
     1
102
RTVSPost2010PropOp30
 70
     1
102
RTVSPost2010Prop31
280
     0
102
RTVSPost2010PropOp31
 70
     1
102
RTVSPost2010Prop32
280
     0
102
RTVSPost2010PropOp32
 70
     1
102
RTVSPost2010Prop33
280
     0
102
RTVSPost2010PropOp33
 70
     1
102
RTVSPost2010Prop34
280
     0
102
RTVSPost2010PropOp34
 70
     1
102
RTVSPost2010Prop35
280
     0
102
RTVSPost2010PropOp35
 70
     1
102
RTVSPost2010Prop36
280
     0
102
RTVSPost2010PropOp36
 70
     1
102
RTVSPost2010Prop37
 90
       50
102
RTVSPost2010PropOp37
 70
     1
102
RTVSPost2010Prop38
140
0.0
102
RTVSPost2010PropOp38
 70
     1
102
RTVSPost2010Prop39
140
1.0
102
RTVSPost2010PropOp39
 70
     1
102
RTVSPost2010Prop40
 90
        0
102
RTVSPost2010PropOp40
 70
     1
102
RTVSPost2010Prop41ColorIndex
 90
       18
102
RTVSPost2010Prop41ColorRGB
 90
        0
102
RTVSPost2010PropOp41
 70
     1
102
RTVSPost2010Prop42
 90
       50
102
RTVSPost2010PropOp42
 70
     1
102
RTVSPost2010Prop43
 90
        3
102
RTVSPost2010PropOp43
 70
     1
102
RTVSPost2010Prop44ColorIndex
 90
        5
102
RTVSPost2010Prop44ColorRGB
 90
      255
102
RTVSPost2010PropOp44
 70
     1
102
RTVSPost2010Prop45
280
     0
102
RTVSPost2010PropOp45
 70
     1
102
RTVSPost2010Prop46
 90
       50
102
RTVSPost2010PropOp46
 70
     1
102
RTVSPost2010Prop47
 90
       50
102
RTVSPost2010PropOp47
 70
     1
102
RTVSPost2010Prop48
 90
       50
102
RTVSPost2010PropOp48
 70
     1
102
RTVSPost2010Prop49
280
     0
102
RTVSPost2010PropOp49
 70
     1
102
RTVSPost2010Prop50
 90
       50
102
RTVSPost2010PropOp50
 70
     1
102
RTVSPost2010Prop51ColorIndex
 90
      256
102
RTVSPost2010Prop51ColorRGB
 90
-16777216
102
RTVSPost2010PropOp51
 70
     0
102
RTVSPost2010Prop52
140
1.0
102
RTVSPost2010PropOp52
 70
     0
102
RTVSPost2010Prop53
 90
        2
102
RTVSPost2010PropOp53
 70
     1
102
RTVSPost2010Prop54
  1
strokes_ogs.tif
102
RTVSPost2010PropOp54
 70
     1
102
RTVSPost2010Prop55
280
     0
102
RTVSPost2010PropOp55
 70
     1
102
RTVSPost2010Prop56
140
1.0
102
RTVSPost2010PropOp56
 70
     1
102
RTVSPost2010Prop57
140
1.0
102
RTVSPost2010PropOp57
 70
     1
102
RTVSPropertyOp0
 70
     1
102
RTVSPropertyOp1
 70
     1
102
RTVSPropertyOp2
 70
     1
102
RTVSPropertyOp3
 70
     1
102
RTVSPropertyOp4
 70
     1
102
RTVSPropertyOp5
 70
     1
102
RTVSPropertyOp6
 70
     1
102
RTVSPropertyOp7
 70
     1
102
RTVSPropertyOp8
 70
     1
102
RTVSPropertyOp9
 70
     1
102
RTVSPropertyOp10
 70
     1
102
RTVSPropertyOp11
 70
     1
102
RTVSPropertyOp12
 70
     1
102
RTVSPropertyOp13
 70
     1
102
RTVSPropertyOp14
 70
     1
102
RTVSPropertyOp15
 70
     1
102
RTVSPropertyOp16
 70
     1
102
RTVSPropertyOp17
 70
     1
102
RTVSPropertyOp18
 70
     1
102
RTVSPropertyOp19
 70
     1
102
RTVSPropertyOp20
 70
     1
102
RTVSPropertyOp21
 70
     1
102
RTVSPropertyOp22
 70
     1
102
RTVSPropertyOp23
 70
     1
102
RTVSPropertyOp24
 70
     1
102
RTVSPropertyOp25
 70
     1
102
RTVSPropertyOp26
 70
     1
102
RTVSPropertyOp27
 70
     1
102
RTVSPropertyOp28
 70
     1
102
RTVSPropertyOp29
 70
     1
102
RTVSPropertyOp30
 70
     1
102
RTVSPropertyOp31
 70
     1
102
RTVSPropertyOp32
 70
     1
102
RTVSPropertyOp33
 70
     1
102
RTVSPropertyOp34
 70
     1
102
RTVSPropertyOp35
 70
     1
102
RTVSPropertyOp36
 70
     1
102
RTVSPropertyOp37
 70
     1
102
RTVSPropertyOp38
 70
     1
102
RTVSPropertyOp39
 70
     1
102
RTVSPropertyOp40
 70
     1
102
RTVSPropertyOp41
 70
     1
102
RTVSPropertyOp42
 70
     1
102
RTVSPropertyOp43
 70
     1
102
RTVSPropertyOp44
 70
     1
102
RTVSPropertyOp45
 70
     1
102
RTVSPropertyOp46
 70
     1
102
RTVSPropertyOp47
 70
     1
102
RTVSPropertyOp48
 70
     1
102
RTVSPropertyOp49
 70
     1
102
RTVSPropertyOp50
 70
     1
102
RTVSPropertyOp51
 70
     0
102
RTVSPropertyOp52
 70
     0
102
RTVSPropertyOp53
 70
     1
102
RTVSPropertyOp54
 70
     1
102
RTVSPropertyOp55
 70
     1
102
RTVSPropertyOp56
 70
     1
102
RTVSPropertyOp57
 70
     1
102
RTVSPropertyOp58
 70
     1
102
RTVSPropertyOp59
 70
     1
102
RTVSPropertyOp60
 70
     1
102
RTVSPropertyOp61
 70
     1
102
RTVSPropertyOp62
 70
     1
  0
XRECORD
  5
4FC3
102
{ACAD_REACTORS
330
4FC2
102
}
330
4FC2
100
AcDbXrecord
280
     1
102
RTVSPost2010Prop28
280
     0
102
RTVSPost2010PropOp28
 70
     1
102
RTVSPost2010Prop29
280
     1
102
RTVSPost2010PropOp29
 70
     1
102
RTVSPost2010Prop30
280
     1
102
RTVSPost2010PropOp30
 70
     1
102
RTVSPost2010Prop31
280
     0
102
RTVSPost2010PropOp31
 70
     1
102
RTVSPost2010Prop32
280
     0
102
RTVSPost2010PropOp32
 70
     1
102
RTVSPost2010Prop33
280
     0
102
RTVSPost2010PropOp33
 70
     1
102
RTVSPost2010Prop34
280
     0
102
RTVSPost2010PropOp34
 70
     1
102
RTVSPost2010Prop35
280
     0
102
RTVSPost2010PropOp35
 70
     1
102
RTVSPost2010Prop36
280
     0
102
RTVSPost2010PropOp36
 70
     1
102
RTVSPost2010Prop37
 90
       50
102
RTVSPost2010PropOp37
 70
     1
102
RTVSPost2010Prop38
140
0.0
102
RTVSPost2010PropOp38
 70
     1
102
RTVSPost2010Prop39
140
1.0
102
RTVSPost2010PropOp39
 70
     1
102
RTVSPost2010Prop40
 90
        0
102
RTVSPost2010PropOp40
 70
     1
102
RTVSPost2010Prop41ColorIndex
 90
       18
102
RTVSPost2010Prop41ColorRGB
 90
        0
102
RTVSPost2010PropOp41
 70
     1
102
RTVSPost2010Prop42
 90
       50
102
RTVSPost2010PropOp42
 70
     1
102
RTVSPost2010Prop43
 90
        3
102
RTVSPost2010PropOp43
 70
     1
102
RTVSPost2010Prop44ColorIndex
 90
        5
102
RTVSPost2010Prop44ColorRGB
 90
      255
102
RTVSPost2010PropOp44
 70
     1
102
RTVSPost2010Prop45
280
     0
102
RTVSPost2010PropOp45
 70
     1
102
RTVSPost2010Prop46
 90
       50
102
RTVSPost2010PropOp46
 70
     1
102
RTVSPost2010Prop47
 90
       50
102
RTVSPost2010PropOp47
 70
     1
102
RTVSPost2010Prop48
 90
       50
102
RTVSPost2010PropOp48
 70
     1
102
RTVSPost2010Prop49
280
     0
102
RTVSPost2010PropOp49
 70
     1
102
RTVSPost2010Prop50
 90
       50
102
RTVSPost2010PropOp50
 70
     1
102
RTVSPost2010Prop51ColorIndex
 90
      256
102
RTVSPost2010Prop51ColorRGB
 90
-16777216
102
RTVSPost2010PropOp51
 70
     0
102
RTVSPost2010Prop52
140
1.0
102
RTVSPost2010PropOp52
 70
     0
102
RTVSPost2010Prop53
 90
        2
102
RTVSPost2010PropOp53
 70
     1
102
RTVSPost2010Prop54
  1
strokes_ogs.tif
102
RTVSPost2010PropOp54
 70
     1
102
RTVSPost2010Prop55
280
     0
102
RTVSPost2010PropOp55
 70
     1
102
RTVSPost2010Prop56
140
1.0
102
RTVSPost2010PropOp56
 70
     1
102
RTVSPost2010Prop57
140
1.0
102
RTVSPost2010PropOp57
 70
     1
102
RTVSPropertyOp0
 70
     1
102
RTVSPropertyOp1
 70
     1
102
RTVSPropertyOp2
 70
     1
102
RTVSPropertyOp3
 70
     1
102
RTVSPropertyOp4
 70
     1
102
RTVSPropertyOp5
 70
     1
102
RTVSPropertyOp6
 70
     1
102
RTVSPropertyOp7
 70
     1
102
RTVSPropertyOp8
 70
     1
102
RTVSPropertyOp9
 70
     1
102
RTVSPropertyOp10
 70
     1
102
RTVSPropertyOp11
 70
     1
102
RTVSPropertyOp12
 70
     1
102
RTVSPropertyOp13
 70
     1
102
RTVSPropertyOp14
 70
     1
102
RTVSPropertyOp15
 70
     1
102
RTVSPropertyOp16
 70
     1
102
RTVSPropertyOp17
 70
     1
102
RTVSPropertyOp18
 70
     1
102
RTVSPropertyOp19
 70
     1
102
RTVSPropertyOp20
 70
     1
102
RTVSPropertyOp21
 70
     1
102
RTVSPropertyOp22
 70
     1
102
RTVSPropertyOp23
 70
     1
102
RTVSPropertyOp24
 70
     1
102
RTVSPropertyOp25
 70
     1
102
RTVSPropertyOp26
 70
     1
102
RTVSPropertyOp27
 70
     1
102
RTVSPropertyOp28
 70
     1
102
RTVSPropertyOp29
 70
     1
102
RTVSPropertyOp30
 70
     1
102
RTVSPropertyOp31
 70
     1
102
RTVSPropertyOp32
 70
     1
102
RTVSPropertyOp33
 70
     1
102
RTVSPropertyOp34
 70
     1
102
RTVSPropertyOp35
 70
     1
102
RTVSPropertyOp36
 70
     1
102
RTVSPropertyOp37
 70
     1
102
RTVSPropertyOp38
 70
     1
102
RTVSPropertyOp39
 70
     1
102
RTVSPropertyOp40
 70
     1
102
RTVSPropertyOp41
 70
     1
102
RTVSPropertyOp42
 70
     1
102
RTVSPropertyOp43
 70
     1
102
RTVSPropertyOp44
 70
     1
102
RTVSPropertyOp45
 70
     1
102
RTVSPropertyOp46
 70
     1
102
RTVSPropertyOp47
 70
     1
102
RTVSPropertyOp48
 70
     1
102
RTVSPropertyOp49
 70
     1
102
RTVSPropertyOp50
 70
     1
102
RTVSPropertyOp51
 70
     0
102
RTVSPropertyOp52
 70
     0
102
RTVSPropertyOp53
 70
     1
102
RTVSPropertyOp54
 70
     1
102
RTVSPropertyOp55
 70
     1
102
RTVSPropertyOp56
 70
     1
102
RTVSPropertyOp57
 70
     1
102
RTVSPropertyOp58
 70
     1
102
RTVSPropertyOp59
 70
     1
102
RTVSPropertyOp60
 70
     1
102
RTVSPropertyOp61
 70
     1
102
RTVSPropertyOp62
 70
     1
  0
XRECORD
  5
4FDF
102
{ACAD_REACTORS
330
4FDE
102
}
330
4FDE
100
AcDbXrecord
280
     1
102
RTVSPost2010Prop28
280
     0
102
RTVSPost2010PropOp28
 70
     0
102
RTVSPost2010Prop29
280
     1
102
RTVSPost2010PropOp29
 70
     0
102
RTVSPost2010Prop30
280
     1
102
RTVSPost2010PropOp30
 70
     0
102
RTVSPost2010Prop31
280
     0
102
RTVSPost2010PropOp31
 70
     0
102
RTVSPost2010Prop32
280
     0
102
RTVSPost2010PropOp32
 70
     0
102
RTVSPost2010Prop33
280
     0
102
RTVSPost2010PropOp33
 70
     0
102
RTVSPost2010Prop34
280
     0
102
RTVSPost2010PropOp34
 70
     0
102
RTVSPost2010Prop35
280
     0
102
RTVSPost2010PropOp35
 70
     0
102
RTVSPost2010Prop36
280
     0
102
RTVSPost2010PropOp36
 70
     0
102
RTVSPost2010Prop37
 90
       50
102
RTVSPost2010PropOp37
 70
     0
102
RTVSPost2010Prop38
140
0.0
102
RTVSPost2010PropOp38
 70
     0
102
RTVSPost2010Prop39
140
1.0
102
RTVSPost2010PropOp39
 70
     0
102
RTVSPost2010Prop40
 90
        0
102
RTVSPost2010PropOp40
 70
     0
102
RTVSPost2010Prop41ColorIndex
 90
       18
102
RTVSPost2010Prop41ColorRGB
 90
        0
102
RTVSPost2010PropOp41
 70
     0
102
RTVSPost2010Prop42
 90
       50
102
RTVSPost2010PropOp42
 70
     0
102
RTVSPost2010Prop43
 90
        3
102
RTVSPost2010PropOp43
 70
     0
102
RTVSPost2010Prop44ColorIndex
 90
        5
102
RTVSPost2010Prop44ColorRGB
 90
      255
102
RTVSPost2010PropOp44
 70
     0
102
RTVSPost2010Prop45
280
     0
102
RTVSPost2010PropOp45
 70
     0
102
RTVSPost2010Prop46
 90
       50
102
RTVSPost2010PropOp46
 70
     0
102
RTVSPost2010Prop47
 90
       50
102
RTVSPost2010PropOp47
 70
     0
102
RTVSPost2010Prop48
 90
       50
102
RTVSPost2010PropOp48
 70
     0
102
RTVSPost2010Prop49
280
     0
102
RTVSPost2010PropOp49
 70
     0
102
RTVSPost2010Prop50
 90
       50
102
RTVSPost2010PropOp50
 70
     0
102
RTVSPost2010Prop51ColorIndex
 90
      256
102
RTVSPost2010Prop51ColorRGB
 90
-16777216
102
RTVSPost2010PropOp51
 70
     0
102
RTVSPost2010Prop52
140
1.0
102
RTVSPost2010PropOp52
 70
     0
102
RTVSPost2010Prop53
 90
        2
102
RTVSPost2010PropOp53
 70
     0
102
RTVSPost2010Prop54
  1
strokes_ogs.tif
102
RTVSPost2010PropOp54
 70
     0
102
RTVSPost2010Prop55
280
     0
102
RTVSPost2010PropOp55
 70
     0
102
RTVSPost2010Prop56
140
1.0
102
RTVSPost2010PropOp56
 70
     0
102
RTVSPost2010Prop57
140
1.0
102
RTVSPost2010PropOp57
 70
     0
102
RTVSPropertyOp0
 70
     0
102
RTVSPropertyOp1
 70
     0
102
RTVSPropertyOp2
 70
     0
102
RTVSPropertyOp3
 70
     0
102
RTVSPropertyOp4
 70
     0
102
RTVSPropertyOp5
 70
     0
102
RTVSPropertyOp6
 70
     0
102
RTVSPropertyOp7
 70
     0
102
RTVSPropertyOp8
 70
     0
102
RTVSPropertyOp9
 70
     0
102
RTVSPropertyOp10
 70
     0
102
RTVSPropertyOp11
 70
     0
102
RTVSPropertyOp12
 70
     0
102
RTVSPropertyOp13
 70
     0
102
RTVSPropertyOp14
 70
     2
102
RTVSPropertyOp15
 70
     0
102
RTVSPropertyOp16
 70
     0
102
RTVSPropertyOp17
 70
     0
102
RTVSPropertyOp18
 70
     0
102
RTVSPropertyOp19
 70
     0
102
RTVSPropertyOp20
 70
     0
102
RTVSPropertyOp21
 70
     0
102
RTVSPropertyOp22
 70
     0
102
RTVSPropertyOp23
 70
     0
102
RTVSPropertyOp24
 70
     0
102
RTVSPropertyOp25
 70
     0
102
RTVSPropertyOp26
 70
     0
102
RTVSPropertyOp27
 70
     0
102
RTVSPropertyOp28
 70
     0
102
RTVSPropertyOp29
 70
     0
102
RTVSPropertyOp30
 70
     0
102
RTVSPropertyOp31
 70
     0
102
RTVSPropertyOp32
 70
     0
102
RTVSPropertyOp33
 70
     0
102
RTVSPropertyOp34
 70
     0
102
RTVSPropertyOp35
 70
     0
102
RTVSPropertyOp36
 70
     0
102
RTVSPropertyOp37
 70
     0
102
RTVSPropertyOp38
 70
     0
102
RTVSPropertyOp39
 70
     0
102
RTVSPropertyOp40
 70
     0
102
RTVSPropertyOp41
 70
     0
102
RTVSPropertyOp42
 70
     0
102
RTVSPropertyOp43
 70
     0
102
RTVSPropertyOp44
 70
     0
102
RTVSPropertyOp45
 70
     0
102
RTVSPropertyOp46
 70
     0
102
RTVSPropertyOp47
 70
     0
102
RTVSPropertyOp48
 70
     0
102
RTVSPropertyOp49
 70
     0
102
RTVSPropertyOp50
 70
     0
102
RTVSPropertyOp51
 70
     0
102
RTVSPropertyOp52
 70
     0
102
RTVSPropertyOp53
 70
     0
102
RTVSPropertyOp54
 70
     0
102
RTVSPropertyOp55
 70
     0
102
RTVSPropertyOp56
 70
     0
102
RTVSPropertyOp57
 70
     0
102
RTVSPropertyOp58
 70
     1
102
RTVSPropertyOp59
 70
     1
102
RTVSPropertyOp60
 70
     1
102
RTVSPropertyOp61
 70
     1
102
RTVSPropertyOp62
 70
     1
  0
XRECORD
  5
4FCF
102
{ACAD_REACTORS
330
4FCE
102
}
330
4FCE
100
AcDbXrecord
280
     1
102
RTVSPost2010Prop28
280
     0
102
RTVSPost2010PropOp28
 70
     1
102
RTVSPost2010Prop29
280
     1
102
RTVSPost2010PropOp29
 70
     1
102
RTVSPost2010Prop30
280
     1
102
RTVSPost2010PropOp30
 70
     1
102
RTVSPost2010Prop31
280
     0
102
RTVSPost2010PropOp31
 70
     1
102
RTVSPost2010Prop32
280
     0
102
RTVSPost2010PropOp32
 70
     1
102
RTVSPost2010Prop33
280
     0
102
RTVSPost2010PropOp33
 70
     1
102
RTVSPost2010Prop34
280
     0
102
RTVSPost2010PropOp34
 70
     1
102
RTVSPost2010Prop35
280
     0
102
RTVSPost2010PropOp35
 70
     1
102
RTVSPost2010Prop36
280
     0
102
RTVSPost2010PropOp36
 70
     1
102
RTVSPost2010Prop37
 90
       50
102
RTVSPost2010PropOp37
 70
     1
102
RTVSPost2010Prop38
140
0.0
102
RTVSPost2010PropOp38
 70
     1
102
RTVSPost2010Prop39
140
1.0
102
RTVSPost2010PropOp39
 70
     1
102
RTVSPost2010Prop40
 90
        0
102
RTVSPost2010PropOp40
 70
     1
102
RTVSPost2010Prop41ColorIndex
 90
       18
102
RTVSPost2010Prop41ColorRGB
 90
        0
102
RTVSPost2010PropOp41
 70
     1
102
RTVSPost2010Prop42
 90
       50
102
RTVSPost2010PropOp42
 70
     1
102
RTVSPost2010Prop43
 90
        3
102
RTVSPost2010PropOp43
 70
     1
102
RTVSPost2010Prop44ColorIndex
 90
        5
102
RTVSPost2010Prop44ColorRGB
 90
      255
102
RTVSPost2010PropOp44
 70
     1
102
RTVSPost2010Prop45
280
     0
102
RTVSPost2010PropOp45
 70
     1
102
RTVSPost2010Prop46
 90
       50
102
RTVSPost2010PropOp46
 70
     1
102
RTVSPost2010Prop47
 90
       50
102
RTVSPost2010PropOp47
 70
     1
102
RTVSPost2010Prop48
 90
       50
102
RTVSPost2010PropOp48
 70
     1
102
RTVSPost2010Prop49
280
     0
102
RTVSPost2010PropOp49
 70
     1
102
RTVSPost2010Prop50
 90
       50
102
RTVSPost2010PropOp50
 70
     1
102
RTVSPost2010Prop51ColorIndex
 90
      256
102
RTVSPost2010Prop51ColorRGB
 90
-16777216
102
RTVSPost2010PropOp51
 70
     0
102
RTVSPost2010Prop52
140
1.0
102
RTVSPost2010PropOp52
 70
     0
102
RTVSPost2010Prop53
 90
        2
102
RTVSPost2010PropOp53
 70
     1
102
RTVSPost2010Prop54
  1
strokes_ogs.tif
102
RTVSPost2010PropOp54
 70
     1
102
RTVSPost2010Prop55
280
     0
102
RTVSPost2010PropOp55
 70
     1
102
RTVSPost2010Prop56
140
1.0
102
RTVSPost2010PropOp56
 70
     1
102
RTVSPost2010Prop57
140
1.0
102
RTVSPost2010PropOp57
 70
     1
102
RTVSPropertyOp0
 70
     1
102
RTVSPropertyOp1
 70
     1
102
RTVSPropertyOp2
 70
     1
102
RTVSPropertyOp3
 70
     1
102
RTVSPropertyOp4
 70
     1
102
RTVSPropertyOp5
 70
     1
102
RTVSPropertyOp6
 70
     1
102
RTVSPropertyOp7
 70
     1
102
RTVSPropertyOp8
 70
     1
102
RTVSPropertyOp9
 70
     1
102
RTVSPropertyOp10
 70
     1
102
RTVSPropertyOp11
 70
     1
102
RTVSPropertyOp12
 70
     1
102
RTVSPropertyOp13
 70
     1
102
RTVSPropertyOp14
 70
     1
102
RTVSPropertyOp15
 70
     1
102
RTVSPropertyOp16
 70
     1
102
RTVSPropertyOp17
 70
     1
102
RTVSPropertyOp18
 70
     1
102
RTVSPropertyOp19
 70
     1
102
RTVSPropertyOp20
 70
     1
102
RTVSPropertyOp21
 70
     1
102
RTVSPropertyOp22
 70
     1
102
RTVSPropertyOp23
 70
     1
102
RTVSPropertyOp24
 70
     1
102
RTVSPropertyOp25
 70
     1
102
RTVSPropertyOp26
 70
     1
102
RTVSPropertyOp27
 70
     1
102
RTVSPropertyOp28
 70
     1
102
RTVSPropertyOp29
 70
     1
102
RTVSPropertyOp30
 70
     1
102
RTVSPropertyOp31
 70
     1
102
RTVSPropertyOp32
 70
     1
102
RTVSPropertyOp33
 70
     1
102
RTVSPropertyOp34
 70
     1
102
RTVSPropertyOp35
 70
     1
102
RTVSPropertyOp36
 70
     1
102
RTVSPropertyOp37
 70
     1
102
RTVSPropertyOp38
 70
     1
102
RTVSPropertyOp39
 70
     1
102
RTVSPropertyOp40
 70
     1
102
RTVSPropertyOp41
 70
     1
102
RTVSPropertyOp42
 70
     1
102
RTVSPropertyOp43
 70
     1
102
RTVSPropertyOp44
 70
     1
102
RTVSPropertyOp45
 70
     1
102
RTVSPropertyOp46
 70
     1
102
RTVSPropertyOp47
 70
     1
102
RTVSPropertyOp48
 70
     1
102
RTVSPropertyOp49
 70
     1
102
RTVSPropertyOp50
 70
     1
102
RTVSPropertyOp51
 70
     0
102
RTVSPropertyOp52
 70
     0
102
RTVSPropertyOp53
 70
     1
102
RTVSPropertyOp54
 70
     1
102
RTVSPropertyOp55
 70
     1
102
RTVSPropertyOp56
 70
     1
102
RTVSPropertyOp57
 70
     1
102
RTVSPropertyOp58
 70
     1
102
RTVSPropertyOp59
 70
     1
102
RTVSPropertyOp60
 70
     1
102
RTVSPropertyOp61
 70
     1
102
RTVSPropertyOp62
 70
     1
  0
XRECORD
  5
4FE1
102
{ACAD_REACTORS
330
4FE0
102
}
330
4FE0
100
AcDbXrecord
280
     1
102
RTVSPost2010Prop28
280
     0
102
RTVSPost2010PropOp28
 70
     0
102
RTVSPost2010Prop29
280
     1
102
RTVSPost2010PropOp29
 70
     0
102
RTVSPost2010Prop30
280
     1
102
RTVSPost2010PropOp30
 70
     0
102
RTVSPost2010Prop31
280
     0
102
RTVSPost2010PropOp31
 70
     0
102
RTVSPost2010Prop32
280
     0
102
RTVSPost2010PropOp32
 70
     0
102
RTVSPost2010Prop33
280
     0
102
RTVSPost2010PropOp33
 70
     0
102
RTVSPost2010Prop34
280
     0
102
RTVSPost2010PropOp34
 70
     0
102
RTVSPost2010Prop35
280
     0
102
RTVSPost2010PropOp35
 70
     0
102
RTVSPost2010Prop36
280
     0
102
RTVSPost2010PropOp36
 70
     0
102
RTVSPost2010Prop37
 90
       50
102
RTVSPost2010PropOp37
 70
     0
102
RTVSPost2010Prop38
140
0.0
102
RTVSPost2010PropOp38
 70
     0
102
RTVSPost2010Prop39
140
1.0
102
RTVSPost2010PropOp39
 70
     0
102
RTVSPost2010Prop40
 90
        0
102
RTVSPost2010PropOp40
 70
     0
102
RTVSPost2010Prop41ColorIndex
 90
       18
102
RTVSPost2010Prop41ColorRGB
 90
        0
102
RTVSPost2010PropOp41
 70
     0
102
RTVSPost2010Prop42
 90
       50
102
RTVSPost2010PropOp42
 70
     0
102
RTVSPost2010Prop43
 90
        3
102
RTVSPost2010PropOp43
 70
     0
102
RTVSPost2010Prop44ColorIndex
 90
        5
102
RTVSPost2010Prop44ColorRGB
 90
      255
102
RTVSPost2010PropOp44
 70
     0
102
RTVSPost2010Prop45
280
     0
102
RTVSPost2010PropOp45
 70
     0
102
RTVSPost2010Prop46
 90
       50
102
RTVSPost2010PropOp46
 70
     0
102
RTVSPost2010Prop47
 90
       50
102
RTVSPost2010PropOp47
 70
     0
102
RTVSPost2010Prop48
 90
       50
102
RTVSPost2010PropOp48
 70
     0
102
RTVSPost2010Prop49
280
     0
102
RTVSPost2010PropOp49
 70
     0
102
RTVSPost2010Prop50
 90
       50
102
RTVSPost2010PropOp50
 70
     0
102
RTVSPost2010Prop51ColorIndex
 90
      256
102
RTVSPost2010Prop51ColorRGB
 90
-16777216
102
RTVSPost2010PropOp51
 70
     0
102
RTVSPost2010Prop52
140
1.0
102
RTVSPost2010PropOp52
 70
     0
102
RTVSPost2010Prop53
 90
        2
102
RTVSPost2010PropOp53
 70
     0
102
RTVSPost2010Prop54
  1
strokes_ogs.tif
102
RTVSPost2010PropOp54
 70
     0
102
RTVSPost2010Prop55
280
     0
102
RTVSPost2010PropOp55
 70
     0
102
RTVSPost2010Prop56
140
1.0
102
RTVSPost2010PropOp56
 70
     0
102
RTVSPost2010Prop57
140
1.0
102
RTVSPost2010PropOp57
 70
     0
102
RTVSPropertyOp0
 70
     0
102
RTVSPropertyOp1
 70
     0
102
RTVSPropertyOp2
 70
     0
102
RTVSPropertyOp3
 70
     0
102
RTVSPropertyOp4
 70
     0
102
RTVSPropertyOp5
 70
     0
102
RTVSPropertyOp6
 70
     0
102
RTVSPropertyOp7
 70
     0
102
RTVSPropertyOp8
 70
     0
102
RTVSPropertyOp9
 70
     0
102
RTVSPropertyOp10
 70
     0
102
RTVSPropertyOp11
 70
     0
102
RTVSPropertyOp12
 70
     0
102
RTVSPropertyOp13
 70
     0
102
RTVSPropertyOp14
 70
     2
102
RTVSPropertyOp15
 70
     0
102
RTVSPropertyOp16
 70
     0
102
RTVSPropertyOp17
 70
     0
102
RTVSPropertyOp18
 70
     0
102
RTVSPropertyOp19
 70
     0
102
RTVSPropertyOp20
 70
     0
102
RTVSPropertyOp21
 70
     0
102
RTVSPropertyOp22
 70
     0
102
RTVSPropertyOp23
 70
     0
102
RTVSPropertyOp24
 70
     0
102
RTVSPropertyOp25
 70
     0
102
RTVSPropertyOp26
 70
     0
102
RTVSPropertyOp27
 70
     0
102
RTVSPropertyOp28
 70
     0
102
RTVSPropertyOp29
 70
     0
102
RTVSPropertyOp30
 70
     0
102
RTVSPropertyOp31
 70
     0
102
RTVSPropertyOp32
 70
     0
102
RTVSPropertyOp33
 70
     0
102
RTVSPropertyOp34
 70
     0
102
RTVSPropertyOp35
 70
     0
102
RTVSPropertyOp36
 70
     0
102
RTVSPropertyOp37
 70
     0
102
RTVSPropertyOp38
 70
     0
102
RTVSPropertyOp39
 70
     0
102
RTVSPropertyOp40
 70
     0
102
RTVSPropertyOp41
 70
     0
102
RTVSPropertyOp42
 70
     0
102
RTVSPropertyOp43
 70
     0
102
RTVSPropertyOp44
 70
     0
102
RTVSPropertyOp45
 70
     0
102
RTVSPropertyOp46
 70
     0
102
RTVSPropertyOp47
 70
     0
102
RTVSPropertyOp48
 70
     0
102
RTVSPropertyOp49
 70
     0
102
RTVSPropertyOp50
 70
     0
102
RTVSPropertyOp51
 70
     0
102
RTVSPropertyOp52
 70
     0
102
RTVSPropertyOp53
 70
     0
102
RTVSPropertyOp54
 70
     0
102
RTVSPropertyOp55
 70
     0
102
RTVSPropertyOp56
 70
     0
102
RTVSPropertyOp57
 70
     0
102
RTVSPropertyOp58
 70
     1
102
RTVSPropertyOp59
 70
     1
102
RTVSPropertyOp60
 70
     1
102
RTVSPropertyOp61
 70
     1
102
RTVSPropertyOp62
 70
     1
  0
XRECORD
  5
4FC7
102
{ACAD_REACTORS
330
4FC6
102
}
330
4FC6
100
AcDbXrecord
280
     1
102
RTVSPost2010Prop28
280
     0
102
RTVSPost2010PropOp28
 70
     1
102
RTVSPost2010Prop29
280
     1
102
RTVSPost2010PropOp29
 70
     1
102
RTVSPost2010Prop30
280
     1
102
RTVSPost2010PropOp30
 70
     1
102
RTVSPost2010Prop31
280
     0
102
RTVSPost2010PropOp31
 70
     1
102
RTVSPost2010Prop32
280
     0
102
RTVSPost2010PropOp32
 70
     1
102
RTVSPost2010Prop33
280
     0
102
RTVSPost2010PropOp33
 70
     1
102
RTVSPost2010Prop34
280
     0
102
RTVSPost2010PropOp34
 70
     1
102
RTVSPost2010Prop35
280
     0
102
RTVSPost2010PropOp35
 70
     1
102
RTVSPost2010Prop36
280
     0
102
RTVSPost2010PropOp36
 70
     1
102
RTVSPost2010Prop37
 90
       50
102
RTVSPost2010PropOp37
 70
     1
102
RTVSPost2010Prop38
140
0.0
102
RTVSPost2010PropOp38
 70
     1
102
RTVSPost2010Prop39
140
1.0
102
RTVSPost2010PropOp39
 70
     1
102
RTVSPost2010Prop40
 90
        0
102
RTVSPost2010PropOp40
 70
     1
102
RTVSPost2010Prop41ColorIndex
 90
       18
102
RTVSPost2010Prop41ColorRGB
 90
        0
102
RTVSPost2010PropOp41
 70
     1
102
RTVSPost2010Prop42
 90
       50
102
RTVSPost2010PropOp42
 70
     1
102
RTVSPost2010Prop43
 90
        3
102
RTVSPost2010PropOp43
 70
     1
102
RTVSPost2010Prop44ColorIndex
 90
        5
102
RTVSPost2010Prop44ColorRGB
 90
      255
102
RTVSPost2010PropOp44
 70
     1
102
RTVSPost2010Prop45
280
     0
102
RTVSPost2010PropOp45
 70
     1
102
RTVSPost2010Prop46
 90
       50
102
RTVSPost2010PropOp46
 70
     1
102
RTVSPost2010Prop47
 90
       50
102
RTVSPost2010PropOp47
 70
     1
102
RTVSPost2010Prop48
 90
       50
102
RTVSPost2010PropOp48
 70
     1
102
RTVSPost2010Prop49
280
     0
102
RTVSPost2010PropOp49
 70
     1
102
RTVSPost2010Prop50
 90
       50
102
RTVSPost2010PropOp50
 70
     1
102
RTVSPost2010Prop51ColorIndex
 90
      256
102
RTVSPost2010Prop51ColorRGB
 90
-16777216
102
RTVSPost2010PropOp51
 70
     0
102
RTVSPost2010Prop52
140
1.0
102
RTVSPost2010PropOp52
 70
     0
102
RTVSPost2010Prop53
 90
        2
102
RTVSPost2010PropOp53
 70
     1
102
RTVSPost2010Prop54
  1
strokes_ogs.tif
102
RTVSPost2010PropOp54
 70
     1
102
RTVSPost2010Prop55
280
     0
102
RTVSPost2010PropOp55
 70
     1
102
RTVSPost2010Prop56
140
1.0
102
RTVSPost2010PropOp56
 70
     1
102
RTVSPost2010Prop57
140
1.0
102
RTVSPost2010PropOp57
 70
     1
102
RTVSPropertyOp0
 70
     1
102
RTVSPropertyOp1
 70
     1
102
RTVSPropertyOp2
 70
     1
102
RTVSPropertyOp3
 70
     1
102
RTVSPropertyOp4
 70
     1
102
RTVSPropertyOp5
 70
     1
102
RTVSPropertyOp6
 70
     1
102
RTVSPropertyOp7
 70
     1
102
RTVSPropertyOp8
 70
     1
102
RTVSPropertyOp9
 70
     1
102
RTVSPropertyOp10
 70
     1
102
RTVSPropertyOp11
 70
     1
102
RTVSPropertyOp12
 70
     1
102
RTVSPropertyOp13
 70
     1
102
RTVSPropertyOp14
 70
     1
102
RTVSPropertyOp15
 70
     1
102
RTVSPropertyOp16
 70
     1
102
RTVSPropertyOp17
 70
     1
102
RTVSPropertyOp18
 70
     1
102
RTVSPropertyOp19
 70
     1
102
RTVSPropertyOp20
 70
     1
102
RTVSPropertyOp21
 70
     1
102
RTVSPropertyOp22
 70
     1
102
RTVSPropertyOp23
 70
     1
102
RTVSPropertyOp24
 70
     1
102
RTVSPropertyOp25
 70
     1
102
RTVSPropertyOp26
 70
     1
102
RTVSPropertyOp27
 70
     1
102
RTVSPropertyOp28
 70
     1
102
RTVSPropertyOp29
 70
     1
102
RTVSPropertyOp30
 70
     1
102
RTVSPropertyOp31
 70
     1
102
RTVSPropertyOp32
 70
     1
102
RTVSPropertyOp33
 70
     1
102
RTVSPropertyOp34
 70
     1
102
RTVSPropertyOp35
 70
     1
102
RTVSPropertyOp36
 70
     1
102
RTVSPropertyOp37
 70
     1
102
RTVSPropertyOp38
 70
     1
102
RTVSPropertyOp39
 70
     1
102
RTVSPropertyOp40
 70
     1
102
RTVSPropertyOp41
 70
     1
102
RTVSPropertyOp42
 70
     1
102
RTVSPropertyOp43
 70
     1
102
RTVSPropertyOp44
 70
     1
102
RTVSPropertyOp45
 70
     1
102
RTVSPropertyOp46
 70
     1
102
RTVSPropertyOp47
 70
     1
102
RTVSPropertyOp48
 70
     1
102
RTVSPropertyOp49
 70
     1
102
RTVSPropertyOp50
 70
     1
102
RTVSPropertyOp51
 70
     0
102
RTVSPropertyOp52
 70
     0
102
RTVSPropertyOp53
 70
     1
102
RTVSPropertyOp54
 70
     1
102
RTVSPropertyOp55
 70
     1
102
RTVSPropertyOp56
 70
     1
102
RTVSPropertyOp57
 70
     1
102
RTVSPropertyOp58
 70
     1
102
RTVSPropertyOp59
 70
     1
102
RTVSPropertyOp60
 70
     1
102
RTVSPropertyOp61
 70
     1
102
RTVSPropertyOp62
 70
     1
  0
XRECORD
  5
4FDD
102
{ACAD_REACTORS
330
4FDC
102
}
330
4FDC
100
AcDbXrecord
280
     1
102
RTVSPost2010Prop28
280
     0
102
RTVSPost2010PropOp28
 70
     1
102
RTVSPost2010Prop29
280
     1
102
RTVSPost2010PropOp29
 70
     1
102
RTVSPost2010Prop30
280
     1
102
RTVSPost2010PropOp30
 70
     1
102
RTVSPost2010Prop31
280
     0
102
RTVSPost2010PropOp31
 70
     1
102
RTVSPost2010Prop32
280
     0
102
RTVSPost2010PropOp32
 70
     1
102
RTVSPost2010Prop33
280
     0
102
RTVSPost2010PropOp33
 70
     1
102
RTVSPost2010Prop34
280
     0
102
RTVSPost2010PropOp34
 70
     1
102
RTVSPost2010Prop35
280
     0
102
RTVSPost2010PropOp35
 70
     1
102
RTVSPost2010Prop36
280
     0
102
RTVSPost2010PropOp36
 70
     1
102
RTVSPost2010Prop37
 90
       50
102
RTVSPost2010PropOp37
 70
     1
102
RTVSPost2010Prop38
140
0.0
102
RTVSPost2010PropOp38
 70
     1
102
RTVSPost2010Prop39
140
1.0
102
RTVSPost2010PropOp39
 70
     1
102
RTVSPost2010Prop40
 90
        0
102
RTVSPost2010PropOp40
 70
     1
102
RTVSPost2010Prop41ColorIndex
 90
       18
102
RTVSPost2010Prop41ColorRGB
 90
        0
102
RTVSPost2010PropOp41
 70
     1
102
RTVSPost2010Prop42
 90
       50
102
RTVSPost2010PropOp42
 70
     1
102
RTVSPost2010Prop43
 90
        3
102
RTVSPost2010PropOp43
 70
     1
102
RTVSPost2010Prop44ColorIndex
 90
        5
102
RTVSPost2010Prop44ColorRGB
 90
      255
102
RTVSPost2010PropOp44
 70
     1
102
RTVSPost2010Prop45
280
     0
102
RTVSPost2010PropOp45
 70
     1
102
RTVSPost2010Prop46
 90
       50
102
RTVSPost2010PropOp46
 70
     1
102
RTVSPost2010Prop47
 90
       50
102
RTVSPost2010PropOp47
 70
     1
102
RTVSPost2010Prop48
 90
       50
102
RTVSPost2010PropOp48
 70
     1
102
RTVSPost2010Prop49
280
     0
102
RTVSPost2010PropOp49
 70
     1
102
RTVSPost2010Prop50
 90
       50
102
RTVSPost2010PropOp50
 70
     1
102
RTVSPost2010Prop51ColorIndex
 90
      256
102
RTVSPost2010Prop51ColorRGB
 90
-16777216
102
RTVSPost2010PropOp51
 70
     0
102
RTVSPost2010Prop52
140
1.0
102
RTVSPost2010PropOp52
 70
     0
102
RTVSPost2010Prop53
 90
        2
102
RTVSPost2010PropOp53
 70
     1
102
RTVSPost2010Prop54
  1
strokes_ogs.tif
102
RTVSPost2010PropOp54
 70
     1
102
RTVSPost2010Prop55
280
     0
102
RTVSPost2010PropOp55
 70
     1
102
RTVSPost2010Prop56
140
1.0
102
RTVSPost2010PropOp56
 70
     1
102
RTVSPost2010Prop57
140
1.0
102
RTVSPost2010PropOp57
 70
     1
102
RTVSPropertyOp0
 70
     1
102
RTVSPropertyOp1
 70
     1
102
RTVSPropertyOp2
 70
     1
102
RTVSPropertyOp3
 70
     1
102
RTVSPropertyOp4
 70
     1
102
RTVSPropertyOp5
 70
     1
102
RTVSPropertyOp6
 70
     1
102
RTVSPropertyOp7
 70
     1
102
RTVSPropertyOp8
 70
     1
102
RTVSPropertyOp9
 70
     1
102
RTVSPropertyOp10
 70
     1
102
RTVSPropertyOp11
 70
     1
102
RTVSPropertyOp12
 70
     1
102
RTVSPropertyOp13
 70
     1
102
RTVSPropertyOp14
 70
     1
102
RTVSPropertyOp15
 70
     1
102
RTVSPropertyOp16
 70
     1
102
RTVSPropertyOp17
 70
     1
102
RTVSPropertyOp18
 70
     1
102
RTVSPropertyOp19
 70
     1
102
RTVSPropertyOp20
 70
     1
102
RTVSPropertyOp21
 70
     1
102
RTVSPropertyOp22
 70
     1
102
RTVSPropertyOp23
 70
     1
102
RTVSPropertyOp24
 70
     1
102
RTVSPropertyOp25
 70
     1
102
RTVSPropertyOp26
 70
     1
102
RTVSPropertyOp27
 70
     1
102
RTVSPropertyOp28
 70
     1
102
RTVSPropertyOp29
 70
     1
102
RTVSPropertyOp30
 70
     1
102
RTVSPropertyOp31
 70
     1
102
RTVSPropertyOp32
 70
     1
102
RTVSPropertyOp33
 70
     1
102
RTVSPropertyOp34
 70
     1
102
RTVSPropertyOp35
 70
     1
102
RTVSPropertyOp36
 70
     1
102
RTVSPropertyOp37
 70
     1
102
RTVSPropertyOp38
 70
     1
102
RTVSPropertyOp39
 70
     1
102
RTVSPropertyOp40
 70
     1
102
RTVSPropertyOp41
 70
     1
102
RTVSPropertyOp42
 70
     1
102
RTVSPropertyOp43
 70
     1
102
RTVSPropertyOp44
 70
     1
102
RTVSPropertyOp45
 70
     1
102
RTVSPropertyOp46
 70
     1
102
RTVSPropertyOp47
 70
     1
102
RTVSPropertyOp48
 70
     1
102
RTVSPropertyOp49
 70
     1
102
RTVSPropertyOp50
 70
     1
102
RTVSPropertyOp51
 70
     0
102
RTVSPropertyOp52
 70
     0
102
RTVSPropertyOp53
 70
     1
102
RTVSPropertyOp54
 70
     1
102
RTVSPropertyOp55
 70
     1
102
RTVSPropertyOp56
 70
     1
102
RTVSPropertyOp57
 70
     1
102
RTVSPropertyOp58
 70
     1
102
RTVSPropertyOp59
 70
     1
102
RTVSPropertyOp60
 70
     1
102
RTVSPropertyOp61
 70
     1
102
RTVSPropertyOp62
 70
     1
  0
XRECORD
  5
4FDB
102
{ACAD_REACTORS
330
4FDA
102
}
330
4FDA
100
AcDbXrecord
280
     1
102
RTVSPost2010Prop28
280
     0
102
RTVSPost2010PropOp28
 70
     1
102
RTVSPost2010Prop29
280
     1
102
RTVSPost2010PropOp29
 70
     1
102
RTVSPost2010Prop30
280
     1
102
RTVSPost2010PropOp30
 70
     1
102
RTVSPost2010Prop31
280
     0
102
RTVSPost2010PropOp31
 70
     1
102
RTVSPost2010Prop32
280
     0
102
RTVSPost2010PropOp32
 70
     1
102
RTVSPost2010Prop33
280
     0
102
RTVSPost2010PropOp33
 70
     1
102
RTVSPost2010Prop34
280
     0
102
RTVSPost2010PropOp34
 70
     1
102
RTVSPost2010Prop35
280
     0
102
RTVSPost2010PropOp35
 70
     1
102
RTVSPost2010Prop36
280
     0
102
RTVSPost2010PropOp36
 70
     1
102
RTVSPost2010Prop37
 90
       50
102
RTVSPost2010PropOp37
 70
     1
102
RTVSPost2010Prop38
140
0.0
102
RTVSPost2010PropOp38
 70
     1
102
RTVSPost2010Prop39
140
1.0
102
RTVSPost2010PropOp39
 70
     1
102
RTVSPost2010Prop40
 90
        0
102
RTVSPost2010PropOp40
 70
     1
102
RTVSPost2010Prop41ColorIndex
 90
       18
102
RTVSPost2010Prop41ColorRGB
 90
        0
102
RTVSPost2010PropOp41
 70
     1
102
RTVSPost2010Prop42
 90
       50
102
RTVSPost2010PropOp42
 70
     1
102
RTVSPost2010Prop43
 90
        3
102
RTVSPost2010PropOp43
 70
     1
102
RTVSPost2010Prop44ColorIndex
 90
        5
102
RTVSPost2010Prop44ColorRGB
 90
      255
102
RTVSPost2010PropOp44
 70
     1
102
RTVSPost2010Prop45
280
     0
102
RTVSPost2010PropOp45
 70
     1
102
RTVSPost2010Prop46
 90
       50
102
RTVSPost2010PropOp46
 70
     1
102
RTVSPost2010Prop47
 90
       50
102
RTVSPost2010PropOp47
 70
     1
102
RTVSPost2010Prop48
 90
       50
102
RTVSPost2010PropOp48
 70
     1
102
RTVSPost2010Prop49
280
     0
102
RTVSPost2010PropOp49
 70
     1
102
RTVSPost2010Prop50
 90
       50
102
RTVSPost2010PropOp50
 70
     1
102
RTVSPost2010Prop51ColorIndex
 90
      256
102
RTVSPost2010Prop51ColorRGB
 90
-16777216
102
RTVSPost2010PropOp51
 70
     0
102
RTVSPost2010Prop52
140
1.0
102
RTVSPost2010PropOp52
 70
     0
102
RTVSPost2010Prop53
 90
        2
102
RTVSPost2010PropOp53
 70
     1
102
RTVSPost2010Prop54
  1
strokes_ogs.tif
102
RTVSPost2010PropOp54
 70
     1
102
RTVSPost2010Prop55
280
     0
102
RTVSPost2010PropOp55
 70
     1
102
RTVSPost2010Prop56
140
1.0
102
RTVSPost2010PropOp56
 70
     1
102
RTVSPost2010Prop57
140
1.0
102
RTVSPost2010PropOp57
 70
     1
102
RTVSPropertyOp0
 70
     1
102
RTVSPropertyOp1
 70
     1
102
RTVSPropertyOp2
 70
     1
102
RTVSPropertyOp3
 70
     1
102
RTVSPropertyOp4
 70
     1
102
RTVSPropertyOp5
 70
     1
102
RTVSPropertyOp6
 70
     1
102
RTVSPropertyOp7
 70
     1
102
RTVSPropertyOp8
 70
     1
102
RTVSPropertyOp9
 70
     1
102
RTVSPropertyOp10
 70
     1
102
RTVSPropertyOp11
 70
     1
102
RTVSPropertyOp12
 70
     1
102
RTVSPropertyOp13
 70
     1
102
RTVSPropertyOp14
 70
     1
102
RTVSPropertyOp15
 70
     1
102
RTVSPropertyOp16
 70
     1
102
RTVSPropertyOp17
 70
     1
102
RTVSPropertyOp18
 70
     1
102
RTVSPropertyOp19
 70
     1
102
RTVSPropertyOp20
 70
     1
102
RTVSPropertyOp21
 70
     1
102
RTVSPropertyOp22
 70
     1
102
RTVSPropertyOp23
 70
     1
102
RTVSPropertyOp24
 70
     1
102
RTVSPropertyOp25
 70
     1
102
RTVSPropertyOp26
 70
     1
102
RTVSPropertyOp27
 70
     1
102
RTVSPropertyOp28
 70
     1
102
RTVSPropertyOp29
 70
     1
102
RTVSPropertyOp30
 70
     1
102
RTVSPropertyOp31
 70
     1
102
RTVSPropertyOp32
 70
     1
102
RTVSPropertyOp33
 70
     1
102
RTVSPropertyOp34
 70
     1
102
RTVSPropertyOp35
 70
     1
102
RTVSPropertyOp36
 70
     1
102
RTVSPropertyOp37
 70
     1
102
RTVSPropertyOp38
 70
     1
102
RTVSPropertyOp39
 70
     1
102
RTVSPropertyOp40
 70
     1
102
RTVSPropertyOp41
 70
     1
102
RTVSPropertyOp42
 70
     1
102
RTVSPropertyOp43
 70
     1
102
RTVSPropertyOp44
 70
     1
102
RTVSPropertyOp45
 70
     1
102
RTVSPropertyOp46
 70
     1
102
RTVSPropertyOp47
 70
     1
102
RTVSPropertyOp48
 70
     1
102
RTVSPropertyOp49
 70
     1
102
RTVSPropertyOp50
 70
     1
102
RTVSPropertyOp51
 70
     0
102
RTVSPropertyOp52
 70
     0
102
RTVSPropertyOp53
 70
     1
102
RTVSPropertyOp54
 70
     1
102
RTVSPropertyOp55
 70
     1
102
RTVSPropertyOp56
 70
     1
102
RTVSPropertyOp57
 70
     1
102
RTVSPropertyOp58
 70
     1
102
RTVSPropertyOp59
 70
     1
102
RTVSPropertyOp60
 70
     1
102
RTVSPropertyOp61
 70
     1
102
RTVSPropertyOp62
 70
     1
  0
XRECORD
  5
4FD5
102
{ACAD_REACTORS
330
4FD4
102
}
330
4FD4
100
AcDbXrecord
280
     1
102
RTVSPost2010Prop28
280
     0
102
RTVSPost2010PropOp28
 70
     1
102
RTVSPost2010Prop29
280
     1
102
RTVSPost2010PropOp29
 70
     1
102
RTVSPost2010Prop30
280
     1
102
RTVSPost2010PropOp30
 70
     1
102
RTVSPost2010Prop31
280
     0
102
RTVSPost2010PropOp31
 70
     1
102
RTVSPost2010Prop32
280
     0
102
RTVSPost2010PropOp32
 70
     1
102
RTVSPost2010Prop33
280
     0
102
RTVSPost2010PropOp33
 70
     1
102
RTVSPost2010Prop34
280
     0
102
RTVSPost2010PropOp34
 70
     1
102
RTVSPost2010Prop35
280
     0
102
RTVSPost2010PropOp35
 70
     1
102
RTVSPost2010Prop36
280
     0
102
RTVSPost2010PropOp36
 70
     1
102
RTVSPost2010Prop37
 90
       50
102
RTVSPost2010PropOp37
 70
     1
102
RTVSPost2010Prop38
140
0.0
102
RTVSPost2010PropOp38
 70
     1
102
RTVSPost2010Prop39
140
1.0
102
RTVSPost2010PropOp39
 70
     1
102
RTVSPost2010Prop40
 90
        0
102
RTVSPost2010PropOp40
 70
     1
102
RTVSPost2010Prop41ColorIndex
 90
       18
102
RTVSPost2010Prop41ColorRGB
 90
        0
102
RTVSPost2010PropOp41
 70
     1
102
RTVSPost2010Prop42
 90
       50
102
RTVSPost2010PropOp42
 70
     1
102
RTVSPost2010Prop43
 90
        3
102
RTVSPost2010PropOp43
 70
     1
102
RTVSPost2010Prop44ColorIndex
 90
        5
102
RTVSPost2010Prop44ColorRGB
 90
      255
102
RTVSPost2010PropOp44
 70
     1
102
RTVSPost2010Prop45
280
     0
102
RTVSPost2010PropOp45
 70
     1
102
RTVSPost2010Prop46
 90
       50
102
RTVSPost2010PropOp46
 70
     1
102
RTVSPost2010Prop47
 90
       50
102
RTVSPost2010PropOp47
 70
     1
102
RTVSPost2010Prop48
 90
       50
102
RTVSPost2010PropOp48
 70
     1
102
RTVSPost2010Prop49
280
     0
102
RTVSPost2010PropOp49
 70
     1
102
RTVSPost2010Prop50
 90
       50
102
RTVSPost2010PropOp50
 70
     1
102
RTVSPost2010Prop51ColorIndex
 90
      256
102
RTVSPost2010Prop51ColorRGB
 90
-16777216
102
RTVSPost2010PropOp51
 70
     0
102
RTVSPost2010Prop52
140
1.0
102
RTVSPost2010PropOp52
 70
     0
102
RTVSPost2010Prop53
 90
        2
102
RTVSPost2010PropOp53
 70
     1
102
RTVSPost2010Prop54
  1
strokes_ogs.tif
102
RTVSPost2010PropOp54
 70
     1
102
RTVSPost2010Prop55
280
     0
102
RTVSPost2010PropOp55
 70
     1
102
RTVSPost2010Prop56
140
1.0
102
RTVSPost2010PropOp56
 70
     1
102
RTVSPost2010Prop57
140
1.0
102
RTVSPost2010PropOp57
 70
     1
102
RTVSPropertyOp0
 70
     1
102
RTVSPropertyOp1
 70
     1
102
RTVSPropertyOp2
 70
     1
102
RTVSPropertyOp3
 70
     1
102
RTVSPropertyOp4
 70
     1
102
RTVSPropertyOp5
 70
     1
102
RTVSPropertyOp6
 70
     1
102
RTVSPropertyOp7
 70
     1
102
RTVSPropertyOp8
 70
     1
102
RTVSPropertyOp9
 70
     1
102
RTVSPropertyOp10
 70
     1
102
RTVSPropertyOp11
 70
     1
102
RTVSPropertyOp12
 70
     1
102
RTVSPropertyOp13
 70
     1
102
RTVSPropertyOp14
 70
     1
102
RTVSPropertyOp15
 70
     1
102
RTVSPropertyOp16
 70
     1
102
RTVSPropertyOp17
 70
     1
102
RTVSPropertyOp18
 70
     1
102
RTVSPropertyOp19
 70
     1
102
RTVSPropertyOp20
 70
     1
102
RTVSPropertyOp21
 70
     1
102
RTVSPropertyOp22
 70
     1
102
RTVSPropertyOp23
 70
     1
102
RTVSPropertyOp24
 70
     1
102
RTVSPropertyOp25
 70
     1
102
RTVSPropertyOp26
 70
     1
102
RTVSPropertyOp27
 70
     1
102
RTVSPropertyOp28
 70
     1
102
RTVSPropertyOp29
 70
     1
102
RTVSPropertyOp30
 70
     1
102
RTVSPropertyOp31
 70
     1
102
RTVSPropertyOp32
 70
     1
102
RTVSPropertyOp33
 70
     1
102
RTVSPropertyOp34
 70
     1
102
RTVSPropertyOp35
 70
     1
102
RTVSPropertyOp36
 70
     1
102
RTVSPropertyOp37
 70
     1
102
RTVSPropertyOp38
 70
     1
102
RTVSPropertyOp39
 70
     1
102
RTVSPropertyOp40
 70
     1
102
RTVSPropertyOp41
 70
     1
102
RTVSPropertyOp42
 70
     1
102
RTVSPropertyOp43
 70
     1
102
RTVSPropertyOp44
 70
     1
102
RTVSPropertyOp45
 70
     1
102
RTVSPropertyOp46
 70
     1
102
RTVSPropertyOp47
 70
     1
102
RTVSPropertyOp48
 70
     1
102
RTVSPropertyOp49
 70
     1
102
RTVSPropertyOp50
 70
     1
102
RTVSPropertyOp51
 70
     0
102
RTVSPropertyOp52
 70
     0
102
RTVSPropertyOp53
 70
     1
102
RTVSPropertyOp54
 70
     1
102
RTVSPropertyOp55
 70
     1
102
RTVSPropertyOp56
 70
     1
102
RTVSPropertyOp57
 70
     1
102
RTVSPropertyOp58
 70
     1
102
RTVSPropertyOp59
 70
     1
102
RTVSPropertyOp60
 70
     1
102
RTVSPropertyOp61
 70
     1
102
RTVSPropertyOp62
 70
     1
  0
XRECORD
  5
4FD7
102
{ACAD_REACTORS
330
4FD6
102
}
330
4FD6
100
AcDbXrecord
280
     1
102
RTVSPost2010Prop28
280
     0
102
RTVSPost2010PropOp28
 70
     1
102
RTVSPost2010Prop29
280
     1
102
RTVSPost2010PropOp29
 70
     1
102
RTVSPost2010Prop30
280
     1
102
RTVSPost2010PropOp30
 70
     1
102
RTVSPost2010Prop31
280
     0
102
RTVSPost2010PropOp31
 70
     1
102
RTVSPost2010Prop32
280
     0
102
RTVSPost2010PropOp32
 70
     1
102
RTVSPost2010Prop33
280
     0
102
RTVSPost2010PropOp33
 70
     1
102
RTVSPost2010Prop34
280
     0
102
RTVSPost2010PropOp34
 70
     1
102
RTVSPost2010Prop35
280
     0
102
RTVSPost2010PropOp35
 70
     1
102
RTVSPost2010Prop36
280
     0
102
RTVSPost2010PropOp36
 70
     1
102
RTVSPost2010Prop37
 90
       50
102
RTVSPost2010PropOp37
 70
     1
102
RTVSPost2010Prop38
140
0.0
102
RTVSPost2010PropOp38
 70
     1
102
RTVSPost2010Prop39
140
1.0
102
RTVSPost2010PropOp39
 70
     1
102
RTVSPost2010Prop40
 90
        0
102
RTVSPost2010PropOp40
 70
     1
102
RTVSPost2010Prop41ColorIndex
 90
       18
102
RTVSPost2010Prop41ColorRGB
 90
        0
102
RTVSPost2010PropOp41
 70
     1
102
RTVSPost2010Prop42
 90
       50
102
RTVSPost2010PropOp42
 70
     1
102
RTVSPost2010Prop43
 90
        3
102
RTVSPost2010PropOp43
 70
     1
102
RTVSPost2010Prop44ColorIndex
 90
        5
102
RTVSPost2010Prop44ColorRGB
 90
      255
102
RTVSPost2010PropOp44
 70
     1
102
RTVSPost2010Prop45
280
     0
102
RTVSPost2010PropOp45
 70
     1
102
RTVSPost2010Prop46
 90
       50
102
RTVSPost2010PropOp46
 70
     1
102
RTVSPost2010Prop47
 90
       50
102
RTVSPost2010PropOp47
 70
     1
102
RTVSPost2010Prop48
 90
       50
102
RTVSPost2010PropOp48
 70
     1
102
RTVSPost2010Prop49
280
     0
102
RTVSPost2010PropOp49
 70
     1
102
RTVSPost2010Prop50
 90
       50
102
RTVSPost2010PropOp50
 70
     1
102
RTVSPost2010Prop51ColorIndex
 90
      256
102
RTVSPost2010Prop51ColorRGB
 90
-16777216
102
RTVSPost2010PropOp51
 70
     0
102
RTVSPost2010Prop52
140
1.0
102
RTVSPost2010PropOp52
 70
     0
102
RTVSPost2010Prop53
 90
        2
102
RTVSPost2010PropOp53
 70
     1
102
RTVSPost2010Prop54
  1
strokes_ogs.tif
102
RTVSPost2010PropOp54
 70
     1
102
RTVSPost2010Prop55
280
     0
102
RTVSPost2010PropOp55
 70
     1
102
RTVSPost2010Prop56
140
1.0
102
RTVSPost2010PropOp56
 70
     1
102
RTVSPost2010Prop57
140
1.0
102
RTVSPost2010PropOp57
 70
     1
102
RTVSPropertyOp0
 70
     1
102
RTVSPropertyOp1
 70
     1
102
RTVSPropertyOp2
 70
     1
102
RTVSPropertyOp3
 70
     1
102
RTVSPropertyOp4
 70
     1
102
RTVSPropertyOp5
 70
     1
102
RTVSPropertyOp6
 70
     1
102
RTVSPropertyOp7
 70
     1
102
RTVSPropertyOp8
 70
     1
102
RTVSPropertyOp9
 70
     1
102
RTVSPropertyOp10
 70
     1
102
RTVSPropertyOp11
 70
     1
102
RTVSPropertyOp12
 70
     1
102
RTVSPropertyOp13
 70
     1
102
RTVSPropertyOp14
 70
     1
102
RTVSPropertyOp15
 70
     1
102
RTVSPropertyOp16
 70
     1
102
RTVSPropertyOp17
 70
     1
102
RTVSPropertyOp18
 70
     1
102
RTVSPropertyOp19
 70
     1
102
RTVSPropertyOp20
 70
     1
102
RTVSPropertyOp21
 70
     1
102
RTVSPropertyOp22
 70
     1
102
RTVSPropertyOp23
 70
     1
102
RTVSPropertyOp24
 70
     1
102
RTVSPropertyOp25
 70
     1
102
RTVSPropertyOp26
 70
     1
102
RTVSPropertyOp27
 70
     1
102
RTVSPropertyOp28
 70
     1
102
RTVSPropertyOp29
 70
     1
102
RTVSPropertyOp30
 70
     1
102
RTVSPropertyOp31
 70
     1
102
RTVSPropertyOp32
 70
     1
102
RTVSPropertyOp33
 70
     1
102
RTVSPropertyOp34
 70
     1
102
RTVSPropertyOp35
 70
     1
102
RTVSPropertyOp36
 70
     1
102
RTVSPropertyOp37
 70
     1
102
RTVSPropertyOp38
 70
     1
102
RTVSPropertyOp39
 70
     1
102
RTVSPropertyOp40
 70
     1
102
RTVSPropertyOp41
 70
     1
102
RTVSPropertyOp42
 70
     1
102
RTVSPropertyOp43
 70
     1
102
RTVSPropertyOp44
 70
     1
102
RTVSPropertyOp45
 70
     1
102
RTVSPropertyOp46
 70
     1
102
RTVSPropertyOp47
 70
     1
102
RTVSPropertyOp48
 70
     1
102
RTVSPropertyOp49
 70
     1
102
RTVSPropertyOp50
 70
     1
102
RTVSPropertyOp51
 70
     0
102
RTVSPropertyOp52
 70
     0
102
RTVSPropertyOp53
 70
     1
102
RTVSPropertyOp54
 70
     1
102
RTVSPropertyOp55
 70
     1
102
RTVSPropertyOp56
 70
     1
102
RTVSPropertyOp57
 70
     1
102
RTVSPropertyOp58
 70
     1
102
RTVSPropertyOp59
 70
     1
102
RTVSPropertyOp60
 70
     1
102
RTVSPropertyOp61
 70
     1
102
RTVSPropertyOp62
 70
     1
  0
XRECORD
  5
4FCD
102
{ACAD_REACTORS
330
4FCC
102
}
330
4FCC
100
AcDbXrecord
280
     1
102
RTVSPost2010Prop28
280
     0
102
RTVSPost2010PropOp28
 70
     1
102
RTVSPost2010Prop29
280
     1
102
RTVSPost2010PropOp29
 70
     1
102
RTVSPost2010Prop30
280
     1
102
RTVSPost2010PropOp30
 70
     1
102
RTVSPost2010Prop31
280
     0
102
RTVSPost2010PropOp31
 70
     1
102
RTVSPost2010Prop32
280
     0
102
RTVSPost2010PropOp32
 70
     1
102
RTVSPost2010Prop33
280
     0
102
RTVSPost2010PropOp33
 70
     1
102
RTVSPost2010Prop34
280
     0
102
RTVSPost2010PropOp34
 70
     1
102
RTVSPost2010Prop35
280
     0
102
RTVSPost2010PropOp35
 70
     1
102
RTVSPost2010Prop36
280
     0
102
RTVSPost2010PropOp36
 70
     1
102
RTVSPost2010Prop37
 90
       50
102
RTVSPost2010PropOp37
 70
     1
102
RTVSPost2010Prop38
140
0.0
102
RTVSPost2010PropOp38
 70
     1
102
RTVSPost2010Prop39
140
1.0
102
RTVSPost2010PropOp39
 70
     1
102
RTVSPost2010Prop40
 90
        0
102
RTVSPost2010PropOp40
 70
     1
102
RTVSPost2010Prop41ColorIndex
 90
       18
102
RTVSPost2010Prop41ColorRGB
 90
        0
102
RTVSPost2010PropOp41
 70
     1
102
RTVSPost2010Prop42
 90
       50
102
RTVSPost2010PropOp42
 70
     1
102
RTVSPost2010Prop43
 90
        3
102
RTVSPost2010PropOp43
 70
     1
102
RTVSPost2010Prop44ColorIndex
 90
        5
102
RTVSPost2010Prop44ColorRGB
 90
      255
102
RTVSPost2010PropOp44
 70
     1
102
RTVSPost2010Prop45
280
     0
102
RTVSPost2010PropOp45
 70
     1
102
RTVSPost2010Prop46
 90
       50
102
RTVSPost2010PropOp46
 70
     1
102
RTVSPost2010Prop47
 90
       50
102
RTVSPost2010PropOp47
 70
     1
102
RTVSPost2010Prop48
 90
       50
102
RTVSPost2010PropOp48
 70
     1
102
RTVSPost2010Prop49
280
     0
102
RTVSPost2010PropOp49
 70
     1
102
RTVSPost2010Prop50
 90
       50
102
RTVSPost2010PropOp50
 70
     1
102
RTVSPost2010Prop51ColorIndex
 90
      256
102
RTVSPost2010Prop51ColorRGB
 90
-16777216
102
RTVSPost2010PropOp51
 70
     0
102
RTVSPost2010Prop52
140
1.0
102
RTVSPost2010PropOp52
 70
     0
102
RTVSPost2010Prop53
 90
        2
102
RTVSPost2010PropOp53
 70
     1
102
RTVSPost2010Prop54
  1
strokes_ogs.tif
102
RTVSPost2010PropOp54
 70
     1
102
RTVSPost2010Prop55
280
     0
102
RTVSPost2010PropOp55
 70
     1
102
RTVSPost2010Prop56
140
1.0
102
RTVSPost2010PropOp56
 70
     1
102
RTVSPost2010Prop57
140
1.0
102
RTVSPost2010PropOp57
 70
     1
102
RTVSPropertyOp0
 70
     1
102
RTVSPropertyOp1
 70
     1
102
RTVSPropertyOp2
 70
     1
102
RTVSPropertyOp3
 70
     1
102
RTVSPropertyOp4
 70
     1
102
RTVSPropertyOp5
 70
     1
102
RTVSPropertyOp6
 70
     1
102
RTVSPropertyOp7
 70
     1
102
RTVSPropertyOp8
 70
     1
102
RTVSPropertyOp9
 70
     1
102
RTVSPropertyOp10
 70
     1
102
RTVSPropertyOp11
 70
     1
102
RTVSPropertyOp12
 70
     1
102
RTVSPropertyOp13
 70
     1
102
RTVSPropertyOp14
 70
     1
102
RTVSPropertyOp15
 70
     1
102
RTVSPropertyOp16
 70
     1
102
RTVSPropertyOp17
 70
     1
102
RTVSPropertyOp18
 70
     1
102
RTVSPropertyOp19
 70
     1
102
RTVSPropertyOp20
 70
     1
102
RTVSPropertyOp21
 70
     1
102
RTVSPropertyOp22
 70
     1
102
RTVSPropertyOp23
 70
     1
102
RTVSPropertyOp24
 70
     1
102
RTVSPropertyOp25
 70
     1
102
RTVSPropertyOp26
 70
     1
102
RTVSPropertyOp27
 70
     1
102
RTVSPropertyOp28
 70
     1
102
RTVSPropertyOp29
 70
     1
102
RTVSPropertyOp30
 70
     1
102
RTVSPropertyOp31
 70
     1
102
RTVSPropertyOp32
 70
     1
102
RTVSPropertyOp33
 70
     1
102
RTVSPropertyOp34
 70
     1
102
RTVSPropertyOp35
 70
     1
102
RTVSPropertyOp36
 70
     1
102
RTVSPropertyOp37
 70
     1
102
RTVSPropertyOp38
 70
     1
102
RTVSPropertyOp39
 70
     1
102
RTVSPropertyOp40
 70
     1
102
RTVSPropertyOp41
 70
     1
102
RTVSPropertyOp42
 70
     1
102
RTVSPropertyOp43
 70
     1
102
RTVSPropertyOp44
 70
     1
102
RTVSPropertyOp45
 70
     1
102
RTVSPropertyOp46
 70
     1
102
RTVSPropertyOp47
 70
     1
102
RTVSPropertyOp48
 70
     1
102
RTVSPropertyOp49
 70
     1
102
RTVSPropertyOp50
 70
     1
102
RTVSPropertyOp51
 70
     0
102
RTVSPropertyOp52
 70
     0
102
RTVSPropertyOp53
 70
     1
102
RTVSPropertyOp54
 70
     1
102
RTVSPropertyOp55
 70
     1
102
RTVSPropertyOp56
 70
     1
102
RTVSPropertyOp57
 70
     1
102
RTVSPropertyOp58
 70
     1
102
RTVSPropertyOp59
 70
     1
102
RTVSPropertyOp60
 70
     1
102
RTVSPropertyOp61
 70
     1
102
RTVSPropertyOp62
 70
     1
  0
XRECORD
  5
4FC1
102
{ACAD_REACTORS
330
4FC0
102
}
330
4FC0
100
AcDbXrecord
280
     1
102
RTVSPost2010Prop28
280
     0
102
RTVSPost2010PropOp28
 70
     1
102
RTVSPost2010Prop29
280
     1
102
RTVSPost2010PropOp29
 70
     1
102
RTVSPost2010Prop30
280
     1
102
RTVSPost2010PropOp30
 70
     1
102
RTVSPost2010Prop31
280
     0
102
RTVSPost2010PropOp31
 70
     1
102
RTVSPost2010Prop32
280
     0
102
RTVSPost2010PropOp32
 70
     1
102
RTVSPost2010Prop33
280
     0
102
RTVSPost2010PropOp33
 70
     1
102
RTVSPost2010Prop34
280
     0
102
RTVSPost2010PropOp34
 70
     1
102
RTVSPost2010Prop35
280
     0
102
RTVSPost2010PropOp35
 70
     1
102
RTVSPost2010Prop36
280
     0
102
RTVSPost2010PropOp36
 70
     1
102
RTVSPost2010Prop37
 90
       50
102
RTVSPost2010PropOp37
 70
     1
102
RTVSPost2010Prop38
140
0.0
102
RTVSPost2010PropOp38
 70
     1
102
RTVSPost2010Prop39
140
1.0
102
RTVSPost2010PropOp39
 70
     1
102
RTVSPost2010Prop40
 90
        0
102
RTVSPost2010PropOp40
 70
     1
102
RTVSPost2010Prop41ColorIndex
 90
       18
102
RTVSPost2010Prop41ColorRGB
 90
        0
102
RTVSPost2010PropOp41
 70
     1
102
RTVSPost2010Prop42
 90
       50
102
RTVSPost2010PropOp42
 70
     1
102
RTVSPost2010Prop43
 90
        3
102
RTVSPost2010PropOp43
 70
     1
102
RTVSPost2010Prop44ColorIndex
 90
        5
102
RTVSPost2010Prop44ColorRGB
 90
      255
102
RTVSPost2010PropOp44
 70
     1
102
RTVSPost2010Prop45
280
     0
102
RTVSPost2010PropOp45
 70
     1
102
RTVSPost2010Prop46
 90
       50
102
RTVSPost2010PropOp46
 70
     1
102
RTVSPost2010Prop47
 90
       50
102
RTVSPost2010PropOp47
 70
     1
102
RTVSPost2010Prop48
 90
       50
102
RTVSPost2010PropOp48
 70
     1
102
RTVSPost2010Prop49
280
     0
102
RTVSPost2010PropOp49
 70
     1
102
RTVSPost2010Prop50
 90
       50
102
RTVSPost2010PropOp50
 70
     1
102
RTVSPost2010Prop51ColorIndex
 90
      256
102
RTVSPost2010Prop51ColorRGB
 90
-16777216
102
RTVSPost2010PropOp51
 70
     0
102
RTVSPost2010Prop52
140
1.0
102
RTVSPost2010PropOp52
 70
     0
102
RTVSPost2010Prop53
 90
        2
102
RTVSPost2010PropOp53
 70
     1
102
RTVSPost2010Prop54
  1
strokes_ogs.tif
102
RTVSPost2010PropOp54
 70
     1
102
RTVSPost2010Prop55
280
     0
102
RTVSPost2010PropOp55
 70
     1
102
RTVSPost2010Prop56
140
1.0
102
RTVSPost2010PropOp56
 70
     1
102
RTVSPost2010Prop57
140
1.0
102
RTVSPost2010PropOp57
 70
     1
102
RTVSPropertyOp0
 70
     1
102
RTVSPropertyOp1
 70
     1
102
RTVSPropertyOp2
 70
     1
102
RTVSPropertyOp3
 70
     1
102
RTVSPropertyOp4
 70
     1
102
RTVSPropertyOp5
 70
     1
102
RTVSPropertyOp6
 70
     1
102
RTVSPropertyOp7
 70
     1
102
RTVSPropertyOp8
 70
     1
102
RTVSPropertyOp9
 70
     1
102
RTVSPropertyOp10
 70
     1
102
RTVSPropertyOp11
 70
     1
102
RTVSPropertyOp12
 70
     1
102
RTVSPropertyOp13
 70
     1
102
RTVSPropertyOp14
 70
     1
102
RTVSPropertyOp15
 70
     1
102
RTVSPropertyOp16
 70
     1
102
RTVSPropertyOp17
 70
     1
102
RTVSPropertyOp18
 70
     1
102
RTVSPropertyOp19
 70
     1
102
RTVSPropertyOp20
 70
     1
102
RTVSPropertyOp21
 70
     1
102
RTVSPropertyOp22
 70
     1
102
RTVSPropertyOp23
 70
     1
102
RTVSPropertyOp24
 70
     1
102
RTVSPropertyOp25
 70
     1
102
RTVSPropertyOp26
 70
     1
102
RTVSPropertyOp27
 70
     1
102
RTVSPropertyOp28
 70
     1
102
RTVSPropertyOp29
 70
     1
102
RTVSPropertyOp30
 70
     1
102
RTVSPropertyOp31
 70
     1
102
RTVSPropertyOp32
 70
     1
102
RTVSPropertyOp33
 70
     1
102
RTVSPropertyOp34
 70
     1
102
RTVSPropertyOp35
 70
     1
102
RTVSPropertyOp36
 70
     1
102
RTVSPropertyOp37
 70
     1
102
RTVSPropertyOp38
 70
     1
102
RTVSPropertyOp39
 70
     1
102
RTVSPropertyOp40
 70
     1
102
RTVSPropertyOp41
 70
     1
102
RTVSPropertyOp42
 70
     1
102
RTVSPropertyOp43
 70
     1
102
RTVSPropertyOp44
 70
     1
102
RTVSPropertyOp45
 70
     1
102
RTVSPropertyOp46
 70
     1
102
RTVSPropertyOp47
 70
     1
102
RTVSPropertyOp48
 70
     1
102
RTVSPropertyOp49
 70
     1
102
RTVSPropertyOp50
 70
     1
102
RTVSPropertyOp51
 70
     0
102
RTVSPropertyOp52
 70
     0
102
RTVSPropertyOp53
 70
     1
102
RTVSPropertyOp54
 70
     1
102
RTVSPropertyOp55
 70
     1
102
RTVSPropertyOp56
 70
     1
102
RTVSPropertyOp57
 70
     1
102
RTVSPropertyOp58
 70
     1
102
RTVSPropertyOp59
 70
     1
102
RTVSPropertyOp60
 70
     1
102
RTVSPropertyOp61
 70
     1
102
RTVSPropertyOp62
 70
     1
  0
XRECORD
  5
4FD9
102
{ACAD_REACTORS
330
4FD8
102
}
330
4FD8
100
AcDbXrecord
280
     1
102
RTVSPost2010Prop28
280
     0
102
RTVSPost2010PropOp28
 70
     1
102
RTVSPost2010Prop29
280
     1
102
RTVSPost2010PropOp29
 70
     1
102
RTVSPost2010Prop30
280
     1
102
RTVSPost2010PropOp30
 70
     1
102
RTVSPost2010Prop31
280
     0
102
RTVSPost2010PropOp31
 70
     1
102
RTVSPost2010Prop32
280
     0
102
RTVSPost2010PropOp32
 70
     1
102
RTVSPost2010Prop33
280
     0
102
RTVSPost2010PropOp33
 70
     1
102
RTVSPost2010Prop34
280
     0
102
RTVSPost2010PropOp34
 70
     1
102
RTVSPost2010Prop35
280
     0
102
RTVSPost2010PropOp35
 70
     1
102
RTVSPost2010Prop36
280
     0
102
RTVSPost2010PropOp36
 70
     1
102
RTVSPost2010Prop37
 90
       50
102
RTVSPost2010PropOp37
 70
     1
102
RTVSPost2010Prop38
140
0.0
102
RTVSPost2010PropOp38
 70
     1
102
RTVSPost2010Prop39
140
1.0
102
RTVSPost2010PropOp39
 70
     1
102
RTVSPost2010Prop40
 90
        0
102
RTVSPost2010PropOp40
 70
     1
102
RTVSPost2010Prop41ColorIndex
 90
       18
102
RTVSPost2010Prop41ColorRGB
 90
        0
102
RTVSPost2010PropOp41
 70
     1
102
RTVSPost2010Prop42
 90
       50
102
RTVSPost2010PropOp42
 70
     1
102
RTVSPost2010Prop43
 90
        3
102
RTVSPost2010PropOp43
 70
     1
102
RTVSPost2010Prop44ColorIndex
 90
        5
102
RTVSPost2010Prop44ColorRGB
 90
      255
102
RTVSPost2010PropOp44
 70
     1
102
RTVSPost2010Prop45
280
     0
102
RTVSPost2010PropOp45
 70
     1
102
RTVSPost2010Prop46
 90
       50
102
RTVSPost2010PropOp46
 70
     1
102
RTVSPost2010Prop47
 90
       50
102
RTVSPost2010PropOp47
 70
     1
102
RTVSPost2010Prop48
 90
       50
102
RTVSPost2010PropOp48
 70
     1
102
RTVSPost2010Prop49
280
     0
102
RTVSPost2010PropOp49
 70
     1
102
RTVSPost2010Prop50
 90
       50
102
RTVSPost2010PropOp50
 70
     1
102
RTVSPost2010Prop51ColorIndex
 90
      256
102
RTVSPost2010Prop51ColorRGB
 90
-16777216
102
RTVSPost2010PropOp51
 70
     0
102
RTVSPost2010Prop52
140
1.0
102
RTVSPost2010PropOp52
 70
     0
102
RTVSPost2010Prop53
 90
        2
102
RTVSPost2010PropOp53
 70
     1
102
RTVSPost2010Prop54
  1
strokes_ogs.tif
102
RTVSPost2010PropOp54
 70
     1
102
RTVSPost2010Prop55
280
     0
102
RTVSPost2010PropOp55
 70
     1
102
RTVSPost2010Prop56
140
1.0
102
RTVSPost2010PropOp56
 70
     1
102
RTVSPost2010Prop57
140
1.0
102
RTVSPost2010PropOp57
 70
     1
102
RTVSPropertyOp0
 70
     1
102
RTVSPropertyOp1
 70
     1
102
RTVSPropertyOp2
 70
     1
102
RTVSPropertyOp3
 70
     1
102
RTVSPropertyOp4
 70
     1
102
RTVSPropertyOp5
 70
     1
102
RTVSPropertyOp6
 70
     1
102
RTVSPropertyOp7
 70
     1
102
RTVSPropertyOp8
 70
     1
102
RTVSPropertyOp9
 70
     1
102
RTVSPropertyOp10
 70
     1
102
RTVSPropertyOp11
 70
     1
102
RTVSPropertyOp12
 70
     1
102
RTVSPropertyOp13
 70
     1
102
RTVSPropertyOp14
 70
     1
102
RTVSPropertyOp15
 70
     1
102
RTVSPropertyOp16
 70
     1
102
RTVSPropertyOp17
 70
     1
102
RTVSPropertyOp18
 70
     1
102
RTVSPropertyOp19
 70
     1
102
RTVSPropertyOp20
 70
     1
102
RTVSPropertyOp21
 70
     1
102
RTVSPropertyOp22
 70
     1
102
RTVSPropertyOp23
 70
     1
102
RTVSPropertyOp24
 70
     1
102
RTVSPropertyOp25
 70
     1
102
RTVSPropertyOp26
 70
     1
102
RTVSPropertyOp27
 70
     1
102
RTVSPropertyOp28
 70
     1
102
RTVSPropertyOp29
 70
     1
102
RTVSPropertyOp30
 70
     1
102
RTVSPropertyOp31
 70
     1
102
RTVSPropertyOp32
 70
     1
102
RTVSPropertyOp33
 70
     1
102
RTVSPropertyOp34
 70
     1
102
RTVSPropertyOp35
 70
     1
102
RTVSPropertyOp36
 70
     1
102
RTVSPropertyOp37
 70
     1
102
RTVSPropertyOp38
 70
     1
102
RTVSPropertyOp39
 70
     1
102
RTVSPropertyOp40
 70
     1
102
RTVSPropertyOp41
 70
     1
102
RTVSPropertyOp42
 70
     1
102
RTVSPropertyOp43
 70
     1
102
RTVSPropertyOp44
 70
     1
102
RTVSPropertyOp45
 70
     1
102
RTVSPropertyOp46
 70
     1
102
RTVSPropertyOp47
 70
     1
102
RTVSPropertyOp48
 70
     1
102
RTVSPropertyOp49
 70
     1
102
RTVSPropertyOp50
 70
     1
102
RTVSPropertyOp51
 70
     0
102
RTVSPropertyOp52
 70
     0
102
RTVSPropertyOp53
 70
     1
102
RTVSPropertyOp54
 70
     1
102
RTVSPropertyOp55
 70
     1
102
RTVSPropertyOp56
 70
     1
102
RTVSPropertyOp57
 70
     1
102
RTVSPropertyOp58
 70
     1
102
RTVSPropertyOp59
 70
     1
102
RTVSPropertyOp60
 70
     1
102
RTVSPropertyOp61
 70
     1
102
RTVSPropertyOp62
 70
     1
  0
ENDSEC
  0
EOF
