  0
SECTION
  2
HEADER
  9
$ACADVER
  1
AC1018
  9
$ACADMAINTVER
 70
   104
  9
$DWGCODEPAGE
  3
ANSI_1250
  9
$LASTSAVEDBY
  1
EVA
  9
$INSBASE
 10
0.0
 20
0.0
 30
0.0
  9
$EXTMIN
 10
23.89492033496656
 20
1018.513481551621
 30
0.0
  9
$EXTMAX
 10
937.904688524097
 20
2249.360865124871
 30
0.0
  9
$LIMMIN
 10
0.0
 20
0.0
  9
$LIMMAX
 10
271.6285070728513
 20
136.3429239280804
  9
$ORTHOMODE
 70
     1
  9
$REGENMODE
 70
     1
  9
$FILLMODE
 70
     1
  9
$QTEXTMODE
 70
     0
  9
$MIRRTEXT
 70
     0
  9
$LTSCALE
 40
15.0
  9
$ATTMODE
 70
     1
  9
$TEXTSIZE
 40
3.0
  9
$TRACEWID
 40
1.0
  9
$TEXTSTYLE
  7
Stil1
  9
$CLAYER
  8
V5
  9
$CELTYPE
  6
BYLAYER
  9
$CECOLOR
 62
   256
  9
$CELTSCALE
 40
5.0
  9
$DISPSILH
 70
     0
  9
$DIMSCALE
 40
5.0
  9
$DIMASZ
 40
3.5
  9
$DIMEXO
 40
0.0
  9
$DIMDLI
 40
3.75
  9
$DIMRND
 40
0.0
  9
$DIMDLE
 40
0.0
  9
$DIMEXE
 40
1.25
  9
$DIMTP
 40
0.0
  9
$DIMTM
 40
0.0
  9
$DIMTXT
 40
3.5
  9
$DIMCEN
 40
3.5
  9
$DIMTSZ
 40
0.0
  9
$DIMTOL
 70
     0
  9
$DIMLIM
 70
     0
  9
$DIMTIH
 70
     0
  9
$DIMTOH
 70
     0
  9
$DIMSE1
 70
     0
  9
$DIMSE2
 70
     0
  9
$DIMTAD
 70
     1
  9
$DIMZIN
 70
     8
  9
$DIMBLK
  1

  9
$DIMASO
 70
     1
  9
$DIMSHO
 70
     1
  9
$DIMPOST
  1

  9
$DIMAPOST
  1

  9
$DIMALT
 70
     0
  9
$DIMALTD
 70
     4
  9
$DIMALTF
 40
0.0394
  9
$DIMLFAC
 40
1.0
  9
$DIMTOFL
 70
     0
  9
$DIMTVP
 40
0.0
  9
$DIMTIX
 70
     0
  9
$DIMSOXD
 70
     0
  9
$DIMSAH
 70
     0
  9
$DIMBLK1
  1

  9
$DIMBLK2
  1

  9
$DIMSTYLE
  2
18
  9
$DIMCLRD
 70
     0
  9
$DIMCLRE
 70
     0
  9
$DIMCLRT
 70
     2
  9
$DIMTFAC
 40
1.0
  9
$DIMGAP
 40
0.625
  9
$DIMJUST
 70
     0
  9
$DIMSD1
 70
     0
  9
$DIMSD2
 70
     0
  9
$DIMTOLJ
 70
     1
  9
$DIMTZIN
 70
     0
  9
$DIMALTZ
 70
     0
  9
$DIMALTTZ
 70
     0
  9
$DIMUPT
 70
     0
  9
$DIMDEC
 70
     0
  9
$DIMTDEC
 70
     4
  9
$DIMALTU
 70
     8
  9
$DIMALTTD
 70
     4
  9
$DIMTXSTY
  7
ROMANS
  9
$DIMAUNIT
 70
     0
  9
$DIMADEC
 70
     0
  9
$DIMALTRND
 40
0.0
  9
$DIMAZIN
 70
     0
  9
$DIMDSEP
 70
    46
  9
$DIMATFIT
 70
     3
  9
$DIMFRAC
 70
     0
  9
$DIMLDRBLK
  1

  9
$DIMLUNIT
 70
     6
  9
$DIMLWD
 70
    -2
  9
$DIMLWE
 70
    -2
  9
$DIMTMOVE
 70
     0
  9
$LUNITS
 70
     2
  9
$LUPREC
 70
     4
  9
$SKETCHINC
 40
1.0
  9
$FILLETRAD
 40
0.0
  9
$AUNITS
 70
     0
  9
$AUPREC
 70
     0
  9
$MENU
  1
.
  9
$ELEVATION
 40
0.0
  9
$PELEVATION
 40
0.0
  9
$THICKNESS
 40
0.0
  9
$LIMCHECK
 70
     0
  9
$CHAMFERA
 40
10.0
  9
$CHAMFERB
 40
10.0
  9
$CHAMFERC
 40
20.0
  9
$CHAMFERD
 40
0.0
  9
$SKPOLY
 70
     0
  9
$TDCREATE
 40
2451600.645418067
  9
$TDUCREATE
 40
2451600.562084734
  9
$TDUPDATE
 40
2457248.486335093
  9
$TDUUPDATE
 40
2457248.403001759
  9
$TDINDWG
 40
2.4091030903
  9
$TDUSRTIMER
 40
2.4091028588
  9
$USRTIMER
 70
     1
  9
$ANGBASE
 50
0.0
  9
$ANGDIR
 70
     0
  9
$PDMODE
 70
     0
  9
$PDSIZE
 40
0.0
  9
$PLINEWID
 40
0.0
  9
$SPLFRAME
 70
     0
  9
$SPLINETYPE
 70
     6
  9
$SPLINESEGS
 70
     8
  9
$HANDSEED
  5
3479
  9
$SURFTAB1
 70
     6
  9
$SURFTAB2
 70
     6
  9
$SURFTYPE
 70
     6
  9
$SURFU
 70
     6
  9
$SURFV
 70
     6
  9
$UCSBASE
  2

  9
$UCSNAME
  2

  9
$UCSORG
 10
433.69398972583
 20
1068.726664377887
 30
0.0
  9
$UCSXDIR
 10
1.0
 20
0.0
 30
0.0
  9
$UCSYDIR
 10
0.0
 20
1.0
 30
0.0
  9
$UCSORTHOREF
  2

  9
$UCSORTHOVIEW
 70
     0
  9
$UCSORGTOP
 10
0.0
 20
0.0
 30
0.0
  9
$UCSORGBOTTOM
 10
0.0
 20
0.0
 30
0.0
  9
$UCSORGLEFT
 10
0.0
 20
0.0
 30
0.0
  9
$UCSORGRIGHT
 10
0.0
 20
0.0
 30
0.0
  9
$UCSORGFRONT
 10
0.0
 20
0.0
 30
0.0
  9
$UCSORGBACK
 10
0.0
 20
0.0
 30
0.0
  9
$PUCSBASE
  2

  9
$PUCSNAME
  2

  9
$PUCSORG
 10
0.0
 20
0.0
 30
0.0
  9
$PUCSXDIR
 10
1.0
 20
0.0
 30
0.0
  9
$PUCSYDIR
 10
0.0
 20
1.0
 30
0.0
  9
$PUCSORTHOREF
  2

  9
$PUCSORTHOVIEW
 70
     0
  9
$PUCSORGTOP
 10
0.0
 20
0.0
 30
0.0
  9
$PUCSORGBOTTOM
 10
0.0
 20
0.0
 30
0.0
  9
$PUCSORGLEFT
 10
0.0
 20
0.0
 30
0.0
  9
$PUCSORGRIGHT
 10
0.0
 20
0.0
 30
0.0
  9
$PUCSORGFRONT
 10
0.0
 20
0.0
 30
0.0
  9
$PUCSORGBACK
 10
0.0
 20
0.0
 30
0.0
  9
$USERI1
 70
     0
  9
$USERI2
 70
     0
  9
$USERI3
 70
     0
  9
$USERI4
 70
     0
  9
$USERI5
 70
     0
  9
$USERR1
 40
0.0
  9
$USERR2
 40
0.0
  9
$USERR3
 40
0.0
  9
$USERR4
 40
0.0
  9
$USERR5
 40
0.0
  9
$WORLDVIEW
 70
     1
  9
$SHADEDGE
 70
     3
  9
$SHADEDIF
 70
    70
  9
$TILEMODE
 70
     0
  9
$MAXACTVP
 70
    48
  9
$PINSBASE
 10
0.0
 20
0.0
 30
0.0
  9
$PLIMCHECK
 70
     0
  9
$PEXTMIN
 10
5.862626085583912
 20
3.452432288499369
 30
0.0
  9
$PEXTMAX
 10
196.0126473182927
 20
282.1524478440423
 30
0.0
  9
$PLIMMIN
 10
-6.043083190917968
 20
-6.762742042541503
  9
$PLIMMAX
 10
203.9302444458008
 20
290.2055807113647
  9
$UNITMODE
 70
     0
  9
$VISRETAIN
 70
     1
  9
$PLINEGEN
 70
     0
  9
$PSLTSCALE
 70
     0
  9
$TREEDEPTH
 70
  3020
  9
$CMLSTYLE
  2
STANDARD
  9
$CMLJUST
 70
     0
  9
$CMLSCALE
 40
20.0
  9
$PROXYGRAPHICS
 70
     1
  9
$MEASUREMENT
 70
     1
  9
$CELWEIGHT
370
    -1
  9
$ENDCAPS
280
     0
  9
$JOINSTYLE
280
     0
  9
$LWDISPLAY
290
     0
  9
$INSUNITS
 70
     0
  9
$HYPERLINKBASE
  1

  9
$STYLESHEET
  1
CORUS_Mono.ctb
  9
$XEDIT
290
     1
  9
$CEPSNTYPE
380
     0
  9
$PSTYLEMODE
290
     1
  9
$FINGERPRINTGUID
  2
{9E2E0D10-E48E-11D3-BEBA-006008753510}
  9
$VERSIONGUID
  2
{596F11AD-7B1F-4884-A9F4-7DA3A0E0319E}
  9
$EXTNAMES
290
     1
  9
$PSVPSCALE
 40
0.0
  9
$OLESTARTUP
290
     0
  9
$SORTENTS
280
    96
  9
$INDEXCTL
280
     0
  9
$HIDETEXT
280
     0
  9
$XCLIPFRAME
290
     0
  9
$HALOGAP
280
     0
  9
$OBSCOLOR
 70
   257
  9
$OBSLTYPE
280
     0
  9
$INTERSECTIONDISPLAY
280
     0
  9
$INTERSECTIONCOLOR
 70
   257
  9
$DIMASSOC
280
     1
  9
$PROJECTNAME
  1

  0
ENDSEC
  0
SECTION
  2
CLASSES
  0
CLASS
  1
ACDBDICTIONARYWDFLT
  2
AcDbDictionaryWithDefault
  3
ObjectDBX Classes
 90
        0
 91
        1
280
     0
281
     0
  0
CLASS
  1
RASTERVARIABLES
  2
AcDbRasterVariables
  3
ISM
 90
        0
 91
        1
280
     0
281
     0
  0
CLASS
  1
IMAGEDEF
  2
AcDbRasterImageDef
  3
ISM
 90
        0
 91
        1
280
     0
281
     0
  0
CLASS
  1
IMAGEDEF_REACTOR
  2
AcDbRasterImageDefReactor
  3
ISM
 90
        1
 91
        0
280
     0
281
     0
  0
CLASS
  1
IMAGE
  2
AcDbRasterImage
  3
ISM
 90
     2175
 91
        0
280
     0
281
     1
  0
CLASS
  1
DICTIONARYVAR
  2
AcDbDictionaryVar
  3
ObjectDBX Classes
 90
        0
 91
       13
280
     0
281
     0
  0
CLASS
  1
MATERIAL
  2
AcDbMaterial
  3
ObjectDBX Classes
 90
     1153
 91
        3
280
     0
281
     0
  0
CLASS
  1
VISUALSTYLE
  2
AcDbVisualStyle
  3
ObjectDBX Classes
 90
     4095
 91
       24
280
     0
281
     0
  0
CLASS
  1
TABLESTYLE
  2
AcDbTableStyle
  3
ObjectDBX Classes
 90
     4095
 91
        1
280
     0
281
     0
  0
CLASS
  1
SCALE
  2
AcDbScale
  3
ObjectDBX Classes
 90
     1153
 91
       17
280
     0
281
     0
  0
CLASS
  1
MLEADERSTYLE
  2
AcDbMLeaderStyle
  3
ACDB_MLEADERSTYLE_CLASS
 90
     4095
 91
        1
280
     0
281
     0
  0
CLASS
  1
ACDBSECTIONVIEWSTYLE
  2
AcDbSectionViewStyle
  3
ObjectDBX Classes
 90
     1025
 91
        1
280
     0
281
     0
  0
CLASS
  1
ACDBDETAILVIEWSTYLE
  2
AcDbDetailViewStyle
  3
ObjectDBX Classes
 90
     1025
 91
        1
280
     0
281
     0
  0
CLASS
  1
CELLSTYLEMAP
  2
AcDbCellStyleMap
  3
ObjectDBX Classes
 90
     1152
 91
        2
280
     0
281
     0
  0
ENDSEC
  0
SECTION
  2
TABLES
  0
TABLE
  2
VPORT
  5
8
330
0
100
AcDbSymbolTable
 70
     1
  0
VPORT
  5
324B
330
8
100
AcDbSymbolTableRecord
100
AcDbViewportTableRecord
  2
*Active
 70
     0
 10
0.0
 20
0.0
 11
1.0
 21
1.0
 12
1420.028134700329
 22
1206.489829788233
 13
0.0
 23
0.0
 14
10.0
 24
10.0
 15
10.0
 25
10.0
 16
0.0
 26
0.0
 36
1.0
 17
0.0
 27
0.0
 37
0.0
 40
2589.857853855944
 41
1.581724581724581
 42
50.0
 43
0.0
 44
0.0
 50
0.0
 51
0.0
 71
     0
 72
 20000
 73
     1
 74
     0
 75
     1
 76
     0
 77
     0
 78
     0
281
     0
 65
     1
110
433.69398972583
120
1068.726664377887
130
0.0
111
1.0
121
0.0
131
0.0
112
0.0
122
1.0
132
0.0
 79
     0
146
0.0
1001
ACAD_NAV_VCDISPLAY
1070
     3
  0
ENDTAB
  0
TABLE
  2
LTYPE
  5
5
330
0
100
AcDbSymbolTable
 70
     6
  0
LTYPE
  5
12
330
5
100
AcDbSymbolTableRecord
100
AcDbLinetypeTableRecord
  2
BYBLOCK
 70
     0
  3

 72
    65
 73
     0
 40
0.0
  0
LTYPE
  5
13
330
5
100
AcDbSymbolTableRecord
100
AcDbLinetypeTableRecord
  2
BYLAYER
 70
     0
  3

 72
    65
 73
     0
 40
0.0
  0
LTYPE
  5
14
330
5
100
AcDbSymbolTableRecord
100
AcDbLinetypeTableRecord
  2
CONTINUOUS
 70
     0
  3
Solid line
 72
    65
 73
     0
 40
0.0
  0
LTYPE
  5
113E
330
5
100
AcDbSymbolTableRecord
100
AcDbLinetypeTableRecord
  2
VERDECKTX2
 70
     0
  3
Verdeckt (2x) ____ ____ ____ ____ ____ ____ ___
 72
    65
 73
     2
 40
19.05
 49
12.7
 74
     0
 49
-6.349999999999999
 74
     0
  0
LTYPE
  5
1205
330
5
100
AcDbSymbolTableRecord
100
AcDbLinetypeTableRecord
  2
GESTRICHELT
 70
     0
  3
__ __ __ __ __ __ __ __ __ __ __ __ __ __ __
 72
    65
 73
     2
 40
0.75
 49
0.5
 74
     0
 49
-0.25
 74
     0
  0
LTYPE
  5
1206
330
5
100
AcDbSymbolTableRecord
100
AcDbLinetypeTableRecord
  2
STRICHPUNKT
 70
     0
  3
__ . __ . __ . __ . __ . __ . __ . __ . __ . __
 72
    65
 73
     4
 40
1.0
 49
0.5
 74
     0
 49
-0.25
 74
     0
 49
0.0
 74
     0
 49
-0.25
 74
     0
  0
LTYPE
  5
1207
330
5
100
AcDbSymbolTableRecord
100
AcDbLinetypeTableRecord
  2
VERDECKT
 70
     0
  3
_ _ _ _ _ _ _ _ _ _ _ _ _ _ _ _ _ _ _ _ _ _ _
 72
    65
 73
     2
 40
0.375
 49
0.25
 74
     0
 49
-0.125
 74
     0
  0
LTYPE
  5
1208
330
5
100
AcDbSymbolTableRecord
100
AcDbLinetypeTableRecord
  2
AUSGEZOGEN
 70
     0
  3
Ausgezogene Linie
 72
    65
 73
     0
 40
0.0
  0
ENDTAB
  0
TABLE
  2
LAYER
  5
2
102
{ACAD_XDICTIONARY
360
32B3
102
}
330
0
100
AcDbSymbolTable
 70
    13
  0
LAYER
  5
E
102
{ACAD_XDICTIONARY
360
32D8
102
}
330
2
100
AcDbSymbolTableRecord
100
AcDbLayerTableRecord
  2
0
 70
     0
 62
     7
  6
CONTINUOUS
370
    -3
390
5E8
  0
LAYER
  5
B7
102
{ACAD_XDICTIONARY
360
32DA
102
}
330
2
100
AcDbSymbolTableRecord
100
AcDbLayerTableRecord
  2
V5
 70
     0
 62
     7
  6
CONTINUOUS
370
    -3
390
5E8
  0
LAYER
  5
8F4
102
{ACAD_XDICTIONARY
360
32DC
102
}
330
2
100
AcDbSymbolTableRecord
100
AcDbLayerTableRecord
  2
Mansfen
 70
     0
 62
     4
  6
CONTINUOUS
290
     0
370
    -3
390
5E8
  0
LAYER
  5
9AF
102
{ACAD_XDICTIONARY
360
32DE
102
}
330
2
100
AcDbSymbolTableRecord
100
AcDbLayerTableRecord
  2
TXT-E
 70
     0
 62
     1
  6
CONTINUOUS
370
    -3
390
5E8
  0
LAYER
  5
1209
102
{ACAD_XDICTIONARY
360
32E0
102
}
330
2
100
AcDbSymbolTableRecord
100
AcDbLayerTableRecord
  2
V7
 70
     0
 62
     5
  6
CONTINUOUS
370
    -3
390
5E8
  0
LAYER
  5
120A
102
{ACAD_XDICTIONARY
360
32E2
102
}
330
2
100
AcDbSymbolTableRecord
100
AcDbLayerTableRecord
  2
V35
 70
     0
 62
     3
  6
CONTINUOUS
370
    -3
390
5E8
  0
LAYER
  5
120B
102
{ACAD_XDICTIONARY
360
32E4
102
}
330
2
100
AcDbSymbolTableRecord
100
AcDbLayerTableRecord
  2
V25
 70
     0
 62
     4
  6
CONTINUOUS
370
    -3
390
5E8
  0
LAYER
  5
120C
102
{ACAD_XDICTIONARY
360
32E6
102
}
330
2
100
AcDbSymbolTableRecord
100
AcDbLayerTableRecord
  2
SV35
 70
     0
 62
     6
  6
VERDECKT
370
    -3
390
5E8
  0
LAYER
  5
120D
102
{ACAD_XDICTIONARY
360
32E8
102
}
330
2
100
AcDbSymbolTableRecord
100
AcDbLayerTableRecord
  2
ACHS
 70
     0
 62
     4
  6
STRICHPUNKT
370
    -3
390
5E8
  0
LAYER
  5
120E
102
{ACAD_XDICTIONARY
360
32EA
102
}
330
2
100
AcDbSymbolTableRecord
100
AcDbLayerTableRecord
  2
TXT-D
 70
     0
 62
     7
  6
CONTINUOUS
370
    -3
390
5E8
  0
LAYER
  5
120F
102
{ACAD_XDICTIONARY
360
32EC
102
}
330
2
100
AcDbSymbolTableRecord
100
AcDbLayerTableRecord
  2
ISOLIER
 70
     0
 62
     4
  6
CONTINUOUS
370
    -3
390
5E8
  0
LAYER
  5
1211
102
{ACAD_XDICTIONARY
360
32EE
102
}
330
2
100
AcDbSymbolTableRecord
100
AcDbLayerTableRecord
  2
ISO
 70
     0
 62
     4
  6
AUSGEZOGEN
370
    -3
390
5E8
  0
LAYER
  5
290C
102
{ACAD_XDICTIONARY
360
32F0
102
}
330
2
100
AcDbSymbolTableRecord
100
AcDbLayerTableRecord
  2
INSULATION
 70
     0
 62
     4
  6
CONTINUOUS
370
    -3
390
5E8
  0
ENDTAB
  0
TABLE
  2
STYLE
  5
3
330
0
100
AcDbSymbolTable
 70
     3
  0
STYLE
  5
F
330
3
100
AcDbSymbolTableRecord
100
AcDbTextStyleTableRecord
  2
STANDARD
 70
     0
 40
0.0
 41
1.0
 50
0.0
 71
     0
 42
2.5
  3
txt
  4

  0
STYLE
  5
BF
330
3
100
AcDbSymbolTableRecord
100
AcDbTextStyleTableRecord
  2
ROMANS
 70
     0
 40
14.0
 41
1.0
 50
0.0
 71
     0
 42
2.5
  3
arial.ttf
  4

1001
ACAD
1000
Arial
1071
       34
  0
STYLE
  5
91F
330
3
100
AcDbSymbolTableRecord
100
AcDbTextStyleTableRecord
  2
Stil1
 70
     0
 40
3.0
 41
1.0
 50
0.0
 71
     0
 42
3.0
  3
ARIALN.TTF
  4

1001
ACAD
1000
Arial Narrow
1071
       34
  0
ENDTAB
  0
TABLE
  2
VIEW
  5
6
330
0
100
AcDbSymbolTable
 70
     0
  0
ENDTAB
  0
TABLE
  2
UCS
  5
7
330
0
100
AcDbSymbolTable
 70
     0
  0
ENDTAB
  0
TABLE
  2
APPID
  5
9
330
0
100
AcDbSymbolTable
 70
     7
  0
APPID
  5
10
330
9
100
AcDbSymbolTableRecord
100
AcDbRegAppTableRecord
  2
ACAD
 70
     0
  0
APPID
  5
16D4
330
9
100
AcDbSymbolTableRecord
100
AcDbRegAppTableRecord
  2
CONTENTBLOCKICON
 70
     0
  0
APPID
  5
2C03
330
9
100
AcDbSymbolTableRecord
100
AcDbRegAppTableRecord
  2
DCO15
 70
     0
  0
APPID
  5
32B8
330
9
100
AcDbSymbolTableRecord
100
AcDbRegAppTableRecord
  2
ACAD_EXEMPT_FROM_CAD_STANDARDS
 70
     0
  0
APPID
  5
32BB
330
9
100
AcDbSymbolTableRecord
100
AcDbRegAppTableRecord
  2
ACAD_NAV_VCDISPLAY
 70
     0
  0
APPID
  5
3306
330
9
100
AcDbSymbolTableRecord
100
AcDbRegAppTableRecord
  2
AcadAnnoPO
 70
     0
  0
APPID
  5
3476
330
9
100
AcDbSymbolTableRecord
100
AcDbRegAppTableRecord
  2
ACAD_MLEADERVER
 70
     0
  0
ENDTAB
  0
TABLE
  2
DIMSTYLE
  5
A
330
0
100
AcDbSymbolTable
 70
     1
100
AcDbDimStyleTable
 71
     1
340
280
  0
DIMSTYLE
105
280
330
A
100
AcDbSymbolTableRecord
100
AcDbDimStyleTableRecord
  2
18
 70
     0
 40
5.0
 41
3.5
 42
0.0
 43
3.75
 44
1.25
 73
     0
 74
     0
 77
     1
 78
     8
140
3.5
141
3.5
143
0.0394
147
0.625
171
     4
178
     2
271
     0
273
     8
274
     4
277
     6
340
BF
  0
ENDTAB
  0
TABLE
  2
BLOCK_RECORD
  5
1
330
0
100
AcDbSymbolTable
 70
     3
  0
BLOCK_RECORD
  5
18
102
{ACAD_XDICTIONARY
360
81C
102
}
330
1
100
AcDbSymbolTableRecord
100
AcDbBlockTableRecord
  2
*MODEL_SPACE
340
5EB
  0
BLOCK_RECORD
  5
15
102
{ACAD_XDICTIONARY
360
81A
102
}
330
1
100
AcDbSymbolTableRecord
100
AcDbBlockTableRecord
  2
*PAPER_SPACE
340
5EC
  0
BLOCK_RECORD
  5
1194
330
1
100
AcDbSymbolTableRecord
100
AcDbBlockTableRecord
  2
Z45-6
340
0
102
{BLKREFS
331
149A
102
}
  0
BLOCK_RECORD
  5
11A2
330
1
100
AcDbSymbolTableRecord
100
AcDbBlockTableRecord
  2
*X1
340
0
102
{BLKREFS
331
1F2F
102
}
  0
BLOCK_RECORD
  5
2908
330
1
100
AcDbSymbolTableRecord
100
AcDbBlockTableRecord
  2
DAEMM
340
0
102
{BLKREFS
331
2A21
331
2A22
331
2A23
331
2A24
331
2A26
331
2A27
331
2A28
331
2A29
331
2A2A
331
2A2B
331
2A2C
331
2A2D
331
2A2E
331
2A2F
331
2A30
331
2A31
331
2A32
331
2A33
331
2A34
331
2A35
331
2A36
331
2A37
331
2A38
331
2A39
331
2A61
331
2A62
331
2A63
331
2A64
331
2A65
331
2A66
331
2A67
331
2A68
331
2A69
331
2A6A
331
2A6B
331
2A6C
331
2A6D
331
2A6E
331
2A6F
331
2A70
331
2A71
331
2A72
331
2A73
331
2A74
331
2A75
331
2A76
331
2A77
331
2A78
102
}
  0
ENDTAB
  0
ENDSEC
  0
SECTION
  2
BLOCKS
  0
BLOCK
  5
19
330
18
100
AcDbEntity
  8
0
100
AcDbBlockBegin
  2
*MODEL_SPACE
 70
     0
 10
0.0
 20
0.0
 30
0.0
  3
*MODEL_SPACE
  1

  0
ENDBLK
  5
1A
330
18
100
AcDbEntity
  8
0
100
AcDbBlockEnd
  0
BLOCK
  5
16
330
15
100
AcDbEntity
 67
     1
  8
0
100
AcDbBlockBegin
  2
*PAPER_SPACE
 70
     0
 10
0.0
 20
0.0
 30
0.0
  3
*PAPER_SPACE
  1

  0
ENDBLK
  5
17
330
15
100
AcDbEntity
 67
     1
  8
0
100
AcDbBlockEnd
  0
BLOCK
  5
119A
330
1194
100
AcDbEntity
  8
0
100
AcDbBlockBegin
  2
Z45-6
 70
     0
 10
0.0
 20
0.0
 30
0.0
  3
Z45-6
  1

  0
LWPOLYLINE
  5
1195
330
1194
100
AcDbEntity
  8
V5
100
AcDbPolyline
 90
        2
 70
     0
 43
2.0
 10
-41.4486353224944
 20
-3.402324215511953
 10
-41.18716809425143
 20
-6.390908309787164
  0
LWPOLYLINE
  5
1196
330
1194
100
AcDbEntity
  8
V5
100
AcDbPolyline
 90
        2
 70
     0
 43
1.5
 10
1.085739767587028
 20
-1.939643219442814
 10
-41.25253490131217
 20
-5.643762286218361
  0
LWPOLYLINE
  5
1197
330
1194
100
AcDbEntity
  8
V5
100
AcDbPolyline
 90
        2
 70
     0
 43
3.0
 10
0.6281721181618423
 20
3.290378945538805
 10
1.151106574647769
 20
-2.686789243011617
  0
LWPOLYLINE
  5
1198
330
1194
100
AcDbEntity
  8
V5
100
AcDbPolyline
 90
        2
 70
     0
 43
1.5
 10
44.02800829221348
 20
6.334507731492976
 10
0.6935389252225832
 20
2.543232921970002
  0
LWPOLYLINE
  5
1199
330
1194
100
AcDbEntity
  8
V5
100
AcDbPolyline
 90
        2
 70
     0
 43
2.0
 10
43.22791401530401
 20
4.005913918038913
 10
43.03181359412178
 20
6.247351988745322
  0
ENDBLK
  5
119B
330
1194
100
AcDbEntity
  8
0
100
AcDbBlockEnd
  0
BLOCK
  5
11B6
330
11A2
100
AcDbEntity
  8
0
100
AcDbBlockBegin
  2
*X1
 70
     1
 10
0.0
 20
0.0
 30
0.0
  3
*X1
  1

  0
LINE
  5
11A3
330
11A2
100
AcDbEntity
  8
0
 62
     0
380
     1
100
AcDbLine
 10
400.3929631487156
 20
418.0706326783792
 30
0.0
 11
423.9673170016094
 21
441.6449865312731
 31
0.0
  0
LINE
  5
11A4
330
11A2
100
AcDbEntity
  8
0
 62
     0
380
     1
100
AcDbLine
 10
400.3929631487156
 20
426.9094674432111
 30
0.0
 11
423.9673170016094
 21
450.483821296105
 31
0.0
  0
LINE
  5
11A5
330
11A2
100
AcDbEntity
  8
0
 62
     0
380
     1
100
AcDbLine
 10
400.3929631487156
 20
435.7483022080429
 30
0.0
 11
423.9673170016094
 21
459.3226560609368
 31
0.0
  0
LINE
  5
11A6
330
11A2
100
AcDbEntity
  8
0
 62
     0
380
     1
100
AcDbLine
 10
400.3929631487156
 20
444.5871369728748
 30
0.0
 11
419.7887208586543
 21
463.9828946828136
 31
0.0
  0
LINE
  5
11A7
330
11A2
100
AcDbEntity
  8
0
 62
     0
380
     1
100
AcDbLine
 10
400.3929631487156
 20
453.4259717377066
 30
0.0
 11
410.9498860938225
 21
463.9828946828136
 31
0.0
  0
LINE
  5
11A8
330
11A2
100
AcDbEntity
  8
0
 62
     0
380
     1
100
AcDbLine
 10
400.3929631487156
 20
462.2648065025385
 30
0.0
 11
402.1110513289906
 21
463.9828946828136
 31
0.0
  0
LINE
  5
11A9
330
11A2
100
AcDbEntity
  8
0
 62
     0
380
     1
100
AcDbLine
 10
400.3929631487156
 20
409.2317979135474
 30
0.0
 11
423.9673170016094
 21
432.8061517664413
 31
0.0
  0
LINE
  5
11AA
330
11A2
100
AcDbEntity
  8
0
 62
     0
380
     1
100
AcDbLine
 10
404.5301302529932
 20
404.5301302529932
 30
0.0
 11
423.9673170016094
 21
423.9673170016094
 31
0.0
  0
LINE
  5
11AB
330
11A2
100
AcDbEntity
  8
0
 62
     0
380
     1
100
AcDbLine
 10
413.3689650178251
 20
404.5301302529932
 30
0.0
 11
423.9673170016094
 21
415.1284822367776
 31
0.0
  0
LINE
  5
11AC
330
11A2
100
AcDbEntity
  8
0
 62
     0
380
     1
100
AcDbLine
 10
422.2077997826568
 20
404.5301302529932
 30
0.0
 11
423.9673170016094
 21
406.2896474719457
 31
0.0
  0
LINE
  5
11AD
330
11A2
100
AcDbEntity
  8
0
 62
     0
380
     1
100
AcDbLine
 10
423.9673170016094
 20
415.7219856574158
 30
0.0
 11
400.3929631487156
 21
439.2963395103097
 31
0.0
  0
LINE
  5
11AE
330
11A2
100
AcDbEntity
  8
0
 62
     0
380
     1
100
AcDbLine
 10
423.9673170016094
 20
406.883150892584
 30
0.0
 11
400.3929631487156
 21
430.4575047454779
 31
0.0
  0
LINE
  5
11AF
330
11A2
100
AcDbEntity
  8
0
 62
     0
380
     1
100
AcDbLine
 10
417.4815028763684
 20
404.5301302529932
 30
0.0
 11
400.3929631487156
 21
421.6186699806461
 31
0.0
  0
LINE
  5
11B0
330
11A2
100
AcDbEntity
  8
0
 62
     0
380
     1
100
AcDbLine
 10
408.6426681115366
 20
404.5301302529932
 30
0.0
 11
400.3929631487156
 21
412.7798352158142
 31
0.0
  0
LINE
  5
11B1
330
11A2
100
AcDbEntity
  8
0
 62
     0
380
     1
100
AcDbLine
 10
423.9673170016094
 20
424.5608204222476
 30
0.0
 11
400.3929631487156
 21
448.1351742751416
 31
0.0
  0
LINE
  5
11B2
330
11A2
100
AcDbEntity
  8
0
 62
     0
380
     1
100
AcDbLine
 10
423.9673170016094
 20
433.3996551870796
 30
0.0
 11
400.3929631487156
 21
456.9740090399734
 31
0.0
  0
LINE
  5
11B3
330
11A2
100
AcDbEntity
  8
0
 62
     0
380
     1
100
AcDbLine
 10
423.9673170016094
 20
442.2384899519114
 30
0.0
 11
402.2229122707072
 21
463.9828946828136
 31
0.0
  0
LINE
  5
11B4
330
11A2
100
AcDbEntity
  8
0
 62
     0
380
     1
100
AcDbLine
 10
423.9673170016094
 20
451.0773247167432
 30
0.0
 11
411.0617470355391
 21
463.9828946828136
 31
0.0
  0
LINE
  5
11B5
330
11A2
100
AcDbEntity
  8
0
 62
     0
380
     1
100
AcDbLine
 10
423.9673170016094
 20
459.916159481575
 30
0.0
 11
419.9005818003709
 21
463.9828946828136
 31
0.0
  0
ENDBLK
  5
11B7
330
11A2
100
AcDbEntity
  8
0
100
AcDbBlockEnd
  0
BLOCK
  5
290A
330
2908
100
AcDbEntity
  8
0
 48
5.0
100
AcDbBlockBegin
  2
DAEMM
 70
     0
 10
0.0
 20
0.0
 30
0.0
  3
DAEMM
  1

  0
LWPOLYLINE
  5
2909
330
2908
100
AcDbEntity
  8
INSULATION
100
AcDbPolyline
 90
        6
 70
     0
 43
0.0
 10
0.0
 20
0.0
 42
0.5249926553343702
 10
1.869693845669928
 20
2.710102051443413
 10
0.1303061543300714
 20
7.289897948556586
 42
-1.449489742783175
 10
3.869693845669928
 20
7.289897948556586
 10
2.130306154330071
 20
2.710102051443413
 42
0.5249926553343702
 10
4.0
 20
0.0
  0
ENDBLK
  5
290B
330
2908
100
AcDbEntity
  8
0
 48
5.0
100
AcDbBlockEnd
  0
ENDSEC
  0
SECTION
  2
ENTITIES
  0
LINE
  5
144E
330
18
100
AcDbEntity
  8
V5
100
AcDbLine
 10
353.6115607532238
 20
1019.176970050903
 30
0.0
 11
276.905385337376
 21
1895.932566998839
 31
0.0
  0
LINE
  5
144F
330
18
100
AcDbEntity
  8
V5
100
AcDbLine
 10
373.6879575040907
 20
1019.176970050903
 30
0.0
 11
297.5873380899236
 21
1889.011030227379
 31
0.0
  0
LINE
  5
1450
330
18
100
AcDbEntity
  8
V5
100
AcDbLine
 10
254.9811494233672
 20
2146.527730194044
 30
0.0
 11
284.7666531344957
 21
2149.220269077403
 31
0.0
  0
LINE
  5
1451
330
18
100
AcDbEntity
  8
V5
100
AcDbLine
 10
412.8369311682806
 20
1019.176970050903
 30
0.0
 11
335.6723499263619
 21
1901.172169566727
 31
0.0
  0
LINE
  5
1458
330
18
100
AcDbEntity
  8
V5
100
AcDbLine
 10
325.7600269544496
 20
2014.47053957756
 30
0.0
 11
323.9489864062784
 21
2035.170827765577
 31
0.0
  0
LINE
  5
1459
330
18
100
AcDbEntity
  8
V5
100
AcDbLine
 10
286.9084337288714
 20
2011.071465610401
 30
0.0
 11
285.0973100934794
 21
2031.7727034897
 31
0.0
  0
LINE
  5
145A
330
18
100
AcDbEntity
  8
V5
100
AcDbLine
 10
265.1733735228131
 20
2030.030075655918
 30
0.0
 11
266.9845397670365
 21
2009.328350755447
 31
0.0
  0
LINE
  5
145C
330
18
100
AcDbEntity
  8
V5
100
AcDbLine
 10
264.569193392273
 20
2036.935886148278
 30
0.0
 11
254.9811494233672
 21
2146.527730194044
 31
0.0
  0
LINE
  5
145D
330
18
100
AcDbEntity
  8
V5
100
AcDbLine
 10
282.2283953941796
 20
2064.564548554852
 30
0.0
 11
274.9050433852021
 21
2148.270845048997
 31
0.0
  0
LINE
  5
145E
330
18
100
AcDbEntity
  8
V5
100
AcDbLine
 10
321.0799886197574
 20
2067.963622522011
 30
0.0
 11
316.4262549643408
 21
2109.836214409769
 31
0.0
  0
LWPOLYLINE
  5
1469
330
18
100
AcDbEntity
  8
V7
100
AcDbPolyline
 90
        2
 70
     0
 43
0.0
 10
418.8598501935419
 20
1019.176970050903
 10
341.6374584949779
 20
1901.832946109821
  0
LWPOLYLINE
  5
1473
330
18
100
AcDbEntity
  8
V5
100
AcDbPolyline
 90
       20
 70
     0
 43
2.2
 10
587.353529856023
 20
1617.306529095914
 10
596.5276526275672
 20
1615.021697785592
 10
598.0027409096262
 20
1598.161361570468
 10
599.4778291916852
 20
1581.301025355342
 10
575.3225810864185
 20
1570.553943442972
 10
567.9949430169101
 20
1561.821204448405
 10
518.7770428797396
 20
1539.923321138579
 10
511.4494048102312
 20
1531.190582144012
 10
495.0826420962236
 20
1523.908730235009
 10
500.7596031667062
 20
1459.020768278655
 10
508.7375871007259
 20
1452.32644490208
 10
502.0432637241517
 20
1444.348460968061
 10
507.7202247946343
 20
1379.460499011706
 10
525.1028199211386
 20
1375.131333315028
 10
533.8355589157053
 20
1367.80369524552
 10
586.1082560892858
 20
1354.785088654858
 10
594.8409950838525
 20
1347.45745058535
 10
620.4954818831729
 20
1341.068155810362
 10
621.9705701652322
 20
1324.207819595237
 10
623.4456584472914
 20
1307.347483380112
  0
LINE
  5
1475
330
18
100
AcDbEntity
  8
V5
100
AcDbLine
 10
937.9046885240965
 20
1772.119810591943
 30
0.0
 11
382.4631087737566
 21
1772.119810591944
 31
0.0
  0
LINE
  5
1476
330
18
100
AcDbEntity
  8
V5
100
AcDbLine
 10
937.9046885240965
 20
1792.119810591943
 30
0.0
 11
382.4631087737562
 21
1792.119810591944
 31
0.0
  0
LINE
  5
147B
330
18
100
AcDbEntity
  8
V5
100
AcDbLine
 10
382.4631087737566
 20
1772.119810591944
 30
0.0
 11
382.4631087737562
 21
1792.119810591944
 31
0.0
  0
LINE
  5
147E
330
18
100
AcDbEntity
  8
V25
100
AcDbLine
 10
937.9046885240963
 20
1657.111226196782
 30
0.0
 11
608.8812462945472
 21
1657.111226196783
 31
0.0
  0
LINE
  5
147F
330
18
100
AcDbEntity
  8
V25
100
AcDbLine
 10
599.2599275693248
 20
1652.346269990914
 30
0.0
 11
622.0327636140587
 21
1392.051562917392
 31
0.0
  0
LINE
  5
1480
330
18
100
AcDbEntity
  8
V25
100
AcDbLine
 10
937.904688524096
 20
1387.111226196782
 30
0.0
 11
628.4169745242113
 21
1387.111226196782
 31
0.0
  0
LINE
  5
1481
330
18
100
AcDbEntity
  8
V25
100
AcDbLine
 10
937.9046885240963
 20
1647.111226196782
 30
0.0
 11
609.7561329298066
 21
1647.111226196783
 31
0.0
  0
LINE
  5
1482
330
18
100
AcDbEntity
  8
V25
100
AcDbLine
 10
937.9046885240963
 20
1397.111226196782
 30
0.0
 11
631.6282988112873
 21
1397.111226196782
 31
0.0
  0
LINE
  5
1483
330
18
100
AcDbEntity
  8
V25
100
AcDbLine
 10
608.8812462945472
 20
1657.111226196783
 30
0.0
 11
632.5031854465464
 21
1387.111226196782
 31
0.0
  0
LINE
  5
1484
330
18
100
AcDbEntity
  8
V25
100
AcDbLine
 10
895.2461164783354
 20
1367.111226196782
 30
0.0
 11
624.2147603416313
 21
1367.111226196782
 31
0.0
  0
LINE
  5
1485
330
18
100
AcDbEntity
  8
V25
100
AcDbLine
 10
609.2218745502425
 20
1653.21782741839
 30
0.0
 11
599.2599275693248
 21
1652.346269990914
 31
0.0
  0
LINE
  5
1486
330
18
100
AcDbEntity
  8
V25
100
AcDbLine
 10
624.2147603416313
 20
1367.111226196782
 30
0.0
 11
654.6550634067204
 21
1019.176970050902
 31
0.0
  0
LINE
  5
1487
330
18
100
AcDbEntity
  8
V25
100
AcDbLine
 10
631.9947105949761
 20
1392.923120344868
 30
0.0
 11
622.0327636140587
 21
1392.051562917392
 31
0.0
  0
LINE
  5
1488
330
18
100
AcDbEntity
  8
V25
100
AcDbLine
 10
628.4169745242113
 20
1367.111226196782
 30
0.0
 11
628.4169745242113
 21
1387.111226196782
 31
0.0
  0
LINE
  5
1489
330
18
100
AcDbEntity
  8
V25
100
AcDbLine
 10
634.2529587170649
 20
1367.111226196782
 30
0.0
 11
664.6932617821541
 21
1019.176970050902
 31
0.0
  0
LINE
  5
148A
330
18
100
AcDbEntity
  8
V25
100
AcDbLine
 10
895.2461164783354
 20
1367.111226196782
 30
0.0
 11
925.6864195434243
 21
1019.176970050902
 31
0.0
  0
LINE
  5
148B
330
18
100
AcDbEntity
  8
V25
100
AcDbLine
 10
885.2079181029017
 20
1367.111226196782
 30
0.0
 11
915.6482211679906
 21
1019.176970050902
 31
0.0
  0
LINE
  5
148C
330
18
100
AcDbEntity
  8
V25
100
AcDbLine
 10
890.7979130730378
 20
1367.111226196782
 30
0.0
 11
890.797913073038
 21
1387.111226196782
 31
0.0
  0
LINE
  5
148D
330
18
100
AcDbEntity
  8
V25
100
AcDbLine
 10
663.9577327863523
 20
1351.035342490672
 30
0.0
 11
663.9577327863523
 21
1412.931820547195
 31
0.0
  0
LINE
  5
148E
330
18
100
AcDbEntity
  8
V25
100
AcDbLine
 10
859.1203919094075
 20
1351.035342490672
 30
0.0
 11
859.1203919094075
 21
1412.931820547195
 31
0.0
  0
LINE
  5
148F
330
18
100
AcDbEntity
  8
V25
100
AcDbLine
 10
630.206474145207
 20
1665.144174816864
 30
0.0
 11
630.206474145207
 21
1636.34777436692
 31
0.0
  0
LINE
  5
1490
330
18
100
AcDbEntity
  8
V25
100
AcDbLine
 10
914.0016588666055
 20
1665.144174816864
 30
0.0
 11
914.0016588666055
 21
1636.34777436692
 31
0.0
  0
LINE
  5
1491
330
18
100
AcDbEntity
  8
ACHS
 62
     3
 48
4.0
100
AcDbLine
 10
336.3154754262314
 20
1019.176970050903
 30
0.0
 11
937.9046885240963
 21
1019.176970050902
 31
0.0
  0
LINE
  5
1492
330
18
100
AcDbEntity
  8
ACHS
 62
     3
 48
4.0
100
AcDbLine
 10
937.9046885240963
 20
1369.0050379309
 30
0.0
 11
937.9046885240965
 21
1841.862180788042
 31
0.0
  0
LWPOLYLINE
  5
1494
330
18
100
AcDbEntity
  8
V5
100
AcDbPolyline
 90
       11
 70
     0
 43
2.2
 10
490.9928027495066
 20
1666.73468084985
 10
566.4388052124365
 20
1666.73468084985
 10
572.4388052124361
 20
1660.73468084985
 10
651.4388052124361
 20
1660.73468084985
 10
657.4388052124361
 20
1666.73468084985
 10
663.4388052124361
 20
1660.73468084985
 10
742.4388052124361
 20
1660.73468084985
 10
748.4388052124361
 20
1666.73468084985
 10
866.4388052124362
 20
1666.73468084985
 10
872.4388052124361
 20
1660.73468084985
 10
937.9046885240965
 20
1660.73468084985
  0
LINE
  5
1496
330
18
100
AcDbEntity
  8
V25
100
AcDbLine
 10
885.1959890678795
 20
1397.111226196782
 30
0.0
 11
885.1959890678797
 21
1647.064327239671
 31
0.0
  0
LINE
  5
1497
330
18
100
AcDbEntity
  8
V25
100
AcDbLine
 10
895.1959890678795
 20
1397.111226196782
 30
0.0
 11
895.1959890678796
 21
1647.064327239671
 31
0.0
  0
LINE
  5
1499
330
18
100
AcDbEntity
  8
V25
100
AcDbLine
 10
650.7420684304693
 20
1326.827420466328
 30
0.0
 11
611.4684220725678
 21
1323.391421634686
 31
0.0
  0
INSERT
  5
149A
330
18
100
AcDbEntity
  8
V25
100
AcDbBlockReference
  2
Z45-6
 10
253.1395661852133
 20
2107.556201392762
 30
0.0
 50
90.0
  0
TEXT
  5
14A0
330
18
100
AcDbEntity
  8
TXT-D
100
AcDbText
 10
198.6665078582542
 20
1779.469083443579
 30
0.0
 40
14.0
  1
uzávěra hřebene
 50
90.0
  7
ROMANS
100
AcDbText
  0
TEXT
  5
14A6
330
18
100
AcDbEntity
  8
TXT-D
100
AcDbText
 10
727.241920713028
 20
1393.046265981175
 30
0.0
 40
14.0
  1
trapézový plech
 50
90.0
  7
ROMANS
100
AcDbText
  0
LINE
  5
14AA
330
18
100
AcDbEntity
  8
TXT-D
100
AcDbLine
 10
141.1705103848499
 20
2098.69194984381
 30
0.0
 11
141.1705103848508
 21
2128.347069775116
 31
0.0
  0
LINE
  5
14AB
330
18
100
AcDbEntity
  8
TXT-D
100
AcDbLine
 10
101.1705103848508
 20
2076.417004456651
 30
0.0
 11
101.1705103848508
 21
2118.001140873835
 31
0.0
  0
TEXT
  5
14AC
330
18
100
AcDbEntity
  8
TXT-D
100
AcDbText
 10
105.3915827518325
 20
2120.946131154884
 30
0.0
 40
12.0
  1
oplechování hřebene
 50
90.0
  7
Stil1
100
AcDbText
  0
TEXT
  5
14AD
330
18
100
AcDbEntity
  8
TXT-D
100
AcDbText
 10
145.9480436492516
 20
2137.244936505904
 30
0.0
 40
12.0
  1
Z profil
 50
90.0
  7
Stil1
100
AcDbText
  0
LINE
  5
14AE
330
18
100
AcDbEntity
  8
TXT-D
100
AcDbLine
 10
248.6417928750189
 20
2076.417004456651
 30
0.0
 11
234.3715906399375
 21
2076.417004456651
 31
0.0
  0
LINE
  5
14AF
330
18
100
AcDbEntity
  8
TXT-D
100
AcDbLine
 10
255.9497208470352
 20
2098.69194984381
 30
0.0
 11
232.4227854379019
 21
2098.69194984381
 31
0.0
  0
LINE
  5
14B0
330
18
100
AcDbEntity
  8
TXT-D
100
AcDbLine
 10
305.9505499173588
 20
2125.257768152267
 30
0.0
 11
230.8407798650178
 21
2125.257768152267
 31
0.0
  0
TEXT
  5
14B1
330
18
100
AcDbEntity
  8
TXT-D
100
AcDbText
 10
186.2022183204502
 20
2137.244936505904
 30
0.0
 40
12.0
  1
zahnutí v hřebeni
 50
90.0
  7
Stil1
100
AcDbText
  0
LINE
  5
14B2
330
18
100
AcDbEntity
  8
TXT-D
100
AcDbLine
 10
181.4246850560489
 20
2125.257768152267
 30
0.0
 11
181.4246850560489
 21
2131.044124897259
 31
0.0
  0
LINE
  5
14B4
330
18
100
AcDbEntity
  8
TXT-D
100
AcDbLine
 10
291.9873912469229
 20
2049.862442303492
 30
0.0
 11
236.694813793234
 21
2049.862442303492
 31
0.0
  0
LINE
  5
14B5
330
18
100
AcDbEntity
  8
TXT-D
100
AcDbLine
 10
192.7537798198032
 20
2005.781863116135
 30
0.0
 11
192.7537798198029
 21
1936.324884221027
 31
0.0
  0
LINE
  5
14B7
330
18
100
AcDbEntity
  8
TXT-D
100
AcDbLine
 10
260.084322795889
 20
2005.781863116135
 30
0.0
 11
240.5513647537841
 21
2005.781863116135
 31
0.0
  0
LWPOLYLINE
  5
14C9
330
18
100
AcDbEntity
  8
V5
  6
GESTRICHELT
 48
5.0
100
AcDbPolyline
 90
        2
 70
   128
 43
4.0
 10
526.0415246317934
 20
1019.176970050903
 10
461.2855772740233
 20
1759.340835265074
  0
ARC
  5
14E4
330
18
100
AcDbEntity
  8
ISO
100
AcDbCircle
 10
937.9046885240965
 20
1681.192183368571
 30
0.0
 40
11.76
100
AcDbArc
 50
180.0
 51
270.0
  0
LINE
  5
14E5
330
18
100
AcDbEntity
  8
ISO
100
AcDbLine
 10
926.1446885240969
 20
1681.19218336857
 30
0.0
 11
937.904688524097
 21
1751.752185766288
 31
0.0
  0
ARC
  5
14E6
330
18
100
AcDbEntity
  8
ISO
100
AcDbCircle
 10
926.1446885240967
 20
1751.752183368571
 30
0.0
 40
11.76
100
AcDbArc
 50
0.0
 51
89.99999999999992
  0
ARC
  5
14E7
330
18
100
AcDbEntity
  8
ISO
100
AcDbCircle
 10
914.384688524097
 20
1681.192183368571
 30
0.0
 40
11.76
100
AcDbArc
 50
270.0
 51
0.0
  0
ARC
  5
14E8
330
18
100
AcDbEntity
  8
ISO
100
AcDbCircle
 10
926.1446885240967
 20
1751.752183368571
 30
0.0
 40
11.76
100
AcDbArc
 50
90.00000000000005
 51
180.0
  0
LINE
  5
14E9
330
18
100
AcDbEntity
  8
ISO
100
AcDbLine
 10
926.1446885240969
 20
1681.19218336857
 30
0.0
 11
914.3846885240972
 21
1751.752185766288
 31
0.0
  0
ARC
  5
14EA
330
18
100
AcDbEntity
  8
ISO
100
AcDbCircle
 10
914.384688524097
 20
1681.192183368571
 30
0.0
 40
11.76
100
AcDbArc
 50
180.0
 51
270.0
  0
LINE
  5
14EB
330
18
100
AcDbEntity
  8
ISO
100
AcDbLine
 10
902.6246885240968
 20
1681.19218336857
 30
0.0
 11
914.3846885240972
 21
1751.752185766288
 31
0.0
  0
ARC
  5
14EC
330
18
100
AcDbEntity
  8
ISO
100
AcDbCircle
 10
902.6246885240972
 20
1751.752183368571
 30
0.0
 40
11.76
100
AcDbArc
 50
0.0
 51
89.99999999999992
  0
ARC
  5
14ED
330
18
100
AcDbEntity
  8
ISO
100
AcDbCircle
 10
890.8646885240969
 20
1681.192183368571
 30
0.0
 40
11.76
100
AcDbArc
 50
270.0
 51
0.0
  0
ARC
  5
14EE
330
18
100
AcDbEntity
  8
ISO
100
AcDbCircle
 10
902.6246885240972
 20
1751.752183368571
 30
0.0
 40
11.76
100
AcDbArc
 50
90.00000000000005
 51
180.0
  0
LINE
  5
14EF
330
18
100
AcDbEntity
  8
ISO
100
AcDbLine
 10
902.6246885240968
 20
1681.19218336857
 30
0.0
 11
890.8646885240971
 21
1751.752185766288
 31
0.0
  0
ARC
  5
14F0
330
18
100
AcDbEntity
  8
ISO
100
AcDbCircle
 10
890.8646885240969
 20
1681.192183368571
 30
0.0
 40
11.76
100
AcDbArc
 50
180.0
 51
270.0
  0
LINE
  5
14F1
330
18
100
AcDbEntity
  8
ISO
100
AcDbLine
 10
879.1046885240973
 20
1681.19218336857
 30
0.0
 11
890.8646885240971
 21
1751.752185766288
 31
0.0
  0
ARC
  5
14F2
330
18
100
AcDbEntity
  8
ISO
100
AcDbCircle
 10
879.1046885240971
 20
1751.752183368571
 30
0.0
 40
11.76
100
AcDbArc
 50
0.0
 51
89.99999999999992
  0
ARC
  5
14F3
330
18
100
AcDbEntity
  8
ISO
100
AcDbCircle
 10
867.3446885240975
 20
1681.192183368571
 30
0.0
 40
11.76
100
AcDbArc
 50
270.0
 51
0.0
  0
ARC
  5
14F4
330
18
100
AcDbEntity
  8
ISO
100
AcDbCircle
 10
879.1046885240971
 20
1751.752183368571
 30
0.0
 40
11.76
100
AcDbArc
 50
90.00000000000005
 51
180.0
  0
LINE
  5
14F5
330
18
100
AcDbEntity
  8
ISO
100
AcDbLine
 10
879.1046885240973
 20
1681.19218336857
 30
0.0
 11
867.3446885240975
 21
1751.752185766288
 31
0.0
  0
ARC
  5
14F6
330
18
100
AcDbEntity
  8
ISO
100
AcDbCircle
 10
867.3446885240975
 20
1681.192183368571
 30
0.0
 40
11.76
100
AcDbArc
 50
180.0
 51
270.0
  0
LINE
  5
14F7
330
18
100
AcDbEntity
  8
ISO
100
AcDbLine
 10
855.5846885240974
 20
1681.19218336857
 30
0.0
 11
867.3446885240975
 21
1751.752185766288
 31
0.0
  0
ARC
  5
14F8
330
18
100
AcDbEntity
  8
ISO
100
AcDbCircle
 10
855.5846885240978
 20
1751.752183368571
 30
0.0
 40
11.76
100
AcDbArc
 50
0.0
 51
89.99999999999992
  0
ARC
  5
14F9
330
18
100
AcDbEntity
  8
ISO
100
AcDbCircle
 10
843.8246885240975
 20
1681.192183368571
 30
0.0
 40
11.76
100
AcDbArc
 50
270.0
 51
0.0
  0
ARC
  5
14FA
330
18
100
AcDbEntity
  8
ISO
100
AcDbCircle
 10
855.5846885240978
 20
1751.752183368571
 30
0.0
 40
11.76
100
AcDbArc
 50
90.00000000000005
 51
180.0
  0
LINE
  5
14FB
330
18
100
AcDbEntity
  8
ISO
100
AcDbLine
 10
855.5846885240974
 20
1681.19218336857
 30
0.0
 11
843.8246885240976
 21
1751.752185766288
 31
0.0
  0
ARC
  5
14FC
330
18
100
AcDbEntity
  8
ISO
100
AcDbCircle
 10
843.8246885240975
 20
1681.192183368571
 30
0.0
 40
11.76
100
AcDbArc
 50
180.0
 51
270.0
  0
LINE
  5
14FD
330
18
100
AcDbEntity
  8
ISO
100
AcDbLine
 10
832.0646885240979
 20
1681.19218336857
 30
0.0
 11
843.8246885240976
 21
1751.752185766288
 31
0.0
  0
ARC
  5
14FE
330
18
100
AcDbEntity
  8
ISO
100
AcDbCircle
 10
832.0646885240977
 20
1751.752183368571
 30
0.0
 40
11.76
100
AcDbArc
 50
0.0
 51
89.99999999999992
  0
ARC
  5
14FF
330
18
100
AcDbEntity
  8
ISO
100
AcDbCircle
 10
820.3046885240976
 20
1681.192183368571
 30
0.0
 40
11.76
100
AcDbArc
 50
270.0
 51
0.0
  0
ARC
  5
1500
330
18
100
AcDbEntity
  8
ISO
100
AcDbCircle
 10
832.0646885240977
 20
1751.752183368571
 30
0.0
 40
11.76
100
AcDbArc
 50
90.00000000000005
 51
180.0
  0
LINE
  5
1501
330
18
100
AcDbEntity
  8
ISO
100
AcDbLine
 10
832.0646885240979
 20
1681.19218336857
 30
0.0
 11
820.3046885240976
 21
1751.752185766288
 31
0.0
  0
ARC
  5
1502
330
18
100
AcDbEntity
  8
ISO
100
AcDbCircle
 10
820.3046885240976
 20
1681.192183368571
 30
0.0
 40
11.76
100
AcDbArc
 50
180.0
 51
270.0
  0
LINE
  5
1503
330
18
100
AcDbEntity
  8
ISO
100
AcDbLine
 10
808.5446885240978
 20
1681.19218336857
 30
0.0
 11
820.3046885240976
 21
1751.752185766288
 31
0.0
  0
ARC
  5
1504
330
18
100
AcDbEntity
  8
ISO
100
AcDbCircle
 10
808.5446885240981
 20
1751.752183368571
 30
0.0
 40
11.76
100
AcDbArc
 50
0.0
 51
89.99999999999992
  0
ARC
  5
1505
330
18
100
AcDbEntity
  8
ISO
100
AcDbCircle
 10
796.7846885240979
 20
1681.192183368571
 30
0.0
 40
11.76
100
AcDbArc
 50
270.0
 51
0.0
  0
ARC
  5
1506
330
18
100
AcDbEntity
  8
ISO
100
AcDbCircle
 10
808.5446885240981
 20
1751.752183368571
 30
0.0
 40
11.76
100
AcDbArc
 50
90.00000000000005
 51
180.0
  0
LINE
  5
1507
330
18
100
AcDbEntity
  8
ISO
100
AcDbLine
 10
808.5446885240978
 20
1681.19218336857
 30
0.0
 11
796.7846885240981
 21
1751.752185766288
 31
0.0
  0
ARC
  5
1508
330
18
100
AcDbEntity
  8
ISO
100
AcDbCircle
 10
796.7846885240979
 20
1681.192183368571
 30
0.0
 40
11.76
100
AcDbArc
 50
180.0
 51
270.0
  0
LINE
  5
1509
330
18
100
AcDbEntity
  8
ISO
100
AcDbLine
 10
785.0246885240978
 20
1681.19218336857
 30
0.0
 11
796.7846885240981
 21
1751.752185766288
 31
0.0
  0
ARC
  5
150A
330
18
100
AcDbEntity
  8
ISO
100
AcDbCircle
 10
785.0246885240982
 20
1751.752183368571
 30
0.0
 40
11.76
100
AcDbArc
 50
0.0
 51
89.99999999999992
  0
ARC
  5
150B
330
18
100
AcDbEntity
  8
ISO
100
AcDbCircle
 10
773.2646885240979
 20
1681.192183368571
 30
0.0
 40
11.76
100
AcDbArc
 50
270.0
 51
0.0
  0
ARC
  5
150C
330
18
100
AcDbEntity
  8
ISO
100
AcDbCircle
 10
785.0246885240982
 20
1751.752183368571
 30
0.0
 40
11.76
100
AcDbArc
 50
90.00000000000005
 51
180.0
  0
LINE
  5
150D
330
18
100
AcDbEntity
  8
ISO
100
AcDbLine
 10
785.0246885240978
 20
1681.19218336857
 30
0.0
 11
773.2646885240981
 21
1751.752185766288
 31
0.0
  0
ARC
  5
150E
330
18
100
AcDbEntity
  8
ISO
100
AcDbCircle
 10
773.2646885240979
 20
1681.192183368571
 30
0.0
 40
11.76
100
AcDbArc
 50
180.0
 51
270.0
  0
LINE
  5
150F
330
18
100
AcDbEntity
  8
ISO
100
AcDbLine
 10
761.5046885240984
 20
1681.19218336857
 30
0.0
 11
773.2646885240981
 21
1751.752185766288
 31
0.0
  0
ARC
  5
1510
330
18
100
AcDbEntity
  8
ISO
100
AcDbCircle
 10
761.5046885240986
 20
1751.752183368571
 30
0.0
 40
11.76
100
AcDbArc
 50
0.0
 51
89.99999999999992
  0
ARC
  5
1511
330
18
100
AcDbEntity
  8
ISO
100
AcDbCircle
 10
749.7446885240984
 20
1681.192183368571
 30
0.0
 40
11.76
100
AcDbArc
 50
270.0
 51
0.0
  0
ARC
  5
1512
330
18
100
AcDbEntity
  8
ISO
100
AcDbCircle
 10
761.5046885240986
 20
1751.752183368571
 30
0.0
 40
11.76
100
AcDbArc
 50
90.00000000000005
 51
180.0
  0
LINE
  5
1513
330
18
100
AcDbEntity
  8
ISO
100
AcDbLine
 10
761.5046885240984
 20
1681.19218336857
 30
0.0
 11
749.7446885240986
 21
1751.752185766288
 31
0.0
  0
ARC
  5
1514
330
18
100
AcDbEntity
  8
ISO
100
AcDbCircle
 10
749.7446885240984
 20
1681.192183368571
 30
0.0
 40
11.76
100
AcDbArc
 50
180.0
 51
270.0
  0
LINE
  5
1515
330
18
100
AcDbEntity
  8
ISO
100
AcDbLine
 10
737.9846885240984
 20
1681.19218336857
 30
0.0
 11
749.7446885240986
 21
1751.752185766288
 31
0.0
  0
ARC
  5
1516
330
18
100
AcDbEntity
  8
ISO
100
AcDbCircle
 10
737.9846885240986
 20
1751.752183368571
 30
0.0
 40
11.76
100
AcDbArc
 50
0.0
 51
89.99999999999992
  0
ARC
  5
1517
330
18
100
AcDbEntity
  8
ISO
100
AcDbCircle
 10
726.2246885240984
 20
1681.192183368571
 30
0.0
 40
11.76
100
AcDbArc
 50
270.0
 51
0.0
  0
ARC
  5
1518
330
18
100
AcDbEntity
  8
ISO
100
AcDbCircle
 10
737.9846885240986
 20
1751.752183368571
 30
0.0
 40
11.76
100
AcDbArc
 50
90.00000000000005
 51
180.0
  0
LINE
  5
1519
330
18
100
AcDbEntity
  8
ISO
100
AcDbLine
 10
737.9846885240984
 20
1681.19218336857
 30
0.0
 11
726.2246885240986
 21
1751.752185766288
 31
0.0
  0
ARC
  5
151A
330
18
100
AcDbEntity
  8
ISO
100
AcDbCircle
 10
726.2246885240984
 20
1681.192183368571
 30
0.0
 40
11.76
100
AcDbArc
 50
180.0
 51
270.0
  0
LINE
  5
151B
330
18
100
AcDbEntity
  8
ISO
100
AcDbLine
 10
714.4646885240988
 20
1681.19218336857
 30
0.0
 11
726.2246885240986
 21
1751.752185766288
 31
0.0
  0
ARC
  5
151C
330
18
100
AcDbEntity
  8
ISO
100
AcDbCircle
 10
714.4646885240992
 20
1751.752183368571
 30
0.0
 40
11.76
100
AcDbArc
 50
0.0
 51
89.99999999999992
  0
ARC
  5
151D
330
18
100
AcDbEntity
  8
ISO
100
AcDbCircle
 10
702.704688524099
 20
1681.192183368571
 30
0.0
 40
11.76
100
AcDbArc
 50
270.0
 51
0.0
  0
ARC
  5
151E
330
18
100
AcDbEntity
  8
ISO
100
AcDbCircle
 10
714.4646885240992
 20
1751.752183368571
 30
0.0
 40
11.76
100
AcDbArc
 50
90.00000000000005
 51
180.0
  0
LINE
  5
151F
330
18
100
AcDbEntity
  8
ISO
100
AcDbLine
 10
714.4646885240988
 20
1681.19218336857
 30
0.0
 11
702.7046885240991
 21
1751.752185766288
 31
0.0
  0
ARC
  5
1520
330
18
100
AcDbEntity
  8
ISO
100
AcDbCircle
 10
702.704688524099
 20
1681.192183368571
 30
0.0
 40
11.76
100
AcDbArc
 50
180.0
 51
270.0
  0
LINE
  5
1521
330
18
100
AcDbEntity
  8
ISO
100
AcDbLine
 10
690.9446885240988
 20
1681.19218336857
 30
0.0
 11
702.7046885240991
 21
1751.752185766288
 31
0.0
  0
ARC
  5
1522
330
18
100
AcDbEntity
  8
ISO
100
AcDbCircle
 10
690.9446885240992
 20
1751.752183368571
 30
0.0
 40
11.76
100
AcDbArc
 50
0.0
 51
89.99999999999992
  0
ARC
  5
1523
330
18
100
AcDbEntity
  8
ISO
100
AcDbCircle
 10
679.184688524099
 20
1681.192183368571
 30
0.0
 40
11.76
100
AcDbArc
 50
270.0
 51
0.0
  0
ARC
  5
1524
330
18
100
AcDbEntity
  8
ISO
100
AcDbCircle
 10
690.9446885240992
 20
1751.752183368571
 30
0.0
 40
11.76
100
AcDbArc
 50
90.00000000000005
 51
180.0
  0
LINE
  5
1525
330
18
100
AcDbEntity
  8
ISO
100
AcDbLine
 10
690.9446885240988
 20
1681.19218336857
 30
0.0
 11
679.1846885240991
 21
1751.752185766288
 31
0.0
  0
ARC
  5
1526
330
18
100
AcDbEntity
  8
ISO
100
AcDbCircle
 10
679.184688524099
 20
1681.192183368571
 30
0.0
 40
11.76
100
AcDbArc
 50
180.0
 51
270.0
  0
LINE
  5
1527
330
18
100
AcDbEntity
  8
ISO
100
AcDbLine
 10
667.4246885240993
 20
1681.19218336857
 30
0.0
 11
679.1846885240991
 21
1751.752185766288
 31
0.0
  0
ARC
  5
1528
330
18
100
AcDbEntity
  8
ISO
100
AcDbCircle
 10
667.4246885240997
 20
1751.752183368571
 30
0.0
 40
11.76
100
AcDbArc
 50
0.0
 51
89.99999999999992
  0
ARC
  5
1529
330
18
100
AcDbEntity
  8
ISO
100
AcDbCircle
 10
655.6646885240994
 20
1681.192183368571
 30
0.0
 40
11.76
100
AcDbArc
 50
270.0
 51
0.0
  0
ARC
  5
152A
330
18
100
AcDbEntity
  8
ISO
100
AcDbCircle
 10
667.4246885240997
 20
1751.752183368571
 30
0.0
 40
11.76
100
AcDbArc
 50
90.00000000000005
 51
180.0
  0
LINE
  5
152B
330
18
100
AcDbEntity
  8
ISO
100
AcDbLine
 10
667.4246885240993
 20
1681.19218336857
 30
0.0
 11
655.6646885240995
 21
1751.752185766288
 31
0.0
  0
ARC
  5
152C
330
18
100
AcDbEntity
  8
ISO
100
AcDbCircle
 10
655.6646885240994
 20
1681.192183368571
 30
0.0
 40
11.76
100
AcDbArc
 50
180.0
 51
270.0
  0
LINE
  5
152D
330
18
100
AcDbEntity
  8
ISO
100
AcDbLine
 10
643.9046885240993
 20
1681.19218336857
 30
0.0
 11
655.6646885240995
 21
1751.752185766288
 31
0.0
  0
ARC
  5
152E
330
18
100
AcDbEntity
  8
ISO
100
AcDbCircle
 10
643.9046885240997
 20
1751.752183368571
 30
0.0
 40
11.76
100
AcDbArc
 50
0.0
 51
89.99999999999992
  0
ARC
  5
152F
330
18
100
AcDbEntity
  8
ISO
100
AcDbCircle
 10
632.1446885240995
 20
1681.192183368571
 30
0.0
 40
11.76
100
AcDbArc
 50
270.0
 51
0.0
  0
ARC
  5
1530
330
18
100
AcDbEntity
  8
ISO
100
AcDbCircle
 10
643.9046885240997
 20
1751.752183368571
 30
0.0
 40
11.76
100
AcDbArc
 50
90.00000000000005
 51
180.0
  0
LINE
  5
1531
330
18
100
AcDbEntity
  8
ISO
100
AcDbLine
 10
643.9046885240993
 20
1681.19218336857
 30
0.0
 11
632.1446885240995
 21
1751.752185766288
 31
0.0
  0
ARC
  5
1532
330
18
100
AcDbEntity
  8
ISO
100
AcDbCircle
 10
632.1446885240995
 20
1681.192183368571
 30
0.0
 40
11.76
100
AcDbArc
 50
180.0
 51
270.0
  0
LINE
  5
1533
330
18
100
AcDbEntity
  8
ISO
100
AcDbLine
 10
620.3846885240998
 20
1681.19218336857
 30
0.0
 11
632.1446885240995
 21
1751.752185766288
 31
0.0
  0
ARC
  5
1534
330
18
100
AcDbEntity
  8
ISO
100
AcDbCircle
 10
620.3846885240997
 20
1751.752183368571
 30
0.0
 40
11.76
100
AcDbArc
 50
0.0
 51
89.99999999999992
  0
ARC
  5
1535
330
18
100
AcDbEntity
  8
ISO
100
AcDbCircle
 10
608.6246885240999
 20
1681.192183368571
 30
0.0
 40
11.76
100
AcDbArc
 50
270.0
 51
0.0
  0
ARC
  5
1536
330
18
100
AcDbEntity
  8
ISO
100
AcDbCircle
 10
620.3846885240997
 20
1751.752183368571
 30
0.0
 40
11.76
100
AcDbArc
 50
90.00000000000005
 51
180.0
  0
LINE
  5
1537
330
18
100
AcDbEntity
  8
ISO
100
AcDbLine
 10
620.3846885240998
 20
1681.19218336857
 30
0.0
 11
608.6246885241
 21
1751.752185766289
 31
0.0
  0
ARC
  5
1538
330
18
100
AcDbEntity
  8
ISO
100
AcDbCircle
 10
608.6246885240999
 20
1681.192183368571
 30
0.0
 40
11.76
100
AcDbArc
 50
180.0
 51
270.0
  0
LINE
  5
1539
330
18
100
AcDbEntity
  8
ISO
100
AcDbLine
 10
596.8646885240998
 20
1681.192183368571
 30
0.0
 11
608.6246885241
 21
1751.752185766289
 31
0.0
  0
ARC
  5
153A
330
18
100
AcDbEntity
  8
ISO
100
AcDbCircle
 10
596.8646885241001
 20
1751.752183368571
 30
0.0
 40
11.76
100
AcDbArc
 50
0.0
 51
89.99999999999992
  0
ARC
  5
153B
330
18
100
AcDbEntity
  8
ISO
100
AcDbCircle
 10
585.1046885240999
 20
1681.192183368571
 30
0.0
 40
11.76
100
AcDbArc
 50
270.0
 51
0.0
  0
ARC
  5
153C
330
18
100
AcDbEntity
  8
ISO
100
AcDbCircle
 10
596.8646885241001
 20
1751.752183368571
 30
0.0
 40
11.76
100
AcDbArc
 50
90.00000000000005
 51
180.0
  0
LINE
  5
153D
330
18
100
AcDbEntity
  8
ISO
100
AcDbLine
 10
596.8646885240998
 20
1681.192183368571
 30
0.0
 11
585.1046885241
 21
1751.752185766289
 31
0.0
  0
ARC
  5
153E
330
18
100
AcDbEntity
  8
ISO
100
AcDbCircle
 10
585.1046885240999
 20
1681.192183368571
 30
0.0
 40
11.76
100
AcDbArc
 50
180.0
 51
270.0
  0
LINE
  5
153F
330
18
100
AcDbEntity
  8
ISO
100
AcDbLine
 10
573.3446885241002
 20
1681.192183368571
 30
0.0
 11
585.1046885241
 21
1751.752185766289
 31
0.0
  0
ARC
  5
1540
330
18
100
AcDbEntity
  8
ISO
100
AcDbCircle
 10
573.3446885241002
 20
1751.752183368571
 30
0.0
 40
11.76
100
AcDbArc
 50
0.0
 51
89.99999999999992
  0
ARC
  5
1541
330
18
100
AcDbEntity
  8
ISO
100
AcDbCircle
 10
561.5846885241004
 20
1681.192183368571
 30
0.0
 40
11.76
100
AcDbArc
 50
270.0
 51
0.0
  0
ARC
  5
1542
330
18
100
AcDbEntity
  8
ISO
100
AcDbCircle
 10
573.3446885241002
 20
1751.752183368571
 30
0.0
 40
11.76
100
AcDbArc
 50
90.00000000000005
 51
180.0
  0
LINE
  5
1543
330
18
100
AcDbEntity
  8
ISO
100
AcDbLine
 10
573.3446885241002
 20
1681.192183368571
 30
0.0
 11
561.5846885241005
 21
1751.752185766289
 31
0.0
  0
ARC
  5
1544
330
18
100
AcDbEntity
  8
ISO
100
AcDbCircle
 10
561.5846885241004
 20
1681.192183368571
 30
0.0
 40
11.76
100
AcDbArc
 50
180.0
 51
270.0
  0
LINE
  5
1545
330
18
100
AcDbEntity
  8
ISO
100
AcDbLine
 10
549.8246885241003
 20
1681.192183368571
 30
0.0
 11
561.5846885241005
 21
1751.752185766289
 31
0.0
  0
ARC
  5
1546
330
18
100
AcDbEntity
  8
ISO
100
AcDbCircle
 10
549.8246885241006
 20
1751.752183368571
 30
0.0
 40
11.76
100
AcDbArc
 50
0.0
 51
89.99999999999992
  0
ARC
  5
1547
330
18
100
AcDbEntity
  8
ISO
100
AcDbCircle
 10
538.0646885241004
 20
1681.192183368571
 30
0.0
 40
11.76
100
AcDbArc
 50
270.0
 51
0.0
  0
LINE
  5
1549
330
18
100
AcDbEntity
  8
ISO
100
AcDbLine
 10
549.8246885241003
 20
1681.192183368571
 30
0.0
 11
538.0646885241005
 21
1751.752185766289
 31
0.0
  0
ARC
  5
154A
330
18
100
AcDbEntity
  8
ISO
100
AcDbCircle
 10
538.0646885241004
 20
1681.192183368571
 30
0.0
 40
11.76
100
AcDbArc
 50
180.0
 51
270.0
  0
LINE
  5
154B
330
18
100
AcDbEntity
  8
ISO
100
AcDbLine
 10
526.3046885241008
 20
1681.192183368571
 30
0.0
 11
538.0646885241005
 21
1751.752185766289
 31
0.0
  0
ARC
  5
154D
330
18
100
AcDbEntity
  8
ISO
100
AcDbCircle
 10
514.5446885241009
 20
1681.192183368571
 30
0.0
 40
11.76
100
AcDbArc
 50
270.0
 51
0.0
  0
LINE
  5
154F
330
18
100
AcDbEntity
  8
ISO
100
AcDbLine
 10
526.3046885241008
 20
1681.192183368571
 30
0.0
 11
514.544688524101
 21
1751.752185766289
 31
0.0
  0
ARC
  5
1550
330
18
100
AcDbEntity
  8
ISO
100
AcDbCircle
 10
514.5446885241009
 20
1681.192183368571
 30
0.0
 40
11.76
100
AcDbArc
 50
180.0
 51
270.0
  0
LINE
  5
1551
330
18
100
AcDbEntity
  8
ISO
100
AcDbLine
 10
502.7846885241006
 20
1681.192183368571
 30
0.0
 11
514.544688524101
 21
1751.752185766289
 31
0.0
  0
ARC
  5
1553
330
18
100
AcDbEntity
  8
ISO
100
AcDbCircle
 10
491.0246885241009
 20
1681.192183368571
 30
0.0
 40
11.76
100
AcDbArc
 50
270.0
 51
0.0
  0
LINE
  5
1555
330
18
100
AcDbEntity
  8
ISO
100
AcDbLine
 10
502.7846885241006
 20
1681.192183368571
 30
0.0
 11
491.0246885241011
 21
1751.752185766289
 31
0.0
  0
LINE
  5
1557
330
18
100
AcDbEntity
  8
ISO
100
AcDbLine
 10
483.1041002863814
 20
1704.228654725062
 30
0.0
 11
491.0246885241011
 21
1751.752185766289
 31
0.0
  0
LWPOLYLINE
  5
167F
330
18
100
AcDbEntity
  8
V25
  6
Continuous
100
AcDbPolyline
 90
        2
 70
     0
 43
0.0
 10
524.0338849567069
 20
1019.176970050903
 10
459.2931878778397
 20
1759.166523779579
  0
LWPOLYLINE
  5
1680
330
18
100
AcDbEntity
  8
V25
  6
Continuous
100
AcDbPolyline
 90
        2
 70
     0
 43
0.0
 10
528.0491643068804
 20
1019.176970050903
 10
463.2779666702069
 20
1759.51514675057
  0
LWPOLYLINE
  5
1F2E
330
18
100
AcDbEntity
  8
V5
  6
Continuous
 62
     7
100
AcDbPolyline
 90
        4
 70
     1
 43
0.8
 10
267.3328243049409
 20
2037.033578298193
 10
326.5593530168253
 20
2042.215228140475
 10
324.5047126969803
 20
2065.699874459667
 10
265.2781839850959
 20
2060.518224617385
  0
INSERT
  5
1F2F
330
18
100
AcDbEntity
  8
V25
100
AcDbBlockReference
  2
*X1
 10
764.4466700873823
 20
1678.603005064488
 30
0.0
 50
95.00000000000005
  0
LWPOLYLINE
  5
1F31
330
18
100
AcDbEntity
  8
V5
  6
Continuous
100
AcDbPolyline
 90
        6
 70
     0
 43
1.5
 10
328.5817529604246
 20
2010.982629741567
 10
266.3195843296903
 20
2005.535395819838
 10
260.3424161411399
 20
2005.012461363352
 10
258.5557234148132
 20
2025.434452674233
 10
262.035184050761
 20
2032.767003678514
 10
259.6384011252003
 20
2060.162357876036
  0
LWPOLYLINE
  5
1F32
330
18
100
AcDbEntity
  8
V5
  6
Continuous
 62
     7
100
AcDbPolyline
 90
        2
 70
     0
 43
1.5
 10
262.0351800268868
 20
2032.767049671606
 10
326.1849817522925
 20
2038.377850008268
  0
LINE
  5
1F34
330
18
100
AcDbEntity
  8
V35
100
AcDbLine
 10
254.5123601217856
 20
2045.157100974444
 30
0.0
 11
273.8820759240866
 21
2046.851731522863
 31
0.0
  0
LINE
  5
1F35
330
18
100
AcDbEntity
  8
V35
100
AcDbLine
 10
248.9910522326054
 20
2015.096271695896
 30
0.0
 11
263.0416207877806
 21
2016.325537160568
 31
0.0
  0
LINE
  5
1F36
330
18
100
AcDbEntity
  8
V35
100
AcDbLine
 10
250.694671130233
 20
2086.788315447433
 30
0.0
 11
267.7700558244914
 21
2088.282218033524
 31
0.0
  0
MTEXT
  5
1F3A
102
{ACAD_XDICTIONARY
360
3340
102
}
330
18
100
AcDbEntity
  8
TXT-D
100
AcDbMText
 10
166.5094170463978
 20
1725.923910506577
 30
0.0
 40
14.0
 41
207.225491523042
 71
     7
 72
     5
  1
\pi26.572;kotven\U+00ED h\U+0159ebenov\U+00E9ho  \P\pi98.673;oplechov\U+00E1n\U+00ED:\P\pi30.067;max. vzd\U+00E1lenost 400 \P\pi53.875;mm, ne do stojat\U+00E9 \P\pi150.46;dr\U+00E1\U+017Eky
  7
ROMANS
 11
0.0000000000000008
 21
1.0
 31
0.0
 73
     1
 44
1.0
1001
ACAD
1000
ACAD_MTEXT_DEFINED_HEIGHT_BEGIN
1070
    46
1040
158.4979536152797
1000
ACAD_MTEXT_DEFINED_HEIGHT_END
  0
LINE
  5
1F3B
330
18
100
AcDbEntity
  8
TXT-E
  6
VERDECKTX2
 48
5.0
100
AcDbLine
 10
61.17051038485056
 20
1936.324884221027
 30
0.0
 11
61.17051038485079
 21
2014.565340825442
 31
0.0
  0
LINE
  5
1F3C
330
18
100
AcDbEntity
  8
TXT-E
  6
VERDECKTX2
 48
5.0
100
AcDbLine
 10
61.17051038485079
 20
2014.565340825442
 30
0.0
 11
223.3772248874243
 21
2014.565340825442
 31
0.0
  0
LINE
  5
1F3F
330
18
100
AcDbEntity
  8
V25
100
AcDbLine
 10
626.7742391748636
 20
1600.780962441558
 30
0.0
 11
587.5005928169623
 21
1597.344963609916
 31
0.0
  0
LINE
  5
1F40
330
18
100
AcDbEntity
  8
V25
100
AcDbLine
 10
508.20036796984
 20
1497.234224054815
 30
0.0
 11
488.5635447908896
 21
1495.516224638994
 31
0.0
  0
LINE
  5
1F41
330
18
100
AcDbEntity
  8
V25
100
AcDbLine
 10
532.6077986139182
 20
1218.256015216979
 30
0.0
 11
512.9709754349678
 21
1216.538015801158
 31
0.0
  0
LINE
  5
1F68
330
18
100
AcDbEntity
  8
TXT-D
 48
5.0
100
AcDbLine
 10
762.455806073194
 20
1565.003072612637
 30
0.0
 11
762.455806073194
 21
1588.448705222298
 31
0.0
  0
LINE
  5
1F69
330
18
100
AcDbEntity
  8
TXT-D
 48
5.0
100
AcDbLine
 10
762.455806073194
 20
1588.448705222298
 30
0.0
 11
484.1401115645601
 21
1588.448705222299
 31
0.0
  0
LINE
  5
1F6A
330
18
100
AcDbEntity
  8
TXT-D
 48
5.0
100
AcDbLine
 10
721.1365721395268
 20
1532.99884303869
 30
0.0
 11
721.136572139527
 21
1559.90323690794
 31
0.0
  0
LINE
  5
1F6B
330
18
100
AcDbEntity
  8
TXT-D
 48
5.0
100
AcDbLine
 10
721.136572139527
 20
1559.90323690794
 30
0.0
 11
566.2839488208867
 21
1559.903236907941
 31
0.0
  0
LINE
  5
1F87
330
18
100
AcDbEntity
  8
TXT-D
100
AcDbLine
 10
542.3553627524113
 20
1783.3122076421
 30
0.0
 11
542.3553627524113
 21
1863.115590196834
 31
0.0
  0
LINE
  5
1F8F
330
18
100
AcDbEntity
  8
TXT-D
100
AcDbLine
 10
796.8802201607148
 20
1666.73468084985
 30
0.0
 11
796.8802201607148
 21
1863.115590196833
 31
0.0
  0
TEXT
  5
1F90
330
18
100
AcDbEntity
  8
TXT-D
100
AcDbText
 10
803.5705645163689
 20
1868.001483778614
 30
0.0
 40
14.0
  1
C kazeta
 50
90.0
  7
ROMANS
100
AcDbText
  0
LINE
  5
1F99
330
18
100
AcDbEntity
  8
TXT-D
100
AcDbLine
 10
736.7665007594248
 20
1779.757574577077
 30
0.0
 11
736.7665007594248
 21
1863.115590196833
 31
0.0
  0
TEXT
  5
1F9A
330
18
100
AcDbEntity
  8
TXT-D
100
AcDbText
 10
743.4568451150791
 20
1868.001483778614
 30
0.0
 40
14.0
  1
vlnitý plech
 50
90.0
  7
ROMANS
100
AcDbText
  0
TEXT
  5
1F9C
330
18
100
AcDbEntity
  8
TXT-D
100
AcDbText
 10
863.6842839176589
 20
1868.001483778614
 30
0.0
 40
14.0
  1
tepelná izolace
 50
90.0
  7
ROMANS
100
AcDbText
  0
LINE
  5
1F9D
330
18
100
AcDbEntity
  8
TXT-D
100
AcDbLine
 10
856.9939395620046
 20
1715.8697764129
 30
0.0
 11
856.9939395620046
 21
1863.115590196833
 31
0.0
  0
MTEXT
  5
1FA1
102
{ACAD_XDICTIONARY
360
3430
102
}
330
18
100
AcDbEntity
  8
TXT-D
100
AcDbMText
 10
534.6636026550697
 20
1868.001483778614
 30
0.0
 40
14.0
 41
147.3781
 71
     1
 72
     5
  1
tepeln\U+011B izola\U+010Dn\U+00ED\P p\U+00E1sek
  7
ROMANS
 11
0.0000000000000006
 21
1.0
 31
0.0
 73
     1
 44
1.0
  0
MTEXT
  5
21B6
102
{ACAD_XDICTIONARY
360
3432
102
}
330
18
100
AcDbEntity
  8
TXT-D
100
AcDbMText
 10
474.8393532595021
 20
1868.001483778614
 30
0.0
 40
14.0
 41
147.3781
 71
     1
 72
     5
  1
uzav\U+00EDrac\U+00ED profil   C kazet
  7
ROMANS
 11
0.0000000000000006
 21
1.0
 31
0.0
 73
     1
 44
1.0
  0
LINE
  5
21B8
330
18
100
AcDbEntity
  8
TXT-D
100
AcDbLine
 10
482.2416433511214
 20
1763.986432504757
 30
0.0
 11
482.2416433511214
 21
1863.115590196834
 31
0.0
  0
MTEXT
  5
2370
102
{ACAD_XDICTIONARY
360
3434
102
}
330
18
100
AcDbEntity
  8
TXT-D
100
AcDbMText
 10
794.7489082810602
 20
1395.971942459051
 30
0.0
 40
14.0
 41
184.6280440901693
 71
     7
 72
     5
  1
vnit\U+0159n\U+00ED oplechov\U+00E1n\U+00ED trap\U+00E9zu
  7
ROMANS
 11
0.0000000000000008
 21
1.0
 31
0.0
 73
     1
 44
1.0
  0
LWPOLYLINE
  5
23D4
330
18
100
AcDbEntity
  8
V35
100
AcDbPolyline
 90
        2
 70
     1
 43
2.9
 10
248.4264838923682
 20
2013.015340825442
 42
1.0
 10
248.4264838923682
 20
2016.115340825442
 42
1.0
  0
LWPOLYLINE
  5
23D5
330
18
100
AcDbEntity
  8
V35
100
AcDbPolyline
 90
        2
 70
     1
 43
2.9
 10
291.9873912469229
 20
2048.312442303492
 42
1.0
 10
291.9873912469229
 20
2051.412442303492
 42
1.0
  0
LWPOLYLINE
  5
23D6
330
18
100
AcDbEntity
  8
V35
100
AcDbPolyline
 90
        2
 70
     1
 43
2.9
 10
248.6417928750189
 20
2074.867004456651
 42
1.0
 10
248.6417928750189
 20
2077.967004456651
 42
1.0
  0
LWPOLYLINE
  5
23D7
330
18
100
AcDbEntity
  8
V35
100
AcDbPolyline
 90
        2
 70
     1
 43
2.9
 10
255.9497208470352
 20
2097.141949843809
 42
1.0
 10
255.9497208470352
 20
2100.241949843809
 42
1.0
  0
LWPOLYLINE
  5
23D8
330
18
100
AcDbEntity
  8
V35
100
AcDbPolyline
 90
        2
 70
     1
 43
2.9
 10
305.9505499173588
 20
2123.707768152266
 42
1.0
 10
305.9505499173588
 20
2126.807768152266
 42
1.0
  0
LWPOLYLINE
  5
23DB
330
18
100
AcDbEntity
  8
V35
100
AcDbPolyline
 90
        2
 70
     1
 43
2.9
 10
482.2416433511214
 20
1762.436432504757
 42
1.0
 10
482.2416433511214
 20
1765.536432504757
 42
1.0
  0
LWPOLYLINE
  5
23DE
330
18
100
AcDbEntity
  8
V35
100
AcDbPolyline
 90
        2
 70
     1
 43
2.9
 10
736.7665007594248
 20
1778.207574577077
 42
1.0
 10
736.7665007594248
 20
1781.307574577077
 42
1.0
  0
LWPOLYLINE
  5
23DF
330
18
100
AcDbEntity
  8
V35
100
AcDbPolyline
 90
        2
 70
     1
 43
2.9
 10
796.8802201607148
 20
1665.184680849849
 42
1.0
 10
796.8802201607148
 20
1668.284680849849
 42
1.0
  0
LWPOLYLINE
  5
23E0
330
18
100
AcDbEntity
  8
V35
100
AcDbPolyline
 90
        2
 70
     1
 43
2.9
 10
856.9939395620046
 20
1714.3197764129
 42
1.0
 10
856.9939395620046
 20
1717.4197764129
 42
1.0
  0
LWPOLYLINE
  5
23E2
330
18
100
AcDbEntity
  8
V35
100
AcDbPolyline
 90
        2
 70
     1
 43
2.9
 10
527.754777524384
 20
1767.161622414073
 42
1.0
 10
527.754777524384
 20
1770.261622414073
 42
1.0
  0
LWPOLYLINE
  5
23E5
330
18
100
AcDbEntity
  8
V35
100
AcDbPolyline
 90
        2
 70
     1
 43
2.9
 10
566.2839488208867
 20
1558.353236907941
 42
1.0
 10
566.2839488208867
 20
1561.453236907941
 42
1.0
  0
LWPOLYLINE
  5
23E6
330
18
100
AcDbEntity
  8
V35
100
AcDbPolyline
 90
        2
 70
     1
 43
2.9
 10
260.084322795889
 20
2004.231863116136
 42
1.0
 10
260.084322795889
 20
2007.331863116136
 42
1.0
  0
ARC
  5
261B
330
18
100
AcDbEntity
  8
ISO
  6
VERDECKT
 48
1.8
100
AcDbCircle
 10
410.7395001981707
 20
1309.368694174241
 30
0.0
 40
11.64
100
AcDbArc
 50
185.0000000000006
 51
275.0000000000003
  0
ARC
  5
261C
330
18
100
AcDbEntity
  8
ISO
  6
VERDECKT
 48
1.8
100
AcDbCircle
 10
412.7684858893368
 20
1286.177281602665
 30
0.0
 40
11.64
100
AcDbArc
 50
95.00000000000033
 51
185.0000000000006
  0
ARC
  5
261D
330
18
100
AcDbEntity
  8
ISO
  6
VERDECKT
 48
1.8
100
AcDbCircle
 10
412.7684858893368
 20
1286.177281602665
 30
0.0
 40
11.64
100
AcDbArc
 50
185.0000000000006
 51
275.0000000000003
  0
ARC
  5
261E
330
18
100
AcDbEntity
  8
ISO
  6
VERDECKT
 48
1.8
100
AcDbCircle
 10
414.7974715805022
 20
1262.985869031089
 30
0.0
 40
11.64
100
AcDbArc
 50
95.00000000000033
 51
185.0000000000006
  0
ARC
  5
261F
330
18
100
AcDbEntity
  8
ISO
  6
VERDECKT
 48
1.8
100
AcDbCircle
 10
414.7974715805022
 20
1262.985869031089
 30
0.0
 40
11.64
100
AcDbArc
 50
185.0000000000006
 51
275.0000000000003
  0
ARC
  5
2620
330
18
100
AcDbEntity
  8
ISO
  6
VERDECKT
 48
1.8
100
AcDbCircle
 10
416.8264572716679
 20
1239.794456459513
 30
0.0
 40
11.64
100
AcDbArc
 50
95.00000000000033
 51
185.0000000000006
  0
ARC
  5
2621
330
18
100
AcDbEntity
  8
ISO
  6
VERDECKT
 48
1.8
100
AcDbCircle
 10
416.8264572716679
 20
1239.794456459513
 30
0.0
 40
11.64
100
AcDbArc
 50
185.0000000000006
 51
275.0000000000003
  0
ARC
  5
2622
330
18
100
AcDbEntity
  8
ISO
  6
VERDECKT
 48
1.8
100
AcDbCircle
 10
418.8554429628332
 20
1216.603043887938
 30
0.0
 40
11.64
100
AcDbArc
 50
95.00000000000033
 51
185.0000000000006
  0
ARC
  5
2623
330
18
100
AcDbEntity
  8
ISO
  6
VERDECKT
 48
1.8
100
AcDbCircle
 10
418.8554429628332
 20
1216.603043887938
 30
0.0
 40
11.64
100
AcDbArc
 50
185.0000000000006
 51
275.0000000000003
  0
ARC
  5
2624
330
18
100
AcDbEntity
  8
ISO
  6
VERDECKT
 48
1.8
100
AcDbCircle
 10
420.8844286539989
 20
1193.411631316362
 30
0.0
 40
11.64
100
AcDbArc
 50
95.00000000000033
 51
185.0000000000006
  0
ARC
  5
2625
330
18
100
AcDbEntity
  8
ISO
  6
VERDECKT
 48
1.8
100
AcDbCircle
 10
420.8844286539989
 20
1193.411631316362
 30
0.0
 40
11.64
100
AcDbArc
 50
185.0000000000006
 51
275.0000000000003
  0
ARC
  5
2626
330
18
100
AcDbEntity
  8
ISO
  6
VERDECKT
 48
1.8
100
AcDbCircle
 10
422.9134143451646
 20
1170.220218744787
 30
0.0
 40
11.64
100
AcDbArc
 50
185.0000000000006
 51
275.0000000000003
  0
ARC
  5
2627
330
18
100
AcDbEntity
  8
ISO
  6
VERDECKT
 48
1.8
100
AcDbCircle
 10
422.9134143451646
 20
1170.220218744787
 30
0.0
 40
11.64
100
AcDbArc
 50
95.00000000000033
 51
185.0000000000006
  0
LINE
  5
2628
330
18
100
AcDbEntity
  8
ISO
100
AcDbLine
 10
425.9568928819133
 20
1135.433099887424
 30
0.0
 11
494.5166401152785
 21
1153.11576345355
 31
0.0
  0
ARC
  5
2629
330
18
100
AcDbEntity
  8
ISO
  6
VERDECKT
 48
1.8
100
AcDbCircle
 10
424.9424000363299
 20
1147.028806173211
 30
0.0
 40
11.64
100
AcDbArc
 50
95.00000000000033
 51
185.0000000000006
  0
LINE
  5
262B
330
18
100
AcDbEntity
  8
ISO
100
AcDbLine
 10
436.1018213377408
 20
1019.476037029545
 30
0.0
 11
504.6615685711064
 21
1037.158700595671
 31
0.0
  0
LINE
  5
262C
330
18
100
AcDbEntity
  8
ISO
100
AcDbLine
 10
432.0438499554099
 20
1065.858862172696
 30
0.0
 11
502.6325828799411
 21
1060.350113167247
 31
0.0
  0
LINE
  5
262D
330
18
100
AcDbEntity
  8
ISO
100
AcDbLine
 10
434.0728356465758
 20
1042.667449601121
 30
0.0
 11
504.6615685711064
 21
1037.158700595671
 31
0.0
  0
LINE
  5
262E
330
18
100
AcDbEntity
  8
ISO
100
AcDbLine
 10
434.0728356465758
 20
1042.667449601121
 30
0.0
 11
502.6325828799411
 21
1060.350113167247
 31
0.0
  0
LINE
  5
2630
330
18
100
AcDbEntity
  8
V25
 62
     4
100
AcDbLine
 10
472.9030894157374
 20
1103.837265249479
 30
0.0
 11
418.2795588137898
 21
1099.058325560047
 31
0.0
  0
LINE
  5
2631
330
18
100
AcDbEntity
  8
SV35
  6
VERDECKT
 62
     6
 48
3.0
100
AcDbLine
 10
266.2568876300693
 20
2083.135188586948
 30
0.0
 11
278.797192758574
 21
1939.798845075564
 31
0.0
  0
LINE
  5
2632
330
18
100
AcDbEntity
  8
SV35
  6
VERDECKT
 62
     6
 48
3.0
100
AcDbLine
 10
277.2150293090817
 20
2084.093901757173
 30
0.0
 11
290.1193847879233
 21
1936.596443700596
 31
0.0
  0
LWPOLYLINE
  5
2633
330
18
100
AcDbEntity
  8
V25
100
AcDbPolyline
 90
       10
 70
     0
 43
0.0
 10
272.7901119911599
 20
1942.970356586258
 10
283.2511932336408
 20
1937.866233338995
 10
293.2581802629368
 20
1936.016143931766
 10
306.2610535518056
 20
1938.00263853447
 10
315.957272813595
 20
1941.53177373068
 10
327.0631738796396
 20
1947.221690954417
 10
334.6883751053588
 20
1948.898572807481
 10
343.504473074388
 20
1948.811970428598
 10
350.7343665880994
 20
1947.049566067312
 10
368.7341547184721
 20
1936.987821609944
  0
LWPOLYLINE
  5
2634
330
18
100
AcDbEntity
  8
V25
100
AcDbPolyline
 90
       10
 70
     0
 43
0.0
 10
276.9053853373768
 20
1895.932566998838
 10
287.3664665798576
 20
1890.828443751576
 10
297.3734536091535
 20
1888.978354344348
 10
310.3763268980226
 20
1890.96484894705
 10
320.0725461598119
 20
1894.493984143261
 10
331.1784472258566
 20
1900.183901366998
 10
338.8036484515758
 20
1901.860783220062
 10
347.6197464206046
 20
1901.77418084118
 10
354.8496399343155
 20
1900.011776479894
 10
372.874993287305
 20
1889.657820190893
  0
LINE
  5
2635
330
18
100
AcDbEntity
  8
V5
 62
     6
100
AcDbLine
 10
356.0049252736537
 20
1899.34816819047
 30
0.0
 11
428.7130162353707
 21
1068.290885664148
 31
0.0
  0
LINE
  5
2636
330
18
100
AcDbEntity
  8
V5
 62
     6
100
AcDbLine
 10
361.2896029058068
 20
1896.312592680063
 30
0.0
 11
433.69398972583
 21
1068.726664377887
 31
0.0
  0
ARC
  5
2637
330
18
100
AcDbEntity
  8
V25
100
AcDbCircle
 10
528.3687396363339
 20
993.1023479223185
 30
0.0
 40
158.5185392370107
100
AcDbArc
 50
117.2575828001763
 51
128.5341003580874
  0
ARC
  5
2638
330
18
100
AcDbEntity
  8
V25
100
AcDbCircle
 10
528.3687396363339
 20
993.1023479223185
 30
0.0
 40
128.3784968535194
100
AcDbArc
 50
105.979876296531
 51
138.0103611796853
  0
LWPOLYLINE
  5
2639
330
18
100
AcDbEntity
  8
V5
100
AcDbPolyline
 90
        4
 70
     1
 43
0.0
 10
496.7251023437709
 20
1074.241172181383
 10
491.2238848122858
 20
1137.120376295122
 10
428.3446806985469
 20
1131.619158763637
 10
433.8458982300319
 20
1068.739954649898
  0
LINE
  5
2642
330
18
100
AcDbEntity
  8
TXT-D
  6
ByBlock
 62
     1
100
AcDbLine
 10
277.1281051501974
 20
1514.927100559201
 30
0.0
 11
312.7825109890755
 21
1107.395376996939
 31
0.0
  0
LINE
  5
2643
330
18
100
AcDbEntity
  8
SV35
  6
VERDECKT
 62
     6
 48
3.0
100
AcDbLine
 10
282.9124661047911
 20
1892.761055488145
 30
0.0
 11
355.6038563544084
 21
1061.89466297466
 31
0.0
  0
LINE
  5
2644
330
18
100
AcDbEntity
  8
SV35
  6
VERDECKT
 62
     6
 48
3.0
100
AcDbLine
 10
294.2346581341396
 20
1889.558654113177
 30
0.0
 11
366.5619980334154
 21
1062.853376144884
 31
0.0
  0
SOLID
  5
2650
330
18
100
AcDbEntity
  8
TXT-D
  6
ByBlock
 62
     1
100
AcDbTrace
 10
315.68807885851
 20
1107.649581246619
 30
0.0
 11
309.8769431196416
 21
1107.141172747258
 31
0.0
 12
314.3077364871593
 22
1089.961969780334
 32
0.0
 13
314.3077364871593
 23
1089.961969780334
 33
0.0
  0
LINE
  5
2651
330
18
100
AcDbEntity
  8
TXT-D
  6
ByBlock
 62
     1
100
AcDbLine
 10
339.3597208930582
 20
1091.868956817054
 30
0.0
 11
310.929783077016
 21
1089.381659553402
 31
0.0
  0
ARC
  5
2652
330
18
100
AcDbEntity
  8
ISO
  6
VERDECKT
 48
1.8
100
AcDbCircle
 10
431.0293571098271
 20
1077.454568458484
 30
0.0
 40
11.64
100
AcDbArc
 50
185.0000000000006
 51
275.0000000000003
  0
ARC
  5
2653
330
18
100
AcDbEntity
  8
ISO
100
AcDbCircle
 10
433.0583428009927
 20
1054.263155886908
 30
0.0
 40
11.64
100
AcDbArc
 50
95.00000000000033
 51
185.0000000000006
  0
ARC
  5
2654
330
18
100
AcDbEntity
  8
ISO
100
AcDbCircle
 10
435.0873284921584
 20
1031.071743315332
 30
0.0
 40
11.64
100
AcDbArc
 50
185.0000000000006
 51
275.0000000000003
  0
ARC
  5
2655
330
18
100
AcDbEntity
  8
ISO
100
AcDbCircle
 10
435.0873284921584
 20
1031.071743315332
 30
0.0
 40
11.64
100
AcDbArc
 50
95.00000000000033
 51
185.0000000000006
  0
ARC
  5
2656
330
18
100
AcDbEntity
  8
ISO
100
AcDbCircle
 10
433.0583428009927
 20
1054.263155886908
 30
0.0
 40
11.64
100
AcDbArc
 50
185.0000000000006
 51
275.0000000000003
  0
LINE
  5
2657
330
18
100
AcDbEntity
  8
SV35
  6
VERDECKT
 62
     6
 48
3.0
100
AcDbLine
 10
355.6038563544057
 20
1061.89466297466
 30
0.0
 11
415.9526615172451
 21
1067.174499283743
 31
0.0
  0
ARC
  5
2658
330
18
100
AcDbEntity
  8
ISO
  6
VERDECKT
 48
1.8
100
AcDbCircle
 10
426.971385727496
 20
1123.837393601635
 30
0.0
 40
11.64
100
AcDbArc
 50
95.00000000000033
 51
185.0000000000006
  0
ARC
  5
2659
330
18
100
AcDbEntity
  8
ISO
  6
VERDECKT
 48
1.8
100
AcDbCircle
 10
429.0003714186616
 20
1100.645981030059
 30
0.0
 40
11.64
100
AcDbArc
 50
185.0000000000006
 51
275.0000000000003
  0
ARC
  5
265A
330
18
100
AcDbEntity
  8
ISO
  6
VERDECKT
 48
1.8
100
AcDbCircle
 10
431.0293571098271
 20
1077.454568458484
 30
0.0
 40
11.64
100
AcDbArc
 50
95.00000000000033
 51
185.0000000000006
  0
LINE
  5
265B
330
18
100
AcDbEntity
  8
V5
 62
     6
100
AcDbLine
 10
415.9526615172451
 20
1067.174499283743
 30
0.0
 11
433.693989725831
 21
1068.726664377886
 31
0.0
  0
ARC
  5
265C
330
18
100
AcDbEntity
  8
ISO
  6
VERDECKT
 48
1.8
100
AcDbCircle
 10
426.971385727496
 20
1123.837393601635
 30
0.0
 40
11.64
100
AcDbArc
 50
185.0000000000006
 51
275.0000000000003
  0
ARC
  5
265D
330
18
100
AcDbEntity
  8
ISO
  6
VERDECKT
 48
1.8
100
AcDbCircle
 10
429.0003714186616
 20
1100.645981030059
 30
0.0
 40
11.64
100
AcDbArc
 50
95.00000000000033
 51
185.0000000000006
  0
ARC
  5
265E
330
18
100
AcDbEntity
  8
ISO
  6
VERDECKT
 48
1.8
100
AcDbCircle
 10
424.9424000363299
 20
1147.028806173211
 30
0.0
 40
11.64
100
AcDbArc
 50
185.0000000000006
 51
275.0000000000003
  0
TEXT
  5
265F
330
18
100
AcDbEntity
  8
TXT-D
100
AcDbText
 10
294.380823601463
 20
1259.202157094891
 30
0.0
 40
14.0
  1
podle statiky
 50
95.00000000000033
  7
ROMANS
100
AcDbText
  0
TEXT
  5
2664
330
18
100
AcDbEntity
  8
TXT-D
100
AcDbText
 10
256.2680353321813
 20
1695.16231888576
 30
0.0
 40
14.0
  1
podle statiky (max. 1500)
 50
95.00000000000033
  7
ROMANS
100
AcDbText
  0
LINE
  5
2665
330
18
100
AcDbEntity
  8
TXT-D
  6
ByBlock
 62
     1
100
AcDbLine
 10
223.6222249074417
 20
2126.50211023915
 30
0.0
 11
274.0776541540295
 21
1549.793914992411
 31
0.0
  0
SOLID
  5
266B
330
18
100
AcDbEntity
  8
TXT-D
  6
ByBlock
 62
     1
100
AcDbTrace
 10
276.9832220234631
 20
1550.048119242093
 30
0.0
 11
271.1720862845947
 21
1549.539710742732
 31
0.0
 12
275.6028796521133
 22
1532.360507775807
 32
0.0
 13
275.6028796521133
 23
1532.360507775807
 33
0.0
  0
LINE
  5
266C
330
18
100
AcDbEntity
  8
TXT-D
  6
ByBlock
 62
     1
100
AcDbLine
 10
300.6548640580104
 20
1534.267494812525
 30
0.0
 11
272.2249262419696
 21
1531.780197548875
 31
0.0
  0
SOLID
  5
266D
330
18
100
AcDbEntity
  8
TXT-D
  6
ByBlock
 62
     1
100
AcDbTrace
 10
280.0336730196315
 20
1515.181304808881
 30
0.0
 11
274.2225372807626
 21
1514.672896309521
 31
0.0
 12
275.6028796521133
 22
1532.360507775807
 32
0.0
 13
275.6028796521133
 23
1532.360507775807
 33
0.0
  0
LINE
  5
2670
330
18
100
AcDbEntity
  8
V25
100
AcDbLine
 10
273.1592868821822
 20
1938.750668273009
 30
0.0
 11
276.6315867420187
 21
1899.062099264196
 31
0.0
  0
LINE
  5
2678
330
18
100
AcDbEntity
  8
TXT-D
  6
ByBlock
 62
     1
100
AcDbLine
 10
247.1489838152579
 20
2145.842504492476
 30
0.0
 11
218.7190459992144
 21
2143.355207228824
 31
0.0
  0
SOLID
  5
2679
330
18
100
AcDbEntity
  8
TXT-D
  6
ByBlock
 62
     1
100
AcDbTrace
 10
226.5277927768756
 20
2126.756314488831
 30
0.0
 11
220.7166570380067
 21
2126.247905989469
 31
0.0
 12
222.0969994093565
 22
2143.935517455755
 32
0.0
 13
222.0969994093565
 23
2143.935517455755
 33
0.0
  0
ARC
  5
267A
330
18
100
AcDbEntity
  8
ISO
  6
VERDECKT
 48
2.0
100
AcDbCircle
 10
469.1543166114881
 20
1443.008420391404
 30
0.0
 40
11.64
100
AcDbArc
 50
5.000000000000621
 51
95.00000000000033
  0
ARC
  5
267B
330
18
100
AcDbEntity
  8
ISO
  6
VERDECKT
 48
1.8
100
AcDbCircle
 10
398.5655860511776
 20
1448.517169603695
 30
0.0
 40
11.64
100
AcDbArc
 50
185.0000000000006
 51
275.0000000000003
  0
LINE
  5
267C
330
18
100
AcDbEntity
  8
ISO
100
AcDbLine
 10
399.5800788967597
 20
1436.921463317907
 30
0.0
 11
470.168811821291
 21
1431.412714312458
 31
0.0
  0
ARC
  5
267D
330
18
100
AcDbEntity
  8
ISO
  6
VERDECKT
 48
1.8
100
AcDbCircle
 10
400.5945717423425
 20
1425.325757032119
 30
0.0
 40
11.64
100
AcDbArc
 50
95.00000000000033
 51
185.0000000000006
  0
LWPOLYLINE
  5
267E
330
18
100
AcDbEntity
  8
SV35
 48
3.0
100
AcDbPolyline
 90
        2
 70
   128
 43
0.0
 10
450.1565510380532
 20
1651.33506568478
 10
505.4632179621562
 20
1019.176970050903
  0
LWPOLYLINE
  5
267F
330
18
100
AcDbEntity
  8
V5
100
AcDbPolyline
 90
        2
 70
   128
 43
0.0
 10
447.167966943778
 20
1651.073598456537
 10
502.4517584495261
 20
1019.176970050903
  0
LWPOLYLINE
  5
2680
330
18
100
AcDbEntity
  8
V5
100
AcDbPolyline
 90
        2
 70
   128
 43
0.0
 10
465.0994715094298
 20
1652.642401825995
 10
520.5205155253065
 20
1019.176970050903
  0
ARC
  5
2699
330
18
100
AcDbEntity
  8
ISO
  6
VERDECKT
 48
1.8
100
AcDbCircle
 10
489.4441735231439
 20
1211.094294675647
 30
0.0
 40
11.64
100
AcDbArc
 50
275.0000000000003
 51
5.000000000000621
  0
ARC
  5
269A
330
18
100
AcDbEntity
  8
ISO
  6
VERDECKT
 48
2.0
100
AcDbCircle
 10
491.4731592143094
 20
1187.902882104071
 30
0.0
 40
11.64
100
AcDbArc
 50
5.000000000000621
 51
95.00000000000033
  0
LINE
  5
269B
330
18
100
AcDbEntity
  8
ISO
100
AcDbLine
 10
419.869935808416
 20
1205.007337602151
 30
0.0
 11
490.4586687329472
 21
1199.498588596702
 31
0.0
  0
ARC
  5
269D
330
18
100
AcDbEntity
  8
ISO
  6
VERDECKT
 48
1.8
100
AcDbCircle
 10
501.6180876701378
 20
1071.945819246193
 30
0.0
 40
11.64
100
AcDbArc
 50
5.000000000000621
 51
95.00000000000033
  0
ARC
  5
269F
330
18
100
AcDbEntity
  8
ISO
  6
VERDECKT
 48
1.8
100
AcDbCircle
 10
501.6180876701378
 20
1071.945819246193
 30
0.0
 40
11.64
100
AcDbArc
 50
275.0000000000003
 51
5.000000000000621
  0
ARC
  5
26A0
330
18
100
AcDbEntity
  8
ISO
  6
VERDECKT
 48
1.8
100
AcDbCircle
 10
501.6180876701378
 20
1071.945819246193
 30
0.0
 40
11.64
100
AcDbArc
 50
275.0000000000003
 51
5.000000000000621
  0
ARC
  5
26A1
330
18
100
AcDbEntity
  8
ISO
  6
VERDECKT
 48
1.8
100
AcDbCircle
 10
505.6760590524689
 20
1025.562994103041
 30
0.0
 40
11.64
100
AcDbArc
 50
28.54538739826814
 51
95.00000000000033
  0
ARC
  5
26A2
330
18
100
AcDbEntity
  8
ISO
  6
VERDECKT
 48
1.8
100
AcDbCircle
 10
503.6470733613032
 20
1048.754406674617
 30
0.0
 40
11.64
100
AcDbArc
 50
5.000000000000621
 51
95.00000000000033
  0
ARC
  5
26A3
330
18
100
AcDbEntity
  8
ISO
  6
VERDECKT
 48
1.8
100
AcDbCircle
 10
503.6470733613032
 20
1048.754406674617
 30
0.0
 40
11.64
100
AcDbArc
 50
275.0000000000003
 51
5.000000000000621
  0
LINE
  5
26A4
330
18
100
AcDbEntity
  8
ISO
100
AcDbLine
 10
421.8989214995819
 20
1181.815925030575
 30
0.0
 11
490.4586687329472
 21
1199.498588596702
 31
0.0
  0
LINE
  5
26A5
330
18
100
AcDbEntity
  8
ISO
100
AcDbLine
 10
423.9279071907474
 20
1158.624512458999
 30
0.0
 11
492.4876544241126
 21
1176.307176025126
 31
0.0
  0
LINE
  5
26A6
330
18
100
AcDbEntity
  8
ISO
100
AcDbLine
 10
421.8989214995819
 20
1181.815925030575
 30
0.0
 11
492.4876544241126
 21
1176.307176025126
 31
0.0
  0
LINE
  5
26A7
330
18
100
AcDbEntity
  8
ISO
100
AcDbLine
 10
423.9279071907474
 20
1158.624512458999
 30
0.0
 11
494.5166401152785
 21
1153.11576345355
 31
0.0
  0
LINE
  5
26A8
330
18
100
AcDbEntity
  8
V25
100
AcDbLine
 10
473.5186296821323
 20
1122.968838911393
 30
0.0
 11
489.1729263224299
 21
1078.285436679811
 31
0.0
  0
ARC
  5
26A9
330
18
100
AcDbEntity
  8
V25
100
AcDbCircle
 10
528.3687396363339
 20
993.1023479223185
 30
0.0
 40
103.4644813586703
100
AcDbArc
 50
108.66989125684
 51
131.109644881354
  0
LINE
  5
26AA
330
18
100
AcDbEntity
  8
V25
100
AcDbLine
 10
433.5618729022282
 20
1126.142816319155
 30
0.0
 11
460.8836427097351
 21
1085.973859087717
 31
0.0
  0
ARC
  5
26AC
330
18
100
AcDbEntity
  8
ISO
  6
VERDECKT
 48
1.8
100
AcDbCircle
 10
495.5311305966406
 20
1141.52005696092
 30
0.0
 40
11.64
100
AcDbArc
 50
275.0000000000003
 51
5.000000000000621
  0
ARC
  5
26AD
330
18
100
AcDbEntity
  8
ISO
  6
VERDECKT
 48
1.8
100
AcDbCircle
 10
497.5601162878065
 20
1118.328644389344
 30
0.0
 40
11.64
100
AcDbArc
 50
275.0000000000003
 51
5.000000000000621
  0
ARC
  5
26AE
330
18
100
AcDbEntity
  8
ISO
  6
VERDECKT
 48
1.8
100
AcDbCircle
 10
497.5601162878065
 20
1118.328644389344
 30
0.0
 40
11.64
100
AcDbArc
 50
5.000000000000621
 51
95.00000000000033
  0
ARC
  5
26AF
330
18
100
AcDbEntity
  8
ISO
  6
VERDECKT
 48
1.8
100
AcDbCircle
 10
499.5891019789722
 20
1095.137231817768
 30
0.0
 40
11.64
100
AcDbArc
 50
275.0000000000003
 51
5.000000000000621
  0
ARC
  5
26B0
330
18
100
AcDbEntity
  8
ISO
  6
VERDECKT
 48
1.8
100
AcDbCircle
 10
499.5891019789722
 20
1095.137231817768
 30
0.0
 40
11.64
100
AcDbArc
 50
5.000000000000621
 51
95.00000000000033
  0
ARC
  5
26B1
330
18
100
AcDbEntity
  8
ISO
  6
VERDECKT
 48
1.8
100
AcDbCircle
 10
493.502144905475
 20
1164.711469532496
 30
0.0
 40
11.64
100
AcDbArc
 50
275.0000000000003
 51
5.000000000000621
  0
ARC
  5
26B2
330
18
100
AcDbEntity
  8
ISO
  6
VERDECKT
 48
1.8
100
AcDbCircle
 10
495.5311305966406
 20
1141.52005696092
 30
0.0
 40
11.64
100
AcDbArc
 50
5.000000000000621
 51
95.00000000000033
  0
ARC
  5
26B3
330
18
100
AcDbEntity
  8
ISO
  6
VERDECKT
 48
2.0
100
AcDbCircle
 10
493.502144905475
 20
1164.711469532496
 30
0.0
 40
11.64
100
AcDbArc
 50
5.000000000000621
 51
95.00000000000033
  0
ARC
  5
26B4
330
18
100
AcDbEntity
  8
ISO
  6
VERDECKT
 48
1.8
100
AcDbCircle
 10
491.4731592143094
 20
1187.902882104071
 30
0.0
 40
11.64
100
AcDbArc
 50
275.0000000000003
 51
5.000000000000621
  0
ARC
  5
26B5
330
18
100
AcDbEntity
  8
ISO
  6
VERDECKT
 48
1.8
100
AcDbCircle
 10
471.183302302653
 20
1419.817007819828
 30
0.0
 40
11.64
100
AcDbArc
 50
275.0000000000003
 51
5.000000000000621
  0
LINE
  5
26B6
330
18
100
AcDbEntity
  8
ISO
100
AcDbLine
 10
401.609064587926
 20
1413.730050746331
 30
0.0
 11
470.168811821291
 21
1431.412714312458
 31
0.0
  0
ARC
  5
26B7
330
18
100
AcDbEntity
  8
ISO
  6
VERDECKT
 48
1.8
100
AcDbCircle
 10
473.2122879938189
 20
1396.625595248252
 30
0.0
 40
11.64
100
AcDbArc
 50
275.0000000000003
 51
5.000000000000621
  0
ARC
  5
26B8
330
18
100
AcDbEntity
  8
ISO
  6
VERDECKT
 48
2.0
100
AcDbCircle
 10
473.2122879938189
 20
1396.625595248252
 30
0.0
 40
11.64
100
AcDbArc
 50
5.000000000000621
 51
95.00000000000033
  0
ARC
  5
26B9
330
18
100
AcDbEntity
  8
ISO
  6
VERDECKT
 48
1.8
100
AcDbCircle
 10
475.2412736849847
 20
1373.434182676677
 30
0.0
 40
11.64
100
AcDbArc
 50
275.0000000000003
 51
5.000000000000621
  0
ARC
  5
26BA
330
18
100
AcDbEntity
  8
ISO
  6
VERDECKT
 48
2.0
100
AcDbCircle
 10
475.2412736849847
 20
1373.434182676677
 30
0.0
 40
11.64
100
AcDbArc
 50
5.000000000000621
 51
95.00000000000033
  0
ARC
  5
26BB
330
18
100
AcDbEntity
  8
ISO
  6
VERDECKT
 48
1.8
100
AcDbCircle
 10
477.2702593761501
 20
1350.242770105101
 30
0.0
 40
11.64
100
AcDbArc
 50
275.0000000000003
 51
5.000000000000621
  0
ARC
  5
26BC
330
18
100
AcDbEntity
  8
ISO
  6
VERDECKT
 48
2.0
100
AcDbCircle
 10
477.2702593761501
 20
1350.242770105101
 30
0.0
 40
11.64
100
AcDbArc
 50
5.000000000000621
 51
95.00000000000033
  0
ARC
  5
26BD
330
18
100
AcDbEntity
  8
ISO
  6
VERDECKT
 48
1.8
100
AcDbCircle
 10
479.2992450673155
 20
1327.051357533525
 30
0.0
 40
11.64
100
AcDbArc
 50
275.0000000000003
 51
5.000000000000621
  0
ARC
  5
26BE
330
18
100
AcDbEntity
  8
ISO
  6
VERDECKT
 48
2.0
100
AcDbCircle
 10
479.2992450673155
 20
1327.051357533525
 30
0.0
 40
11.64
100
AcDbArc
 50
5.000000000000621
 51
95.00000000000033
  0
ARC
  5
26BF
330
18
100
AcDbEntity
  8
ISO
  6
VERDECKT
 48
1.8
100
AcDbCircle
 10
481.3282307584811
 20
1303.859944961949
 30
0.0
 40
11.64
100
AcDbArc
 50
275.0000000000003
 51
5.000000000000621
  0
ARC
  5
26C0
330
18
100
AcDbEntity
  8
ISO
  6
VERDECKT
 48
2.0
100
AcDbCircle
 10
481.3282307584811
 20
1303.859944961949
 30
0.0
 40
11.64
100
AcDbArc
 50
5.000000000000621
 51
95.00000000000033
  0
ARC
  5
26C1
330
18
100
AcDbEntity
  8
ISO
  6
VERDECKT
 48
1.8
100
AcDbCircle
 10
483.3572164496472
 20
1280.668532390374
 30
0.0
 40
11.64
100
AcDbArc
 50
275.0000000000003
 51
5.000000000000621
  0
ARC
  5
26C2
330
18
100
AcDbEntity
  8
ISO
  6
VERDECKT
 48
2.0
100
AcDbCircle
 10
483.3572164496472
 20
1280.668532390374
 30
0.0
 40
11.64
100
AcDbArc
 50
5.000000000000621
 51
95.00000000000033
  0
ARC
  5
26C3
330
18
100
AcDbEntity
  8
ISO
  6
VERDECKT
 48
2.0
100
AcDbCircle
 10
485.3862021408127
 20
1257.477119818798
 30
0.0
 40
11.64
100
AcDbArc
 50
5.000000000000621
 51
95.00000000000033
  0
LINE
  5
26C4
330
18
100
AcDbEntity
  8
ISO
100
AcDbLine
 10
409.7250073525881
 20
1320.964400460029
 30
0.0
 11
480.3137402771187
 21
1315.45565145458
 31
0.0
  0
ARC
  5
26C5
330
18
100
AcDbEntity
  8
ISO
  6
VERDECKT
 48
1.8
100
AcDbCircle
 10
410.7395001981707
 20
1309.368694174241
 30
0.0
 40
11.64
100
AcDbArc
 50
95.00000000000033
 51
185.0000000000006
  0
LINE
  5
26C6
330
18
100
AcDbEntity
  8
ISO
100
AcDbLine
 10
411.7539930437535
 20
1297.772987888453
 30
0.0
 11
480.3137402771187
 21
1315.45565145458
 31
0.0
  0
LINE
  5
26C7
330
18
100
AcDbEntity
  8
ISO
100
AcDbLine
 10
411.753993043754
 20
1297.772987888453
 30
0.0
 11
482.3427259682842
 21
1292.264238883004
 31
0.0
  0
LINE
  5
26C8
330
18
100
AcDbEntity
  8
ISO
100
AcDbLine
 10
413.7829787349189
 20
1274.581575316878
 30
0.0
 11
482.3427259682842
 21
1292.264238883004
 31
0.0
  0
LINE
  5
26C9
330
18
100
AcDbEntity
  8
ISO
100
AcDbLine
 10
413.7829787349194
 20
1274.581575316878
 30
0.0
 11
484.3717116594505
 21
1269.072826311429
 31
0.0
  0
LINE
  5
26CA
330
18
100
AcDbEntity
  8
ISO
100
AcDbLine
 10
415.8119644260852
 20
1251.390162745302
 30
0.0
 11
484.3717116594505
 21
1269.072826311429
 31
0.0
  0
LINE
  5
26CB
330
18
100
AcDbEntity
  8
ISO
100
AcDbLine
 10
415.8119644260852
 20
1251.390162745302
 30
0.0
 11
486.4006973506159
 21
1245.881413739853
 31
0.0
  0
LINE
  5
26CC
330
18
100
AcDbEntity
  8
ISO
100
AcDbLine
 10
417.8409501172507
 20
1228.198750173726
 30
0.0
 11
486.4006973506159
 21
1245.881413739853
 31
0.0
  0
LINE
  5
26CD
330
18
100
AcDbEntity
  8
ISO
100
AcDbLine
 10
417.8409501172507
 20
1228.198750173726
 30
0.0
 11
488.4296830417813
 21
1222.690001168277
 31
0.0
  0
LINE
  5
26CE
330
18
100
AcDbEntity
  8
ISO
100
AcDbLine
 10
419.869935808416
 20
1205.007337602151
 30
0.0
 11
488.4296830417813
 21
1222.690001168277
 31
0.0
  0
ARC
  5
26CF
330
18
100
AcDbEntity
  8
ISO
  6
VERDECKT
 48
1.8
100
AcDbCircle
 10
487.4151878319783
 20
1234.285707247222
 30
0.0
 40
11.64
100
AcDbArc
 50
275.0000000000003
 51
5.000000000000621
  0
ARC
  5
26D0
330
18
100
AcDbEntity
  8
ISO
  6
VERDECKT
 48
2.0
100
AcDbCircle
 10
489.4441735231439
 20
1211.094294675647
 30
0.0
 40
11.64
100
AcDbArc
 50
5.000000000000621
 51
95.00000000000033
  0
ARC
  5
26D1
330
18
100
AcDbEntity
  8
ISO
  6
VERDECKT
 48
1.8
100
AcDbCircle
 10
485.3862021408127
 20
1257.477119818798
 30
0.0
 40
11.64
100
AcDbArc
 50
275.0000000000003
 51
5.000000000000621
  0
ARC
  5
26D2
330
18
100
AcDbEntity
  8
ISO
  6
VERDECKT
 48
2.0
100
AcDbCircle
 10
487.4151878319783
 20
1234.285707247222
 30
0.0
 40
11.64
100
AcDbArc
 50
5.000000000000621
 51
95.00000000000033
  0
LINE
  5
26D4
330
18
100
AcDbEntity
  8
ISO
100
AcDbLine
 10
401.609064587926
 20
1413.730050746331
 30
0.0
 11
472.1977975124566
 21
1408.221301740883
 31
0.0
  0
LINE
  5
26D5
330
18
100
AcDbEntity
  8
ISO
100
AcDbLine
 10
403.6380502790914
 20
1390.538638174756
 30
0.0
 11
472.1977975124566
 21
1408.221301740883
 31
0.0
  0
LINE
  5
26D6
330
18
100
AcDbEntity
  8
ISO
100
AcDbLine
 10
403.6380502790914
 20
1390.538638174756
 30
0.0
 11
474.2267832036223
 21
1385.029889169307
 31
0.0
  0
LINE
  5
26D7
330
18
100
AcDbEntity
  8
ISO
100
AcDbLine
 10
405.6670359702568
 20
1367.34722560318
 30
0.0
 11
474.2267832036223
 21
1385.029889169307
 31
0.0
  0
LINE
  5
26D8
330
18
100
AcDbEntity
  8
ISO
100
AcDbLine
 10
405.6670359702568
 20
1367.34722560318
 30
0.0
 11
476.2557688947877
 21
1361.838476597731
 31
0.0
  0
LINE
  5
26D9
330
18
100
AcDbEntity
  8
ISO
100
AcDbLine
 10
407.6960216614223
 20
1344.155813031605
 30
0.0
 11
476.2557688947877
 21
1361.838476597731
 31
0.0
  0
LINE
  5
26DA
330
18
100
AcDbEntity
  8
ISO
100
AcDbLine
 10
407.6960216614223
 20
1344.155813031605
 30
0.0
 11
478.2847545859533
 21
1338.647064026156
 31
0.0
  0
LINE
  5
26DB
330
18
100
AcDbEntity
  8
ISO
100
AcDbLine
 10
409.7250073525881
 20
1320.964400460029
 30
0.0
 11
478.2847545859533
 21
1338.647064026156
 31
0.0
  0
ARC
  5
26DC
330
18
100
AcDbEntity
  8
ISO
  6
VERDECKT
 48
1.8
100
AcDbCircle
 10
404.6525431246742
 20
1378.942931888968
 30
0.0
 40
11.64
100
AcDbArc
 50
185.0000000000006
 51
275.0000000000003
  0
ARC
  5
26DD
330
18
100
AcDbEntity
  8
ISO
  6
VERDECKT
 48
1.8
100
AcDbCircle
 10
406.6815288158396
 20
1355.751519317392
 30
0.0
 40
11.64
100
AcDbArc
 50
185.0000000000006
 51
275.0000000000003
  0
ARC
  5
26DE
330
18
100
AcDbEntity
  8
ISO
  6
VERDECKT
 48
1.8
100
AcDbCircle
 10
408.7105145070051
 20
1332.560106745816
 30
0.0
 40
11.64
100
AcDbArc
 50
95.00000000000033
 51
185.0000000000006
  0
ARC
  5
26DF
330
18
100
AcDbEntity
  8
ISO
  6
VERDECKT
 48
1.8
100
AcDbCircle
 10
408.7105145070051
 20
1332.560106745816
 30
0.0
 40
11.64
100
AcDbArc
 50
185.0000000000006
 51
275.0000000000003
  0
ARC
  5
26E0
330
18
100
AcDbEntity
  8
ISO
  6
VERDECKT
 48
1.8
100
AcDbCircle
 10
406.6815288158396
 20
1355.751519317392
 30
0.0
 40
11.64
100
AcDbArc
 50
95.00000000000033
 51
185.0000000000006
  0
ARC
  5
26E1
330
18
100
AcDbEntity
  8
ISO
  6
VERDECKT
 48
1.8
100
AcDbCircle
 10
402.6235574335088
 20
1402.134344460544
 30
0.0
 40
11.64
100
AcDbArc
 50
95.00000000000033
 51
185.0000000000006
  0
ARC
  5
26E2
330
18
100
AcDbEntity
  8
ISO
  6
VERDECKT
 48
1.8
100
AcDbCircle
 10
402.6235574335088
 20
1402.134344460544
 30
0.0
 40
11.64
100
AcDbArc
 50
185.0000000000006
 51
275.0000000000003
  0
ARC
  5
26E3
330
18
100
AcDbEntity
  8
ISO
  6
VERDECKT
 48
1.8
100
AcDbCircle
 10
404.6525431246742
 20
1378.942931888968
 30
0.0
 40
11.64
100
AcDbArc
 50
95.00000000000033
 51
185.0000000000006
  0
ARC
  5
26E4
330
18
100
AcDbEntity
  8
ISO
  6
VERDECKT
 48
1.8
100
AcDbCircle
 10
400.5945717423425
 20
1425.325757032119
 30
0.0
 40
11.64
100
AcDbArc
 50
185.0000000000006
 51
275.0000000000003
  0
ARC
  5
26E8
330
18
100
AcDbEntity
  8
ISO
  6
VERDECKT
 48
1.8
100
AcDbCircle
 10
469.1543166114881
 20
1443.008420391404
 30
0.0
 40
11.64
100
AcDbArc
 50
275.0000000000003
 51
5.000000000000621
  0
ARC
  5
26E9
330
18
100
AcDbEntity
  8
ISO
  6
VERDECKT
 48
2.0
100
AcDbCircle
 10
471.183302302653
 20
1419.817007819828
 30
0.0
 40
11.64
100
AcDbArc
 50
5.000000000000621
 51
95.00000000000033
  0
LINE
  5
2706
330
18
100
AcDbEntity
  8
V5
 62
     6
100
AcDbLine
 10
339.3660475110373
 20
2089.531411276438
 30
0.0
 11
351.8896519274376
 21
1946.385957777888
 31
0.0
  0
LINE
  5
2707
330
18
100
AcDbEntity
  8
V5
 62
     6
100
AcDbLine
 10
344.3470210014939
 20
2089.967189990176
 30
0.0
 11
357.1743295595902
 21
1943.350382267481
 31
0.0
  0
LINE
  5
2720
330
18
100
AcDbEntity
  8
ISO
100
AcDbLine
 10
379.2902219851039
 20
1668.835589033664
 30
0.0
 11
449.8789549096345
 21
1663.326840028215
 31
0.0
  0
LINE
  5
2721
330
18
100
AcDbEntity
  8
ISO
100
AcDbLine
 10
381.3192076762693
 20
1645.644176462089
 30
0.0
 11
449.8789549096345
 21
1663.326840028215
 31
0.0
  0
LINE
  5
2722
330
18
100
AcDbEntity
  8
ISO
100
AcDbLine
 10
381.3192076762693
 20
1645.644176462089
 30
0.0
 11
451.9079406008
 21
1640.135427456639
 31
0.0
  0
LINE
  5
2723
330
18
100
AcDbEntity
  8
ISO
100
AcDbLine
 10
383.3481933674352
 20
1622.452763890513
 30
0.0
 11
451.9079406008
 21
1640.135427456639
 31
0.0
  0
LINE
  5
2724
330
18
100
AcDbEntity
  8
ISO
100
AcDbLine
 10
383.3481933674357
 20
1622.452763890513
 30
0.0
 11
453.9369262919656
 21
1616.944014885064
 31
0.0
  0
LINE
  5
2725
330
18
100
AcDbEntity
  8
ISO
100
AcDbLine
 10
385.3771790586007
 20
1599.261351318937
 30
0.0
 11
453.9369262919656
 21
1616.944014885064
 31
0.0
  0
LINE
  5
2726
330
18
100
AcDbEntity
  8
ISO
100
AcDbLine
 10
385.3771790586007
 20
1599.261351318937
 30
0.0
 11
455.9659119831315
 21
1593.752602313488
 31
0.0
  0
LINE
  5
2727
330
18
100
AcDbEntity
  8
ISO
100
AcDbLine
 10
387.4061647497665
 20
1576.069938747361
 30
0.0
 11
455.9659119831315
 21
1593.752602313488
 31
0.0
  0
LINE
  5
272D
330
18
100
AcDbEntity
  8
ISO
100
AcDbLine
 10
393.4931218232632
 20
1506.495701032634
 30
0.0
 11
411.1532572366583
 21
1511.050534526759
 31
0.0
  0
LINE
  5
272E
330
18
100
AcDbEntity
  8
ISO
100
AcDbLine
 10
393.4931218232632
 20
1506.495701032634
 30
0.0
 11
464.0818547477938
 21
1500.986952027185
 31
0.0
  0
LINE
  5
272F
330
18
100
AcDbEntity
  8
ISO
100
AcDbLine
 10
395.5221075144288
 20
1483.304288461058
 30
0.0
 11
464.0818547477938
 21
1500.986952027185
 31
0.0
  0
LINE
  5
2730
330
18
100
AcDbEntity
  8
ISO
100
AcDbLine
 10
395.5221075144288
 20
1483.304288461058
 30
0.0
 11
466.1108404389595
 21
1477.795539455609
 31
0.0
  0
LINE
  5
2731
330
18
100
AcDbEntity
  8
ISO
100
AcDbLine
 10
397.5510932055943
 20
1460.112875889483
 30
0.0
 11
466.1108404389595
 21
1477.795539455609
 31
0.0
  0
LINE
  5
2732
330
18
100
AcDbEntity
  8
ISO
100
AcDbLine
 10
397.5510932055947
 20
1460.112875889483
 30
0.0
 11
468.1398261301251
 21
1454.604126884034
 31
0.0
  0
LINE
  5
2733
330
18
100
AcDbEntity
  8
ISO
100
AcDbLine
 10
399.5800788967597
 20
1436.921463317907
 30
0.0
 11
468.1398261301251
 21
1454.604126884034
 31
0.0
  0
ARC
  5
2734
330
18
100
AcDbEntity
  8
V25
100
AcDbCircle
 10
489.6886083567184
 20
1435.218271525965
 30
0.0
 40
103.4644813586703
100
AcDbArc
 50
108.66989125684
 51
131.109644881354
  0
LWPOLYLINE
  5
2735
330
18
100
AcDbEntity
  8
V5
100
AcDbPolyline
 90
        4
 70
     1
 43
0.0
 10
458.0449710641553
 20
1516.35709578503
 10
452.5437535326704
 20
1579.236299898768
 10
389.664549418932
 20
1573.735082367283
 10
395.1657669504168
 20
1510.855878253545
  0
ARC
  5
2736
330
18
100
AcDbEntity
  8
V25
100
AcDbCircle
 10
489.6886083567184
 20
1435.218271525965
 30
0.0
 40
128.3784968535194
100
AcDbArc
 50
105.979876296531
 51
138.0103611796853
  0
ARC
  5
2737
330
18
100
AcDbEntity
  8
ISO
  6
VERDECKT
 48
1.8
100
AcDbCircle
 10
388.4206575953491
 20
1564.474232461573
 30
0.0
 40
11.64
100
AcDbArc
 50
185.0000000000006
 51
275.0000000000003
  0
ARC
  5
2738
330
18
100
AcDbEntity
  8
V25
100
AcDbCircle
 10
489.6886083567184
 20
1435.218271525965
 30
0.0
 40
158.5185392370107
100
AcDbArc
 50
117.2575828001763
 51
128.5341003580874
  0
LINE
  5
2739
330
18
100
AcDbEntity
  8
V25
100
AcDbLine
 10
394.8817416226127
 20
1568.258739922801
 30
0.0
 11
422.2035114301195
 21
1528.089782691363
 31
0.0
  0
LINE
  5
273A
330
18
100
AcDbEntity
  8
V25
 62
     4
100
AcDbLine
 10
434.2229581361222
 20
1545.953188853125
 30
0.0
 11
379.5994275341741
 21
1541.174249163693
 31
0.0
  0
ARC
  5
273B
330
18
100
AcDbEntity
  8
ISO
  6
VERDECKT
 48
1.8
100
AcDbCircle
 10
394.5076146688458
 20
1494.899994746846
 30
0.0
 40
11.64
100
AcDbArc
 50
95.00000000000033
 51
185.0000000000006
  0
ARC
  5
273C
330
18
100
AcDbEntity
  8
ISO
  6
VERDECKT
 48
1.8
100
AcDbCircle
 10
394.5076146688458
 20
1494.899994746846
 30
0.0
 40
11.64
100
AcDbArc
 50
185.0000000000006
 51
275.0000000000003
  0
ARC
  5
273D
330
18
100
AcDbEntity
  8
ISO
  6
VERDECKT
 48
1.8
100
AcDbCircle
 10
396.5366003600117
 20
1471.708582175271
 30
0.0
 40
11.64
100
AcDbArc
 50
95.00000000000033
 51
185.0000000000006
  0
ARC
  5
273E
330
18
100
AcDbEntity
  8
ISO
  6
VERDECKT
 48
1.8
100
AcDbCircle
 10
396.5366003600117
 20
1471.708582175271
 30
0.0
 40
11.64
100
AcDbArc
 50
185.0000000000006
 51
275.0000000000003
  0
ARC
  5
273F
330
18
100
AcDbEntity
  8
ISO
  6
VERDECKT
 48
1.8
100
AcDbCircle
 10
398.5655860511776
 20
1448.517169603695
 30
0.0
 40
11.64
100
AcDbArc
 50
95.00000000000033
 51
185.0000000000006
  0
ARC
  5
2740
330
18
100
AcDbEntity
  8
ISO
  6
VERDECKT
 48
1.8
100
AcDbCircle
 10
390.449643286515
 20
1541.282819889998
 30
0.0
 40
11.64
100
AcDbArc
 50
95.00000000000033
 51
185.0000000000006
  0
ARC
  5
2741
330
18
100
AcDbEntity
  8
ISO
  6
VERDECKT
 48
1.8
100
AcDbCircle
 10
390.449643286515
 20
1541.282819889998
 30
0.0
 40
11.64
100
AcDbArc
 50
185.0000000000006
 51
275.0000000000003
  0
ARC
  5
2742
330
18
100
AcDbEntity
  8
ISO
  6
VERDECKT
 48
1.8
100
AcDbCircle
 10
392.4786289776804
 20
1518.091407318422
 30
0.0
 40
11.64
100
AcDbArc
 50
95.00000000000033
 51
185.0000000000006
  0
ARC
  5
2743
330
18
100
AcDbEntity
  8
ISO
  6
VERDECKT
 48
1.8
100
AcDbCircle
 10
392.4786289776804
 20
1518.091407318422
 30
0.0
 40
11.64
100
AcDbArc
 50
185.0000000000006
 51
275.0000000000003
  0
LINE
  5
2744
330
18
100
AcDbEntity
  8
V25
100
AcDbLine
 10
434.8384984025171
 20
1565.08476251504
 30
0.0
 11
450.4927950428146
 21
1520.401360283458
 31
0.0
  0
ARC
  5
2745
330
18
100
AcDbEntity
  8
ISO
  6
VERDECKT
 48
1.8
100
AcDbCircle
 10
382.3337005218519
 20
1634.0484701763
 30
0.0
 40
11.64
100
AcDbArc
 50
185.0000000000006
 51
275.0000000000003
  0
ARC
  5
2746
330
18
100
AcDbEntity
  8
ISO
  6
VERDECKT
 48
1.8
100
AcDbCircle
 10
384.3626862130178
 20
1610.857057604725
 30
0.0
 40
11.64
100
AcDbArc
 50
95.00000000000033
 51
185.0000000000006
  0
ARC
  5
2747
330
18
100
AcDbEntity
  8
ISO
  6
VERDECKT
 48
1.8
100
AcDbCircle
 10
388.4206575953491
 20
1564.474232461573
 30
0.0
 40
11.64
100
AcDbArc
 50
95.00000000000033
 51
185.0000000000006
  0
ARC
  5
2748
330
18
100
AcDbEntity
  8
ISO
  6
VERDECKT
 48
1.8
100
AcDbCircle
 10
386.3916719041837
 20
1587.665645033149
 30
0.0
 40
11.64
100
AcDbArc
 50
95.00000000000033
 51
185.0000000000006
  0
ARC
  5
2749
330
18
100
AcDbEntity
  8
ISO
  6
VERDECKT
 48
1.8
100
AcDbCircle
 10
386.3916719041837
 20
1587.665645033149
 30
0.0
 40
11.64
100
AcDbArc
 50
185.0000000000006
 51
275.0000000000003
  0
ARC
  5
274A
330
18
100
AcDbEntity
  8
ISO
  6
VERDECKT
 48
1.8
100
AcDbCircle
 10
384.3626862130178
 20
1610.857057604725
 30
0.0
 40
11.64
100
AcDbArc
 50
185.0000000000006
 51
275.0000000000003
  0
ARC
  5
274B
330
18
100
AcDbEntity
  8
ISO
  6
VERDECKT
 48
1.8
100
AcDbCircle
 10
380.3047148306865
 20
1657.239882747876
 30
0.0
 40
11.64
100
AcDbArc
 50
185.0000000000006
 51
275.0000000000003
  0
ARC
  5
274C
330
18
100
AcDbEntity
  8
ISO
  6
VERDECKT
 48
1.8
100
AcDbCircle
 10
382.3337005218519
 20
1634.0484701763
 30
0.0
 40
11.64
100
AcDbArc
 50
95.00000000000033
 51
185.0000000000006
  0
ARC
  5
274E
330
18
100
AcDbEntity
  8
ISO
  6
VERDECKT
 48
1.8
100
AcDbCircle
 10
380.3047148306865
 20
1657.239882747876
 30
0.0
 40
11.64
100
AcDbArc
 50
95.00000000000033
 51
185.0000000000006
  0
ARC
  5
274F
330
18
100
AcDbEntity
  8
ISO
  6
VERDECKT
 48
1.8
100
AcDbCircle
 10
456.9804024644942
 20
1582.156895820858
 30
0.0
 40
11.64
100
AcDbArc
 50
275.0000000000003
 51
5.000000000000621
  0
ARC
  5
2750
330
18
100
AcDbEntity
  8
ISO
  6
VERDECKT
 48
2.0
100
AcDbCircle
 10
459.00938815566
 20
1558.965483249282
 30
0.0
 40
11.64
100
AcDbArc
 50
5.000000000000621
 51
95.00000000000033
  0
ARC
  5
2753
330
18
100
AcDbEntity
  8
ISO
  6
VERDECKT
 48
1.8
100
AcDbCircle
 10
463.0673595379909
 20
1512.582658106131
 30
0.0
 40
11.64
100
AcDbArc
 50
275.0000000000003
 51
5.000000000000621
  0
ARC
  5
2754
330
18
100
AcDbEntity
  8
ISO
  6
VERDECKT
 48
1.8
100
AcDbCircle
 10
465.0963452291563
 20
1489.391245534555
 30
0.0
 40
11.64
100
AcDbArc
 50
275.0000000000003
 51
5.000000000000621
  0
ARC
  5
2755
330
18
100
AcDbEntity
  8
ISO
  6
VERDECKT
 48
2.0
100
AcDbCircle
 10
467.1253309203217
 20
1466.199832962979
 30
0.0
 40
11.64
100
AcDbArc
 50
5.000000000000621
 51
95.00000000000033
  0
ARC
  5
2756
330
18
100
AcDbEntity
  8
ISO
  6
VERDECKT
 48
1.8
100
AcDbCircle
 10
467.1253309203217
 20
1466.199832962979
 30
0.0
 40
11.64
100
AcDbArc
 50
275.0000000000003
 51
5.000000000000621
  0
ARC
  5
2757
330
18
100
AcDbEntity
  8
ISO
  6
VERDECKT
 48
2.0
100
AcDbCircle
 10
465.0963452291563
 20
1489.391245534555
 30
0.0
 40
11.64
100
AcDbArc
 50
5.000000000000621
 51
95.00000000000033
  0
ARC
  5
2758
330
18
100
AcDbEntity
  8
ISO
  6
VERDECKT
 48
1.8
100
AcDbCircle
 10
459.00938815566
 20
1558.965483249282
 30
0.0
 40
11.64
100
AcDbArc
 50
275.0000000000003
 51
5.000000000000621
  0
ARC
  5
2759
330
18
100
AcDbEntity
  8
ISO
  6
VERDECKT
 48
1.8
100
AcDbCircle
 10
461.0383738468255
 20
1535.774070677707
 30
0.0
 40
11.64
100
AcDbArc
 50
275.0000000000003
 51
5.000000000000621
  0
ARC
  5
275A
330
18
100
AcDbEntity
  8
ISO
  6
VERDECKT
 48
2.0
100
AcDbCircle
 10
461.0383738468255
 20
1535.774070677707
 30
0.0
 40
11.64
100
AcDbArc
 50
5.000000000000621
 51
95.00000000000033
  0
ARC
  5
275B
330
18
100
AcDbEntity
  8
ISO
  6
VERDECKT
 48
2.0
100
AcDbCircle
 10
463.0673595379909
 20
1512.582658106131
 30
0.0
 40
11.64
100
AcDbArc
 50
5.000000000000621
 51
95.00000000000033
  0
ARC
  5
275C
330
18
100
AcDbEntity
  8
ISO
  6
VERDECKT
 48
2.0
100
AcDbCircle
 10
452.9224310821629
 20
1628.539720964009
 30
0.0
 40
11.64
100
AcDbArc
 50
5.000000000000621
 51
95.00000000000033
  0
ARC
  5
275D
330
18
100
AcDbEntity
  8
ISO
  6
VERDECKT
 48
1.8
100
AcDbCircle
 10
452.9224310821629
 20
1628.539720964009
 30
0.0
 40
11.64
100
AcDbArc
 50
275.0000000000003
 51
5.000000000000621
  0
ARC
  5
275E
330
18
100
AcDbEntity
  8
ISO
  6
VERDECKT
 48
1.8
100
AcDbCircle
 10
454.9514167733292
 20
1605.348308392434
 30
0.0
 40
11.64
100
AcDbArc
 50
275.0000000000003
 51
5.000000000000621
  0
ARC
  5
275F
330
18
100
AcDbEntity
  8
ISO
  6
VERDECKT
 48
2.0
100
AcDbCircle
 10
454.9514167733292
 20
1605.348308392434
 30
0.0
 40
11.64
100
AcDbArc
 50
5.000000000000621
 51
95.00000000000033
  0
ARC
  5
2760
330
18
100
AcDbEntity
  8
ISO
  6
VERDECKT
 48
2.0
100
AcDbCircle
 10
456.9804024644942
 20
1582.156895820858
 30
0.0
 40
11.64
100
AcDbArc
 50
5.000000000000621
 51
95.00000000000033
  0
ARC
  5
2763
330
18
100
AcDbEntity
  8
ISO
  6
VERDECKT
 48
1.8
100
AcDbCircle
 10
450.8934453909975
 20
1651.731133535585
 30
0.0
 40
11.64
100
AcDbArc
 50
275.0000000000003
 51
5.000000000000621
  0
ARC
  5
2764
330
18
100
AcDbEntity
  8
ISO
 48
2.0
100
AcDbCircle
 10
450.8934453909975
 20
1651.731133535585
 30
0.0
 40
11.64
100
AcDbArc
 50
5.000000000000621
 51
95.00000000000033
  0
LINE
  5
2765
330
18
100
AcDbEntity
  8
V5
100
AcDbLine
 10
465.09947150943
 20
1652.642401825995
 30
0.0
 11
447.1679669437787
 21
1651.073598456537
 31
0.0
  0
LWPOLYLINE
  5
2767
330
18
100
AcDbEntity
  8
V35
100
AcDbPolyline
 90
        2
 70
     1
 43
2.9
 10
484.3894772967921
 20
1587.148441860367
 42
1.0
 10
483.8511679460248
 20
1590.201345894705
 42
1.0
  0
LINE
  5
2778
330
18
100
AcDbEntity
  8
V25
100
AcDbLine
 10
372.5439749097597
 20
1893.441377559409
 30
0.0
 11
369.0608444738707
 21
1933.253740618959
 31
0.0
  0
LINE
  5
27BC
330
18
100
AcDbEntity
  8
SV35
  6
VERDECKT
 62
     6
 48
3.0
100
AcDbLine
 10
266.2568876300688
 20
2083.135188586948
 30
0.0
 11
326.6056927929085
 21
2088.415024896032
 31
0.0
  0
LINE
  5
27BF
330
18
100
AcDbEntity
  8
V5
 62
     6
100
AcDbLine
 10
326.6056927929085
 20
2088.415024896032
 30
0.0
 11
344.3470210014939
 21
2089.967189990176
 31
0.0
  0
LWPOLYLINE
  5
2811
330
18
100
AcDbEntity
  8
V5
100
AcDbPolyline
 90
       17
 70
     0
 43
2.2
 10
623.4456584472914
 20
1307.347483380112
 10
599.2904103420251
 20
1296.600401467742
 10
591.9627722725163
 20
1287.867662473175
 10
542.7448721353462
 20
1265.969779163349
 10
535.4172340658374
 20
1257.237040168782
 10
519.0504713518298
 20
1249.955188259779
 10
524.7274324223126
 20
1185.067226303424
 10
532.7054163563325
 20
1178.372902926851
 10
526.0110929797579
 20
1170.394918992831
 10
531.6880540502406
 20
1105.506957036476
 10
549.0706491767451
 20
1101.177791339798
 10
557.8033881713118
 20
1093.850153270289
 10
610.0760853448918
 20
1080.831546679628
 10
618.8088243394592
 20
1073.503908610119
 10
644.4633111387798
 20
1067.114613835132
 10
645.9383994208387
 20
1050.254277620007
 10
647.413487702898
 20
1033.393941404882
  0
LWPOLYLINE
  5
2812
330
18
100
AcDbEntity
  8
V5
100
AcDbPolyline
 90
        3
 70
     0
 43
2.2
 10
647.413487702898
 20
1033.393941404882
 10
623.258239597631
 20
1022.646859492511
 10
620.3832228227484
 20
1019.220547922276
  0
LINE
  5
281A
330
18
100
AcDbEntity
  8
V5
100
AcDbLine
 10
293.4720647437073
 20
1936.048819814797
 30
0.0
 11
287.502088140026
 21
2004.285964641135
 31
0.0
  0
LINE
  5
281B
330
18
100
AcDbEntity
  8
V5
100
AcDbLine
 10
331.5570765801453
 20
1948.209959154147
 30
0.0
 11
326.3536813656042
 21
2007.685038608294
 31
0.0
  0
LINE
  5
281D
330
18
100
AcDbEntity
  8
V5
100
AcDbLine
 10
272.7901119911599
 20
1942.970356586258
 30
0.0
 11
267.5781941781911
 21
2002.542849786182
 31
0.0
  0
TEXT
  5
2822
330
18
100
AcDbEntity
  8
TXT-D
100
AcDbText
 10
65.39158275183251
 20
2135.36772929634
 30
0.0
 40
12.0
  1
ucpávka hřebene
 50
90.0
  7
Stil1
100
AcDbText
  0
LINE
  5
2823
330
18
100
AcDbEntity
  8
TXT-D
100
AcDbLine
 10
61.17051038485079
 20
2049.862442303493
 30
0.0
 11
61.17051038485079
 21
2128.347069775117
 31
0.0
  0
ARC
  5
2825
330
18
100
AcDbEntity
  8
ISO
  6
VERDECKT
 48
1.8
100
AcDbCircle
 10
504.3053809935068
 20
1030.110730824872
 30
0.0
 40
11.64
100
AcDbArc
 50
290.0612387366571
 51
5.000000000000621
  0
LINE
  5
282C
330
18
100
AcDbEntity
  8
TXT-D
100
AcDbLine
 10
527.754777524384
 20
1768.711622414073
 30
0.0
 11
542.3553627524113
 21
1783.3122076421
 31
0.0
  0
LWPOLYLINE
  5
2856
330
18
100
AcDbEntity
  8
0
100
AcDbPolyline
 90
        9
 70
     0
 43
0.0
 10
362.8671444354081
 20
2125.207574882824
 42
-0.3585361315564168
 10
359.5223628120866
 20
2094.047377389121
 42
0.2243326451183196
 10
352.2169274286034
 20
2074.285466705745
 42
0.2243326451183195
 10
362.8429966107724
 20
2056.092359391826
 42
-0.4724409448818893
 10
366.1636304094582
 20
2018.137341394531
 42
0.2243326451183195
 10
358.858195025975
 20
1998.375430711153
 42
0.2243326451183195
 10
369.4842642081439
 20
1980.182323397235
 42
-0.4724409448818896
 10
372.8048980068297
 20
1942.227305399939
 42
0.0675684088341723
 10
368.7341547184721
 20
1936.987821609944
 42
0.0675684088341723
  0
LWPOLYLINE
  5
2857
330
18
100
AcDbEntity
  8
0
100
AcDbPolyline
 90
        6
 70
     0
 43
0.0
 10
368.9611734037482
 20
1891.905960307972
 42
0.0633360178282059
 10
368.7170737895006
 20
1885.687930797473
 42
0.2243326451183195
 10
379.3431429716691
 20
1867.494823483555
 42
-0.4724409448818893
 10
382.6637767703548
 20
1829.539805486259
 42
0.2243326451183196
 10
375.3583413868721
 20
1809.777894802883
 42
0.1216609251644027
 10
379.1838065136797
 20
1798.587507255605
 42
0.1216609251644027
  0
LINE
  5
285E
330
18
100
AcDbEntity
  8
V35
100
AcDbLine
 10
333.4251920632019
 20
2072.641402893293
 30
0.0
 11
359.8515741953775
 21
2074.953411747863
 31
0.0
  0
LINE
  5
285F
330
18
100
AcDbEntity
  8
V35
100
AcDbLine
 10
356.5666060214705
 20
1808.133830990431
 30
0.0
 11
382.9929881536461
 21
1810.445839845
 31
0.0
  0
LINE
  5
2860
330
18
100
AcDbEntity
  8
ISO
100
AcDbLine
 10
379.2902219851039
 20
1668.835589033664
 30
0.0
 11
447.8499692184691
 21
1686.51825259979
 31
0.0
  0
LINE
  5
2861
330
18
100
AcDbEntity
  8
ISO
100
AcDbLine
 10
377.261236293938
 20
1692.02700160524
 30
0.0
 11
447.8499692184691
 21
1686.51825259979
 31
0.0
  0
ARC
  5
2862
330
18
100
AcDbEntity
  8
ISO
  6
VERDECKT
 48
1.8
100
AcDbCircle
 10
378.2757291395211
 20
1680.431295319452
 30
0.0
 40
11.64
100
AcDbArc
 50
95.00000000000033
 51
185.0000000000006
  0
ARC
  5
2863
330
18
100
AcDbEntity
  8
ISO
  6
VERDECKT
 48
1.8
100
AcDbCircle
 10
378.2757291395211
 20
1680.431295319452
 30
0.0
 40
11.64
100
AcDbArc
 50
185.0000000000006
 51
275.0000000000003
  0
ARC
  5
2864
330
18
100
AcDbEntity
  8
ISO
 48
2.0
100
AcDbCircle
 10
448.864459699832
 20
1674.922546107161
 30
0.0
 40
11.64
100
AcDbArc
 50
5.000000000000621
 51
95.00000000000033
  0
ARC
  5
2865
330
18
100
AcDbEntity
  8
ISO
 48
1.8
100
AcDbCircle
 10
448.864459699832
 20
1674.922546107161
 30
0.0
 40
11.64
100
AcDbArc
 50
275.0000000000003
 51
5.000000000000621
  0
LINE
  5
2866
330
18
100
AcDbEntity
  8
ISO
100
AcDbLine
 10
377.261236293938
 20
1692.02700160524
 30
0.0
 11
445.8209835273034
 21
1709.709665171366
 31
0.0
  0
LINE
  5
2867
330
18
100
AcDbEntity
  8
ISO
100
AcDbLine
 10
375.2322506027728
 20
1715.218414176815
 30
0.0
 11
445.8209835273034
 21
1709.709665171366
 31
0.0
  0
ARC
  5
2868
330
18
100
AcDbEntity
  8
ISO
  6
VERDECKT
 48
1.8
100
AcDbCircle
 10
376.2467434483552
 20
1703.622707891028
 30
0.0
 40
11.64
100
AcDbArc
 50
95.00000000000033
 51
185.0000000000006
  0
ARC
  5
2869
330
18
100
AcDbEntity
  8
ISO
  6
VERDECKT
 48
1.8
100
AcDbCircle
 10
376.2467434483552
 20
1703.622707891028
 30
0.0
 40
11.64
100
AcDbArc
 50
185.0000000000006
 51
275.0000000000003
  0
ARC
  5
286A
330
18
100
AcDbEntity
  8
ISO
 48
2.0
100
AcDbCircle
 10
446.8354740086661
 20
1698.113958678737
 30
0.0
 40
11.64
100
AcDbArc
 50
5.000000000000621
 51
95.00000000000033
  0
ARC
  5
286B
330
18
100
AcDbEntity
  8
ISO
 48
1.8
100
AcDbCircle
 10
446.8354740086661
 20
1698.113958678737
 30
0.0
 40
11.64
100
AcDbArc
 50
275.0000000000003
 51
5.000000000000621
  0
LINE
  5
286C
330
18
100
AcDbEntity
  8
ISO
100
AcDbLine
 10
375.2322506027728
 20
1715.218414176815
 30
0.0
 11
443.7919978361381
 21
1732.901077742942
 31
0.0
  0
LINE
  5
286D
330
18
100
AcDbEntity
  8
ISO
100
AcDbLine
 10
373.203264911607
 20
1738.409826748391
 30
0.0
 11
443.7919978361381
 21
1732.901077742942
 31
0.0
  0
ARC
  5
286E
330
18
100
AcDbEntity
  8
ISO
  6
VERDECKT
 48
1.8
100
AcDbCircle
 10
374.2177577571898
 20
1726.814120462603
 30
0.0
 40
11.64
100
AcDbArc
 50
95.00000000000033
 51
185.0000000000006
  0
ARC
  5
286F
330
18
100
AcDbEntity
  8
ISO
  6
VERDECKT
 48
1.8
100
AcDbCircle
 10
374.2177577571898
 20
1726.814120462603
 30
0.0
 40
11.64
100
AcDbArc
 50
185.0000000000006
 51
275.0000000000003
  0
ARC
  5
2870
330
18
100
AcDbEntity
  8
ISO
 48
2.0
100
AcDbCircle
 10
444.8064883175008
 20
1721.305371250312
 30
0.0
 40
11.64
100
AcDbArc
 50
5.000000000000621
 51
95.00000000000033
  0
ARC
  5
2871
330
18
100
AcDbEntity
  8
ISO
 48
1.8
100
AcDbCircle
 10
444.8064883175008
 20
1721.305371250312
 30
0.0
 40
11.64
100
AcDbArc
 50
275.0000000000003
 51
5.000000000000621
  0
LINE
  5
2872
330
18
100
AcDbEntity
  8
ISO
100
AcDbLine
 10
373.203264911607
 20
1738.409826748391
 30
0.0
 11
441.7630121449722
 21
1756.092490314518
 31
0.0
  0
LINE
  5
2873
330
18
100
AcDbEntity
  8
ISO
100
AcDbLine
 10
371.1742792204411
 20
1761.601239319967
 30
0.0
 11
441.7630121449722
 21
1756.092490314518
 31
0.0
  0
ARC
  5
2874
330
18
100
AcDbEntity
  8
ISO
  6
VERDECKT
 48
1.8
100
AcDbCircle
 10
372.188772066024
 20
1750.005533034179
 30
0.0
 40
11.64
100
AcDbArc
 50
95.00000000000033
 51
185.0000000000006
  0
ARC
  5
2875
330
18
100
AcDbEntity
  8
ISO
  6
VERDECKT
 48
1.8
100
AcDbCircle
 10
372.188772066024
 20
1750.005533034179
 30
0.0
 40
11.64
100
AcDbArc
 50
185.0000000000006
 51
275.0000000000003
  0
ARC
  5
2876
330
18
100
AcDbEntity
  8
ISO
 48
2.0
100
AcDbCircle
 10
442.7775026263349
 20
1744.496783821888
 30
0.0
 40
11.64
100
AcDbArc
 50
5.000000000000621
 51
95.00000000000033
  0
ARC
  5
2877
330
18
100
AcDbEntity
  8
ISO
 48
1.8
100
AcDbCircle
 10
442.7775026263349
 20
1744.496783821888
 30
0.0
 40
11.64
100
AcDbArc
 50
275.0000000000003
 51
5.000000000000621
  0
ARC
  5
287D
330
18
100
AcDbEntity
  8
ISO
 48
1.8
100
AcDbCircle
 10
440.748516935169
 20
1767.688196393464
 30
0.0
 40
11.64
100
AcDbArc
 50
275.0000000000003
 51
341.4567173695122
  0
LINE
  5
287F
330
18
100
AcDbEntity
  8
TXT-D
100
AcDbLine
 10
422.1279239498314
 20
1842.562613129944
 30
0.0
 11
422.1279239498314
 21
1863.115590196834
 31
0.0
  0
MTEXT
  5
2880
102
{ACAD_XDICTIONARY
360
3436
102
}
330
18
100
AcDbEntity
  8
TXT-D
100
AcDbMText
 10
414.7256338582121
 20
1868.001483778614
 30
0.0
 40
14.0
 41
187.204492247388
 71
     1
 72
     5
  1
vlnit\U+00FD plech
  7
ROMANS
 11
0.0000000000000006
 21
1.0
 31
0.0
 73
     1
 44
1.0
  0
LINE
  5
2885
330
18
100
AcDbEntity
  8
V35
100
AcDbLine
 10
360.8377632348838
 20
2111.127648115935
 30
0.0
 11
381.0048627745227
 21
2112.892040701852
 31
0.0
  0
LINE
  5
289D
330
18
100
AcDbEntity
  8
TXT-D
100
AcDbLine
 10
807.0362727365306
 20
1308.762756137404
 30
0.0
 11
500.7060512309813
 21
1308.762756137405
 31
0.0
  0
MTEXT
  5
289E
102
{ACAD_XDICTIONARY
360
3438
102
}
330
18
100
AcDbEntity
  8
TXT-D
100
AcDbMText
 10
797.5607400125716
 20
1037.397480610827
 30
0.0
 40
14.0
 41
147.3781
 71
     1
 72
     5
  1
parot\U+011Bsn\U+00E1 vrstva
  7
ROMANS
 11
0.0000000000000008
 21
1.0
 31
0.0
 73
     1
 44
1.0
  0
LINE
  5
289F
330
18
100
AcDbEntity
  8
TXT-D
100
AcDbLine
 10
762.455806073194
 20
1277.463704747285
 30
0.0
 11
483.4944904824688
 21
1277.463704747286
 31
0.0
  0
LINE
  5
28A0
330
18
100
AcDbEntity
  8
TXT-D
 48
5.0
100
AcDbLine
 10
721.136572139527
 20
1085.470789443679
 30
0.0
 11
467.2848387440301
 21
1085.47078944368
 31
0.0
  0
MTEXT
  5
28A2
102
{ACAD_XDICTIONARY
360
343A
102
}
330
18
100
AcDbEntity
  8
TXT-D
100
AcDbMText
 10
752.9802733492344
 20
1031.551680743632
 30
0.0
 40
14.0
 41
218.5055751939969
 71
     1
 72
     5
  1
ocelov\U+00FD OMEGA profil
  7
ROMANS
 11
0.0000000000000008
 21
1.0
 31
0.0
 73
     1
 44
1.0
1001
ACAD
1000
ACAD_MTEXT_DEFINED_HEIGHT_BEGIN
1070
    46
1040
65.1168713051388
1000
ACAD_MTEXT_DEFINED_HEIGHT_END
  0
MTEXT
  5
28A5
102
{ACAD_XDICTIONARY
360
343C
102
}
330
18
100
AcDbEntity
  8
TXT-D
100
AcDbMText
 10
712.9802733492351
 20
1129.761152279197
 30
0.0
 40
14.0
 41
147.3781
 71
     1
 72
     5
  1
d\U+0159ev\U+011Bn\U+00FD hranol
  7
ROMANS
 11
0.0000000000000006
 21
1.0
 31
0.0
 73
     1
 44
1.0
  0
LINE
  5
28A6
330
18
100
AcDbEntity
  8
TXT-D
 48
5.0
100
AcDbLine
 10
721.136572139527
 20
1119.746028019767
 30
0.0
 11
721.136572139527
 21
1085.470789443679
 31
0.0
  0
LINE
  5
28A8
330
18
100
AcDbEntity
  8
TXT-D
100
AcDbLine
 10
762.455806073193
 20
1247.086742744478
 30
0.0
 11
762.455806073194
 21
1277.463704747285
 31
0.0
  0
LINE
  5
28A9
330
18
100
AcDbEntity
  8
TXT-D
100
AcDbLine
 10
807.0362727365303
 20
1198.31350967207
 30
0.0
 11
807.0362727365306
 21
1308.762756137404
 31
0.0
  0
LWPOLYLINE
  5
28AC
330
18
100
AcDbEntity
  8
V35
100
AcDbPolyline
 90
        2
 70
     1
 43
2.9
 10
500.7060512309813
 20
1307.212756137405
 42
1.0
 10
500.7060512309813
 20
1310.312756137405
 42
1.0
  0
LWPOLYLINE
  5
28AD
330
18
100
AcDbEntity
  8
V35
100
AcDbPolyline
 90
        2
 70
     1
 43
2.9
 10
483.4944904824688
 20
1275.913704747286
 42
1.0
 10
483.4944904824688
 20
1279.013704747286
 42
1.0
  0
LWPOLYLINE
  5
28AE
330
18
100
AcDbEntity
  8
V35
100
AcDbPolyline
 90
        2
 70
     1
 43
2.9
 10
467.2848387440301
 20
1083.920789443679
 42
1.0
 10
467.2848387440301
 20
1087.020789443679
 42
1.0
  0
LINE
  5
28BC
330
18
100
AcDbEntity
  8
TXT-D
100
AcDbLine
 10
444.9845086941788
 20
1392.928041453001
 30
0.0
 11
297.8398381582524
 21
1392.928041453001
 31
0.0
  0
LINE
  5
28BD
330
18
100
AcDbEntity
  8
TXT-D
100
AcDbLine
 10
333.9221941702258
 20
1435.928041453001
 30
0.0
 11
294.077825626638
 21
1435.928041453001
 31
0.0
  0
LINE
  5
28BE
330
18
100
AcDbEntity
  8
TXT-D
100
AcDbLine
 10
352.933347486945
 20
1478.928041453001
 30
0.0
 11
290.3158130950233
 21
1478.928041453001
 31
0.0
  0
MTEXT
  5
28C0
102
{ACAD_XDICTIONARY
360
343E
102
}
330
18
100
AcDbEntity
  8
TXT-D
100
AcDbMText
 10
179.7531594720926
 20
1071.528238924058
 30
0.0
 40
14.0
 41
188.6104856077412
 71
     1
 72
     5
  1
tepeln\U+00E1 izolace miner\U+00E1ln\U+00ED vlna
  7
ROMANS
 11
0.0000000000000008
 21
1.0
 31
0.0
 73
     1
 44
1.0
  0
MTEXT
  5
28C1
330
18
100
AcDbEntity
  8
TXT-D
100
AcDbMText
 10
95.17269280875598
 20
1156.900262058875
 30
0.0
 40
14.0
 41
147.3781
 71
     1
 72
     5
  1
Kalzip
  7
ROMANS
 11
0.0000000000000008
 21
1.0
 31
0.0
 73
     1
 44
1.0
  0
LINE
  5
28C2
330
18
100
AcDbEntity
  8
TXT-D
100
AcDbLine
 10
104.648225532715
 20
1233.522288266705
 30
0.0
 11
104.6482255327137
 21
1478.928041453001
 31
0.0
  0
LINE
  5
28C3
330
18
100
AcDbEntity
  8
TXT-D
100
AcDbLine
 10
189.2286921960508
 20
1233.522288266705
 30
0.0
 11
189.2286921960522
 21
1392.928041453001
 31
0.0
  0
LINE
  5
28C4
330
18
100
AcDbEntity
  8
TXT-D
100
AcDbLine
 10
144.6482255327139
 20
1312.120951337794
 30
0.0
 11
144.6482255327146
 21
1435.928041453001
 31
0.0
  0
LWPOLYLINE
  5
28C6
330
18
100
AcDbEntity
  8
V35
100
AcDbPolyline
 90
        2
 70
     1
 43
2.9
 10
444.9845086941788
 20
1391.378041453001
 42
1.0
 10
444.9845086941788
 20
1394.478041453001
 42
1.0
  0
LWPOLYLINE
  5
28C7
330
18
100
AcDbEntity
  8
V35
100
AcDbPolyline
 90
        2
 70
     1
 43
2.9
 10
333.9221941702258
 20
1434.378041453001
 42
1.0
 10
333.9221941702258
 20
1437.478041453001
 42
1.0
  0
LWPOLYLINE
  5
28C8
330
18
100
AcDbEntity
  8
V35
100
AcDbPolyline
 90
        2
 70
     1
 43
2.9
 10
352.933347486945
 20
1477.378041453001
 42
1.0
 10
352.933347486945
 20
1480.478041453001
 42
1.0
  0
LINE
  5
28CF
330
18
100
AcDbEntity
  8
TXT-D
100
AcDbLine
 10
270.2394163441563
 20
1478.928041453001
 30
0.0
 11
104.6482255327137
 21
1478.928041453001
 31
0.0
  0
LINE
  5
28D0
330
18
100
AcDbEntity
  8
TXT-D
100
AcDbLine
 10
274.0014288757711
 20
1435.928041453001
 30
0.0
 11
144.6482255327146
 21
1435.928041453001
 31
0.0
  0
LINE
  5
28D1
330
18
100
AcDbEntity
  8
TXT-D
100
AcDbLine
 10
277.7634414073855
 20
1392.928041453001
 30
0.0
 11
189.2286921960522
 21
1392.928041453001
 31
0.0
  0
LINE
  5
28D2
330
18
100
AcDbEntity
  8
TXT-D
100
AcDbLine
 10
224.1456796133211
 20
2005.781863116135
 30
0.0
 11
192.7537798198032
 21
2005.781863116135
 31
0.0
  0
LINE
  5
28D3
330
18
100
AcDbEntity
  8
TXT-E
  6
VERDECKTX2
 48
5.0
100
AcDbLine
 10
239.7829100278873
 20
2014.565340825442
 30
0.0
 11
248.4264838923682
 21
2014.565340825442
 31
0.0
  0
LINE
  5
28D4
330
18
100
AcDbEntity
  8
TXT-D
100
AcDbLine
 10
220.2891286527706
 20
2049.862442303492
 30
0.0
 11
61.17051038485079
 21
2049.862442303493
 31
0.0
  0
LINE
  5
28D5
330
18
100
AcDbEntity
  8
TXT-D
100
AcDbLine
 10
217.9659054994745
 20
2076.417004456651
 30
0.0
 11
101.1705103848508
 21
2076.417004456651
 31
0.0
  0
LINE
  5
28D6
330
18
100
AcDbEntity
  8
TXT-D
100
AcDbLine
 10
216.0171002974384
 20
2098.69194984381
 30
0.0
 11
141.1705103848499
 21
2098.69194984381
 31
0.0
  0
LINE
  5
28D7
330
18
100
AcDbEntity
  8
TXT-D
100
AcDbLine
 10
214.4350947245543
 20
2125.257768152267
 30
0.0
 11
181.4246850560489
 21
2125.257768152267
 31
0.0
  0
LINE
  5
29BC
330
18
100
AcDbEntity
  8
V5
100
AcDbLine
 10
370.5596569048605
 20
1824.776530358476
 30
0.0
 11
373.1743291872902
 21
1794.890689415723
 31
0.0
  0
LINE
  5
29BE
330
18
100
AcDbEntity
  8
V5
100
AcDbLine
 10
403.1743291872901
 20
1794.890689415723
 30
0.0
 11
373.1743291872902
 21
1794.890689415723
 31
0.0
  0
LINE
  5
2A03
330
18
100
AcDbEntity
  8
TXT-D
100
AcDbLine
 10
422.1279239498314
 20
1842.562613129944
 30
0.0
 11
389.6321914996558
 21
1842.562613129944
 31
0.0
  0
LWPOLYLINE
  5
2A04
330
18
100
AcDbEntity
  8
V35
100
AcDbPolyline
 90
        2
 70
     1
 43
2.9
 10
389.6321914996558
 20
1841.012613129944
 42
1.0
 10
389.6321914996558
 20
1844.112613129944
 42
1.0
  0
INSERT
  5
2A21
330
18
100
AcDbEntity
  8
INSULATION
 48
5.0
100
AcDbBlockReference
  2
DAEMM
 10
370.748678123157
 20
1765.247441718639
 30
0.0
 41
1.381873377305364
 42
1.369499999999999
 43
1.381873377305364
 50
95.00000307046727
  0
INSERT
  5
2A22
330
18
100
AcDbEntity
  8
INSULATION
 48
5.0
100
AcDbBlockReference
  2
DAEMM
 10
370.2669253208275
 20
1770.753901446261
 30
0.0
 41
1.381873377305364
 42
1.369499999999999
 43
1.381873377305364
 50
95.00000307046727
  0
INSERT
  5
2A23
330
18
100
AcDbEntity
  8
INSULATION
 48
5.0
100
AcDbBlockReference
  2
DAEMM
 10
369.7851725184988
 20
1776.260361173884
 30
0.0
 41
1.381873377305364
 42
1.369499999999999
 43
1.381873377305364
 50
95.00000307046727
  0
INSERT
  5
2A24
330
18
100
AcDbEntity
  8
INSULATION
 48
5.0
100
AcDbBlockReference
  2
DAEMM
 10
369.3034197161693
 20
1781.766820901507
 30
0.0
 41
1.381873377305364
 42
1.369499999999999
 43
1.381873377305364
 50
95.00000307046727
  0
INSERT
  5
2A26
330
18
100
AcDbEntity
  8
INSULATION
 48
5.0
100
AcDbBlockReference
  2
DAEMM
 10
368.8216669138402
 20
1787.273280629129
 30
0.0
 41
1.381873377305364
 42
1.369499999999999
 43
1.381873377305364
 50
95.00000307046727
  0
INSERT
  5
2A27
330
18
100
AcDbEntity
  8
INSULATION
 48
5.0
100
AcDbBlockReference
  2
DAEMM
 10
368.3399141115111
 20
1792.779740356753
 30
0.0
 41
1.381873377305364
 42
1.369499999999999
 43
1.381873377305364
 50
95.00000307046727
  0
INSERT
  5
2A28
330
18
100
AcDbEntity
  8
INSULATION
 48
5.0
100
AcDbBlockReference
  2
DAEMM
 10
367.858161309182
 20
1798.286200084375
 30
0.0
 41
1.381873377305364
 42
1.369499999999999
 43
1.381873377305364
 50
95.00000307046727
  0
INSERT
  5
2A29
330
18
100
AcDbEntity
  8
INSULATION
 48
5.0
100
AcDbBlockReference
  2
DAEMM
 10
367.376408506853
 20
1803.792659811998
 30
0.0
 41
1.381873377305364
 42
1.369499999999999
 43
1.381873377305364
 50
95.00000307046727
  0
INSERT
  5
2A2A
330
18
100
AcDbEntity
  8
INSULATION
 48
5.0
100
AcDbBlockReference
  2
DAEMM
 10
366.8946557045243
 20
1809.299119539621
 30
0.0
 41
1.381873377305364
 42
1.369499999999999
 43
1.381873377305364
 50
95.00000307046727
  0
INSERT
  5
2A2B
330
18
100
AcDbEntity
  8
INSULATION
 48
5.0
100
AcDbBlockReference
  2
DAEMM
 10
366.4129029021952
 20
1814.805579267244
 30
0.0
 41
1.381873377305364
 42
1.369499999999999
 43
1.381873377305364
 50
95.00000307046727
  0
INSERT
  5
2A2C
330
18
100
AcDbEntity
  8
INSULATION
 48
5.0
100
AcDbBlockReference
  2
DAEMM
 10
365.9311500998662
 20
1820.312038994867
 30
0.0
 41
1.381873377305364
 42
1.369499999999999
 43
1.381873377305364
 50
95.00000307046727
  0
INSERT
  5
2A2D
330
18
100
AcDbEntity
  8
INSULATION
 48
5.0
100
AcDbBlockReference
  2
DAEMM
 10
365.4493972975371
 20
1825.81849872249
 30
0.0
 41
1.381873377305364
 42
1.369499999999999
 43
1.381873377305364
 50
95.00000307046727
  0
INSERT
  5
2A2E
330
18
100
AcDbEntity
  8
INSULATION
 48
5.0
100
AcDbBlockReference
  2
DAEMM
 10
364.967644495208
 20
1831.324958450113
 30
0.0
 41
1.381873377305364
 42
1.369499999999999
 43
1.381873377305364
 50
95.00000307046727
  0
INSERT
  5
2A2F
330
18
100
AcDbEntity
  8
INSULATION
 48
5.0
100
AcDbBlockReference
  2
DAEMM
 10
364.4858916928789
 20
1836.831418177735
 30
0.0
 41
1.381873377305364
 42
1.369499999999999
 43
1.381873377305364
 50
95.00000307046727
  0
INSERT
  5
2A30
330
18
100
AcDbEntity
  8
INSULATION
 48
5.0
100
AcDbBlockReference
  2
DAEMM
 10
364.0041388905498
 20
1842.337877905358
 30
0.0
 41
1.381873377305364
 42
1.369499999999999
 43
1.381873377305364
 50
95.00000307046727
  0
INSERT
  5
2A31
330
18
100
AcDbEntity
  8
INSULATION
 48
5.0
100
AcDbBlockReference
  2
DAEMM
 10
363.5223860882208
 20
1847.844337632981
 30
0.0
 41
1.381873377305364
 42
1.369499999999999
 43
1.381873377305364
 50
95.00000307046727
  0
INSERT
  5
2A32
330
18
100
AcDbEntity
  8
INSULATION
 48
5.0
100
AcDbBlockReference
  2
DAEMM
 10
363.0406332858917
 20
1853.350797360604
 30
0.0
 41
1.381873377305364
 42
1.369499999999999
 43
1.381873377305364
 50
95.00000307046727
  0
INSERT
  5
2A33
330
18
100
AcDbEntity
  8
INSULATION
 48
5.0
100
AcDbBlockReference
  2
DAEMM
 10
362.558880483563
 20
1858.857257088227
 30
0.0
 41
1.381873377305364
 42
1.369499999999999
 43
1.381873377305364
 50
95.00000307046727
  0
INSERT
  5
2A34
330
18
100
AcDbEntity
  8
INSULATION
 48
5.0
100
AcDbBlockReference
  2
DAEMM
 10
362.077127681234
 20
1864.36371681585
 30
0.0
 41
1.381873377305364
 42
1.369499999999999
 43
1.381873377305364
 50
95.00000307046727
  0
INSERT
  5
2A35
330
18
100
AcDbEntity
  8
INSULATION
 48
5.0
100
AcDbBlockReference
  2
DAEMM
 10
361.5953748789049
 20
1869.870176543473
 30
0.0
 41
1.381873377305364
 42
1.369499999999999
 43
1.381873377305364
 50
95.00000307046727
  0
INSERT
  5
2A36
330
18
100
AcDbEntity
  8
INSULATION
 48
5.0
100
AcDbBlockReference
  2
DAEMM
 10
361.1136220765758
 20
1875.376636271095
 30
0.0
 41
1.381873377305364
 42
1.369499999999999
 43
1.381873377305364
 50
95.00000307046727
  0
INSERT
  5
2A37
330
18
100
AcDbEntity
  8
INSULATION
 48
5.0
100
AcDbBlockReference
  2
DAEMM
 10
360.6318692742467
 20
1880.883095998719
 30
0.0
 41
1.381873377305364
 42
1.369499999999999
 43
1.381873377305364
 50
95.00000307046727
  0
INSERT
  5
2A38
330
18
100
AcDbEntity
  8
INSULATION
 48
5.0
100
AcDbBlockReference
  2
DAEMM
 10
360.1501164719176
 20
1886.389555726341
 30
0.0
 41
1.381873377305364
 42
1.369499999999999
 43
1.381873377305364
 50
95.00000307046727
  0
INSERT
  5
2A39
330
18
100
AcDbEntity
  8
INSULATION
 48
5.0
100
AcDbBlockReference
  2
DAEMM
 10
359.6683636695885
 20
1891.896015453964
 30
0.0
 41
1.381873377305364
 42
1.369499999999999
 43
1.381873377305364
 50
95.00000307046727
  0
INSERT
  5
2A61
330
18
100
AcDbEntity
  8
INSULATION
 48
5.0
100
AcDbBlockReference
  2
DAEMM
 10
354.3690828439693
 20
1952.467072457816
 30
0.0
 41
1.381873377305364
 42
1.369499999999999
 43
1.381873377305364
 50
95.00000307046727
  0
INSERT
  5
2A62
330
18
100
AcDbEntity
  8
INSULATION
 48
5.0
100
AcDbBlockReference
  2
DAEMM
 10
353.8873300416407
 20
1957.973532185438
 30
0.0
 41
1.381873377305364
 42
1.369499999999999
 43
1.381873377305364
 50
95.00000307046727
  0
INSERT
  5
2A63
330
18
100
AcDbEntity
  8
INSULATION
 48
5.0
100
AcDbBlockReference
  2
DAEMM
 10
353.4055772393116
 20
1963.479991913061
 30
0.0
 41
1.381873377305364
 42
1.369499999999999
 43
1.381873377305364
 50
95.00000307046727
  0
INSERT
  5
2A64
330
18
100
AcDbEntity
  8
INSULATION
 48
5.0
100
AcDbBlockReference
  2
DAEMM
 10
352.9238244369825
 20
1968.986451640684
 30
0.0
 41
1.381873377305364
 42
1.369499999999999
 43
1.381873377305364
 50
95.00000307046727
  0
INSERT
  5
2A65
330
18
100
AcDbEntity
  8
INSULATION
 48
5.0
100
AcDbBlockReference
  2
DAEMM
 10
352.4420716346534
 20
1974.492911368307
 30
0.0
 41
1.381873377305364
 42
1.369499999999999
 43
1.381873377305364
 50
95.00000307046727
  0
INSERT
  5
2A66
330
18
100
AcDbEntity
  8
INSULATION
 48
5.0
100
AcDbBlockReference
  2
DAEMM
 10
351.9603188323243
 20
1979.99937109593
 30
0.0
 41
1.381873377305364
 42
1.369499999999999
 43
1.381873377305364
 50
95.00000307046727
  0
INSERT
  5
2A67
330
18
100
AcDbEntity
  8
INSULATION
 48
5.0
100
AcDbBlockReference
  2
DAEMM
 10
351.4785660299953
 20
1985.505830823553
 30
0.0
 41
1.381873377305364
 42
1.369499999999999
 43
1.381873377305364
 50
95.00000307046727
  0
INSERT
  5
2A68
330
18
100
AcDbEntity
  8
INSULATION
 48
5.0
100
AcDbBlockReference
  2
DAEMM
 10
350.9968132276662
 20
1991.012290551176
 30
0.0
 41
1.381873377305364
 42
1.369499999999999
 43
1.381873377305364
 50
95.00000307046727
  0
INSERT
  5
2A69
330
18
100
AcDbEntity
  8
INSULATION
 48
5.0
100
AcDbBlockReference
  2
DAEMM
 10
350.5150604253371
 20
1996.518750278798
 30
0.0
 41
1.381873377305364
 42
1.369499999999999
 43
1.381873377305364
 50
95.00000307046727
  0
INSERT
  5
2A6A
330
18
100
AcDbEntity
  8
INSULATION
 48
5.0
100
AcDbBlockReference
  2
DAEMM
 10
350.033307623008
 20
2002.025210006421
 30
0.0
 41
1.381873377305364
 42
1.369499999999999
 43
1.381873377305364
 50
95.00000307046727
  0
INSERT
  5
2A6B
330
18
100
AcDbEntity
  8
INSULATION
 48
5.0
100
AcDbBlockReference
  2
DAEMM
 10
349.5515548206794
 20
2007.531669734044
 30
0.0
 41
1.381873377305364
 42
1.369499999999999
 43
1.381873377305364
 50
95.00000307046727
  0
INSERT
  5
2A6C
330
18
100
AcDbEntity
  8
INSULATION
 48
5.0
100
AcDbBlockReference
  2
DAEMM
 10
349.0698020183503
 20
2013.038129461667
 30
0.0
 41
1.381873377305364
 42
1.369499999999999
 43
1.381873377305364
 50
95.00000307046727
  0
INSERT
  5
2A6D
330
18
100
AcDbEntity
  8
INSULATION
 48
5.0
100
AcDbBlockReference
  2
DAEMM
 10
348.5880492160212
 20
2018.54458918929
 30
0.0
 41
1.381873377305364
 42
1.369499999999999
 43
1.381873377305364
 50
95.00000307046727
  0
INSERT
  5
2A6E
330
18
100
AcDbEntity
  8
INSULATION
 48
5.0
100
AcDbBlockReference
  2
DAEMM
 10
348.1062964136921
 20
2024.051048916913
 30
0.0
 41
1.381873377305364
 42
1.369499999999999
 43
1.381873377305364
 50
95.00000307046727
  0
INSERT
  5
2A6F
330
18
100
AcDbEntity
  8
INSULATION
 48
5.0
100
AcDbBlockReference
  2
DAEMM
 10
347.6245436113631
 20
2029.557508644536
 30
0.0
 41
1.381873377305364
 42
1.369499999999999
 43
1.381873377305364
 50
95.00000307046727
  0
INSERT
  5
2A70
330
18
100
AcDbEntity
  8
INSULATION
 48
5.0
100
AcDbBlockReference
  2
DAEMM
 10
347.142790809034
 20
2035.063968372159
 30
0.0
 41
1.381873377305364
 42
1.369499999999999
 43
1.381873377305364
 50
95.00000307046727
  0
INSERT
  5
2A71
330
18
100
AcDbEntity
  8
INSULATION
 48
5.0
100
AcDbBlockReference
  2
DAEMM
 10
346.6610380067049
 20
2040.570428099782
 30
0.0
 41
1.381873377305364
 42
1.369499999999999
 43
1.381873377305364
 50
95.00000307046727
  0
INSERT
  5
2A72
330
18
100
AcDbEntity
  8
INSULATION
 48
5.0
100
AcDbBlockReference
  2
DAEMM
 10
346.1792852043763
 20
2046.076887827405
 30
0.0
 41
1.381873377305364
 42
1.369499999999999
 43
1.381873377305364
 50
95.00000307046727
  0
INSERT
  5
2A73
330
18
100
AcDbEntity
  8
INSULATION
 48
5.0
100
AcDbBlockReference
  2
DAEMM
 10
345.6975324020467
 20
2051.583347555027
 30
0.0
 41
1.381873377305364
 42
1.369499999999999
 43
1.381873377305364
 50
95.00000307046727
  0
INSERT
  5
2A74
330
18
100
AcDbEntity
  8
INSULATION
 48
5.0
100
AcDbBlockReference
  2
DAEMM
 10
345.2157795997181
 20
2057.08980728265
 30
0.0
 41
1.381873377305364
 42
1.369499999999999
 43
1.381873377305364
 50
95.00000307046727
  0
INSERT
  5
2A75
330
18
100
AcDbEntity
  8
INSULATION
 48
5.0
100
AcDbBlockReference
  2
DAEMM
 10
344.734026797389
 20
2062.596267010273
 30
0.0
 41
1.381873377305364
 42
1.369499999999999
 43
1.381873377305364
 50
95.00000307046727
  0
INSERT
  5
2A76
330
18
100
AcDbEntity
  8
INSULATION
 48
5.0
100
AcDbBlockReference
  2
DAEMM
 10
344.2522739950599
 20
2068.102726737896
 30
0.0
 41
1.381873377305364
 42
1.369499999999999
 43
1.381873377305364
 50
95.00000307046727
  0
INSERT
  5
2A77
330
18
100
AcDbEntity
  8
INSULATION
 48
5.0
100
AcDbBlockReference
  2
DAEMM
 10
343.7705211927308
 20
2073.609186465519
 30
0.0
 41
1.381873377305364
 42
1.369499999999999
 43
1.381873377305364
 50
95.00000307046727
  0
INSERT
  5
2A78
330
18
100
AcDbEntity
  8
INSULATION
 48
5.0
100
AcDbBlockReference
  2
DAEMM
 10
343.2887683904017
 20
2079.115646193141
 30
0.0
 41
1.381873377305364
 42
1.369499999999999
 43
1.381873377305364
 50
95.00000307046727
  0
LINE
  5
2A92
330
18
100
AcDbEntity
  8
INSULATION
100
AcDbLine
 10
355.2640667448366
 20
1899.652846226513
 30
0.0
 11
349.2253921145718
 21
1896.711735359515
 31
0.0
  0
ELLIPSE
  5
2A93
330
18
100
AcDbEntity
  8
INSULATION
100
AcDbEllipse
 10
348.0314252574292
 20
1899.200826130051
 30
0.0
 11
-0.2408765486904827
 21
2.753229850904702
 31
0.0
210
0.0
220
0.0
230
1.0
 40
0.9910459398751109
 41
0.6874101726104588
 42
3.50456130220239
  0
LINE
  5
2A99
330
18
100
AcDbEntity
  8
INSULATION
100
AcDbLine
 10
344.4392514929227
 20
1951.417569816069
 30
0.0
 11
350.8969038271453
 21
1949.569746568977
 31
0.0
  0
ELLIPSE
  5
2A9A
330
18
100
AcDbEntity
  8
INSULATION
100
AcDbEllipse
 10
351.6405052835998
 20
1952.228352706389
 30
0.0
 11
-0.2408765487079344
 21
2.753229850903062
 31
0.0
210
0.0
220
0.0
230
1.0
 40
0.9910459398751513
 41
2.778624004984706
 42
4.712388980385219
  0
LINE
  5
3052
330
18
100
AcDbEntity
  8
V5
100
AcDbLine
 10
319.0348979082028
 20
2118.01163297578
 30
0.0
 11
289.1228000971005
 21
2147.834276637062
 31
0.0
  0
LINE
  5
3053
330
18
100
AcDbEntity
  8
V7
100
AcDbLine
 10
311.7103183873687
 20
2122.028624999694
 30
0.0
 11
284.5557764455088
 21
2126.816703392824
 31
0.0
  0
LINE
  5
3054
330
18
100
AcDbEntity
  8
V5
100
AcDbLine
 10
310.6684293213675
 20
2116.119778481621
 30
0.0
 11
283.5138873795076
 21
2120.907856874751
 31
0.0
  0
ARC
  5
3055
330
18
100
AcDbEntity
  8
V5
100
AcDbCircle
 10
309.4528920776983
 20
2109.226124210536
 30
0.0
 40
7.0
100
AcDbArc
 50
5.000000000000621
 51
79.99999999999499
  0
ARC
  5
3056
330
18
100
AcDbEntity
  8
V7
100
AcDbCircle
 10
309.4528920776983
 20
2109.226124210536
 30
0.0
 40
12.99999999999996
100
AcDbArc
 50
5.000000000000621
 51
79.99999999999499
  0
LINE
  5
3057
330
18
100
AcDbEntity
  8
V5
100
AcDbLine
 10
283.5138873795076
 20
2120.907856874751
 30
0.0
 11
287.735881683564
 21
2144.851976413882
 31
0.0
  0
ARC
  5
3058
330
18
100
AcDbEntity
  8
V5
100
AcDbCircle
 10
285.4491941478772
 20
2143.826843743773
 30
0.0
 40
5.436441765014149
100
AcDbArc
 50
47.48857560234857
 51
97.21247353583585
  0
ARC
  5
3059
330
18
100
AcDbEntity
  8
V5
100
AcDbCircle
 10
283.4472883480774
 20
2145.184165938154
 30
0.0
 40
4.301439605204218
100
AcDbArc
 50
355.5707787181554
 51
70.18810107628488
  0
LINE
  5
305B
330
18
100
AcDbEntity
  8
V7
100
AcDbLine
 10
337.5221851487613
 20
1948.87073569724
 30
0.0
 11
322.4034231528912
 21
2110.359148866255
 31
0.0
  0
LWPOLYLINE
  5
3201
330
18
100
AcDbEntity
  8
V5
100
AcDbPolyline
 90
        3
 70
     0
 43
2.2
 10
397.9167041924122
 20
1767.283972822159
 10
468.047249496876
 20
1767.283972822159
 10
518.6424505436685
 20
1188.978178588589
  0
LWPOLYLINE
  5
3202
330
18
100
AcDbEntity
  8
V5
100
AcDbPolyline
 90
        4
 70
     0
 43
2.2
 10
566.4388052124365
 20
1659.681466196756
 10
484.7770438049142
 20
1659.681466196756
 10
475.6515417035109
 20
1763.986432504757
 10
538.2198625583494
 20
1763.986432504757
  0
HATCH
  5
3203
330
18
100
AcDbEntity
  8
V25
 48
5.0
100
AcDbHatch
 10
0.0
 20
0.0
 30
0.0
210
0.0
220
0.0
230
1.0
  2
ANSI37
 70
     0
 71
     1
 91
        1
 92
        7
 72
     0
 73
     1
 93
        4
 10
535.0228715485429
 20
1771.196215257787
 10
490.022871548543
 20
1771.196215257787
 10
490.022871548543
 20
1766.196215257787
 10
535.0228715485429
 20
1766.196215257787
 97
        1
330
3204
 75
     0
 76
     1
 52
180.0
 41
1.0
 77
     0
 78
     2
 53
225.0
 43
1019.338895516537
 44
2423.378980244651
 45
2.245064030267287
 46
-2.245064030267288
 79
     0
 53
314.9999999999999
 43
1019.338895516537
 44
2423.378980244651
 45
2.245064030267288
 46
2.245064030267287
 79
     0
 47
0.1149827854136383
 98
        1
 10
516.7471078941823
 20
1767.865703275402
  0
LWPOLYLINE
  5
3204
102
{ACAD_REACTORS
330
3203
102
}
330
18
100
AcDbEntity
  8
V25
  6
AUSGEZOGEN
 48
5.0
100
AcDbPolyline
 90
        4
 70
     1
 43
0.0
 10
535.0228715485429
 20
1771.196215257787
 10
490.022871548543
 20
1771.196215257787
 10
490.022871548543
 20
1766.196215257787
 10
535.0228715485429
 20
1766.196215257787
  0
LINE
  5
3205
330
18
100
AcDbEntity
  8
ISOLIER
100
AcDbLine
 10
512.5228715485429
 20
1753.797410134745
 30
0.0
 11
512.5228715485429
 21
1780.841919259137
 31
0.0
  0
HATCH
  5
3206
330
18
100
AcDbEntity
  8
V25
 48
5.0
100
AcDbHatch
 10
0.0
 20
0.0
 30
0.0
210
0.0
220
0.0
230
1.0
  2
ANSI37
 70
     0
 71
     1
 91
        1
 92
        7
 72
     0
 73
     1
 93
        4
 10
477.0647303583182
 20
1734.24833005782
 10
472.0837568678589
 20
1733.812551344082
 10
476.0057652915038
 20
1688.983789929953
 10
480.9867387819622
 20
1689.419568643692
 97
        1
330
3207
 75
     0
 76
     1
 52
94.99999999999998
 41
1.0
 77
     0
 78
     2
 53
139.9999999999999
 43
1170.08531715384
 44
1263.787986655553
 45
-2.040850660754763
 46
-2.432191106902753
 79
     0
 53
229.9999999999999
 43
1170.08531715384
 44
1263.787986655553
 45
2.432191106902753
 46
-2.040850660754763
 79
     0
 47
0.1149827854136383
 98
        1
 10
473.2627055592299
 20
1707.335514254189
  0
LWPOLYLINE
  5
3207
102
{ACAD_REACTORS
330
3206
102
}
330
18
100
AcDbEntity
  8
V25
  6
AUSGEZOGEN
 48
5.0
100
AcDbPolyline
 90
        4
 70
     1
 43
0.0
 10
480.9867387819624
 20
1689.419568643692
 10
477.064730358318
 20
1734.24833005782
 10
472.0837568678591
 20
1733.812551344082
 10
476.0057652915038
 20
1688.983789929953
  0
LWPOLYLINE
  5
3208
102
{ACAD_REACTORS
330
3209
102
}
330
18
100
AcDbEntity
  8
V25
  6
AUSGEZOGEN
 48
5.0
100
AcDbPolyline
 90
        4
 70
     1
 43
0.0
 10
562.2938203101832
 20
1665.697964454141
 10
517.2938203101832
 20
1665.697964454141
 10
517.2938203101832
 20
1660.697964454141
 10
562.2938203101832
 20
1660.697964454141
  0
HATCH
  5
3209
330
18
100
AcDbEntity
  8
V25
 48
5.0
100
AcDbHatch
 10
0.0
 20
0.0
 30
0.0
210
0.0
220
0.0
230
1.0
  2
ANSI37
 70
     0
 71
     1
 91
        1
 92
        7
 72
     0
 73
     1
 93
        4
 10
562.2938203101832
 20
1665.697964454141
 10
517.2938203101832
 20
1665.697964454141
 10
517.2938203101832
 20
1660.697964454141
 10
562.2938203101832
 20
1660.697964454141
 97
        1
330
3208
 75
     0
 76
     1
 52
180.0
 41
1.0
 77
     0
 78
     2
 53
225.0
 43
1046.609844278177
 44
2317.880729441004
 45
2.245064030267287
 46
-2.245064030267288
 79
     0
 53
314.9999999999999
 43
1046.609844278177
 44
2317.880729441004
 45
2.245064030267288
 46
2.245064030267287
 79
     0
 47
0.1149827854136383
 98
        1
 10
544.0180566558222
 20
1662.367452471755
  0
LWPOLYLINE
  5
320A
330
18
100
AcDbEntity
  8
V35
100
AcDbPolyline
 90
        2
 70
     1
 43
2.9
 10
525.7549892561662
 20
1660.772032602956
 42
1.0
 10
525.7549892561662
 20
1663.872032602955
 42
1.0
  0
LINE
  5
320B
330
18
100
AcDbEntity
  8
V25
100
AcDbLine
 10
539.7938203101833
 20
1674.575773216037
 30
0.0
 11
539.7938203101833
 21
1653.097753629184
 31
0.0
  0
LINE
  5
320C
330
18
100
AcDbEntity
  8
TXT-D
100
AcDbLine
 10
601.2676066762903
 20
1783.985249305047
 30
0.0
 11
525.7549892561662
 21
1662.322032602955
 31
0.0
  0
LINE
  5
320D
330
18
100
AcDbEntity
  8
TXT-D
100
AcDbLine
 10
601.2676066762903
 20
1783.985249305047
 30
0.0
 11
475.8732562356988
 21
1724.2041310002
 31
0.0
  0
LWPOLYLINE
  5
320E
330
18
100
AcDbEntity
  8
V35
100
AcDbPolyline
 90
        2
 70
     1
 43
2.9
 10
475.8732562356988
 20
1722.6541310002
 42
1.0
 10
475.8732562356988
 20
1725.7541310002
 42
1.0
  0
LINE
  5
320F
330
18
100
AcDbEntity
  8
TXT-D
100
AcDbLine
 10
601.2676066762903
 20
1783.985249305047
 30
0.0
 11
601.2676066762903
 21
1863.115590196834
 31
0.0
  0
MTEXT
  5
3210
102
{ACAD_XDICTIONARY
360
3440
102
}
330
18
100
AcDbEntity
  8
TXT-D
100
AcDbMText
 10
594.363248578308
 20
1868.001483778614
 30
0.0
 40
14.0
 41
147.3781
 71
     1
 72
     5
  1
t\U+011Bsn\U+00EDc\U+00ED p\U+00E1sek  2x
  7
ROMANS
 11
0.0000000000000003
 21
1.0
 31
0.0
 73
     1
 44
1.0
  0
ARC
  5
3213
330
18
100
AcDbEntity
  8
ISO
100
AcDbCircle
 10
549.8246885241002
 20
1751.752183368569
 30
0.0
 40
11.76
100
AcDbArc
 50
90.00000000000005
 51
180.0
  0
ARC
  5
3214
330
18
100
AcDbEntity
  8
ISO
100
AcDbCircle
 10
526.3046885241006
 20
1751.752183368569
 30
0.0
 40
11.76
100
AcDbArc
 50
0.0
 51
89.99999999999992
  0
ARC
  5
3215
330
18
100
AcDbEntity
  8
ISO
100
AcDbCircle
 10
526.3046885241011
 20
1751.752183368571
 30
0.0
 40
11.76
100
AcDbArc
 50
90.00000000000005
 51
180.0
  0
ARC
  5
3216
330
18
100
AcDbEntity
  8
ISO
100
AcDbCircle
 10
502.7846885241016
 20
1751.752183368571
 30
0.0
 40
11.76
100
AcDbArc
 50
0.0
 51
89.99999999999992
  0
ARC
  5
3217
330
18
100
AcDbEntity
  8
ISO
100
AcDbCircle
 10
502.7846885241011
 20
1751.752183368571
 30
0.0
 40
11.76
100
AcDbArc
 50
90.00000000000005
 51
180.0
  0
ARC
  5
3218
330
18
100
AcDbEntity
  8
ISO
100
AcDbCircle
 10
479.2646885241016
 20
1751.752183368571
 30
0.0
 40
11.76
100
AcDbArc
 50
0.0
 51
89.99999999999992
  0
LINE
  5
3219
330
18
100
AcDbEntity
  8
V25
100
AcDbLine
 10
469.2478757985343
 20
1711.569037216047
 30
0.0
 11
494.3281778379848
 21
1713.763279322305
 31
0.0
  0
TEXT
  5
322D
330
18
100
AcDbEntity
  8
V5
100
AcDbText
 10
149.1726928087552
 20
1118.257096668957
 30
0.0
 40
14.0
  1
hliníková klipsová tyč
 50
89.99999999999992
  7
ROMANS
100
AcDbText
  0
TEXT
  5
3232
330
18
100
AcDbEntity
  8
TXT-D
100
AcDbText
 10
41.60024093523941
 20
1790.342722654941
 30
0.0
 40
14.0
  1
pevný bod podle statiky
 50
89.99999999999992
  7
ROMANS
100
AcDbText
  0
CIRCLE
  5
3233
330
18
100
AcDbEntity
  8
V5
 62
     3
 48
5.0
100
AcDbCircle
 10
275.8930867785592
 20
2027.112622107925
 30
0.0
 40
3.114743605163709
  0
LINE
  5
3234
330
18
100
AcDbEntity
  8
TXT-E
  6
VERDECKTX2
 48
5.0
100
AcDbLine
 10
274.6855443066006
 20
2027.112622107925
 30
0.0
 11
35.58953470892721
 21
2027.112622107925
 31
0.0
  0
LINE
  5
3235
330
18
100
AcDbEntity
  8
TXT-E
  6
VERDECKTX2
 48
5.0
100
AcDbLine
 10
35.58953470892721
 20
2027.112622107925
 30
0.0
 11
35.58953470892721
 21
2005.361428122709
 31
0.0
  0
LINE
  5
323D
330
18
100
AcDbEntity
  8
V25
100
AcDbLine
 10
513.4328257474607
 20
1402.727012771961
 30
0.0
 11
479.5499834038786
 21
1399.762648178861
 31
0.0
  0
LINE
  5
323E
330
18
100
AcDbEntity
  8
V25
100
AcDbLine
 10
536.9990745926641
 20
1133.363555891416
 30
0.0
 11
503.116232249082
 21
1130.399191298316
 31
0.0
  0
LWPOLYLINE
  5
324A
330
18
100
AcDbEntity
  8
V5
100
AcDbPolyline
 90
        6
 70
     0
 43
2.0
 10
263.4849365754153
 20
1975.601375097738
 10
256.6020193392028
 20
1985.431199629205
 10
241.4701782732268
 20
2158.388934450377
 10
369.3051148827722
 20
2158.388934450377
 10
374.6322422158655
 20
2097.499590409652
 10
369.2121140209902
 20
2085.791626090459
  0
VIEWPORT
  5
27F
330
15
100
AcDbEntity
 67
     1
  8
0
100
AcDbViewport
 10
146.1240458878201
 20
155.5207710667446
 30
0.0
 40
789.3098643466819
 41
306.5813604373598
 68
     1
 69
     1
 12
146.1240458878201
 22
155.5207710667446
 13
0.0
 23
0.0
 14
10.0
 24
10.0
 15
10.0
 25
10.0
 16
0.0
 26
0.0
 36
1.0
 17
0.0
 27
0.0
 37
0.0
 42
50.0
 43
0.0
 44
0.0
 45
306.5813604373598
 50
0.0
 51
0.0
 72
   100
 90
    32800
  1

281
     0
 71
     1
 74
     0
110
0.0
120
0.0
130
0.0
111
1.0
121
0.0
131
0.0
112
0.0
122
1.0
132
0.0
 79
     0
146
0.0
170
     0
  0
VIEWPORT
  5
8F2
330
15
100
AcDbEntity
 67
     1
  8
Mansfen
100
AcDbViewport
 10
100.9376367019383
 20
145.8618034367048
 30
0.0
 40
190.1500212327088
 41
250.0286715940809
 68
     2
 69
     2
 12
476.9889414521703
 22
1632.835991820368
 13
0.0
 23
0.0
 14
10.0
 24
10.0
 15
10.0
 25
10.0
 16
0.0
 26
0.0
 36
1.0
 17
0.0
 27
0.0
 37
0.0
 42
50.0
 43
0.0
 44
0.0
 45
1250.143367245628
 50
0.0
 51
0.0
 72
 20000
 90
    32768
  1

281
     0
 71
     1
 74
     0
110
0.0
120
0.0
130
0.0
111
1.0
121
0.0
131
0.0
112
0.0
122
1.0
132
0.0
 79
     0
146
0.0
170
     0
  0
LINE
  5
1AB7
330
15
100
AcDbEntity
 67
     1
  8
V5
 62
     1
100
AcDbLine
 10
5.862626085583912
 20
20.84746763966433
 30
0.0
 11
194.5157349681323
 21
20.84746763966432
 31
0.0
  0
LINE
  5
1AB8
330
15
100
AcDbEntity
 67
     1
  8
V5
 62
     1
100
AcDbLine
 10
5.862626085583912
 20
270.8761392337452
 30
0.0
 11
194.5157349681324
 21
270.8761392337452
 31
0.0
  0
TEXT
  5
1ABA
330
15
100
AcDbEntity
 67
     1
  8
0
 62
     7
100
AcDbText
 10
5.862626085583912
 20
278.4525358203893
 30
0.0
 40
2.872918975993215
  1
Detail - vazníková střecha 
  7
Stil1
100
AcDbText
  0
TEXT
  5
1ABB
330
15
100
AcDbEntity
 67
     1
  8
0
 62
     7
100
AcDbText
 10
5.862626085583912
 20
273.8374442866485
 30
0.0
 40
2.872918975993215
  1
Hřeben pultové střechy - konzola s klipsovou tyčí
  7
Stil1
100
AcDbText
  0
LWPOLYLINE
  5
1ABC
102
{ACAD_REACTORS
330
1ABF
102
}
330
15
100
AcDbEntity
 67
     1
  8
0
 62
     1
100
AcDbPolyline
 90
        8
 70
     1
 43
0.0
 10
164.8861137720383
 20
7.137625632008951
 42
-0.2451258193606399
 10
164.352135364201
 20
7.539273909738064
 42
-0.1420187448230164
 10
164.3660736963495
 20
8.36039226064428
 42
-0.2899718709829171
 10
165.3625434248853
 20
8.991341152224311
 10
166.1290903520431
 20
8.991341152224311
 42
-0.3900918559591556
 10
166.3406046281455
 20
8.792519236678458
 10
166.3406046281456
 20
7.982823233950362
 42
-0.2034436104283782
 10
166.1161272801131
 20
7.484856705441732
 42
-0.2311376311759479
  0
LWPOLYLINE
  5
1ABD
102
{ACAD_REACTORS
330
1ABF
102
}
330
15
100
AcDbEntity
 67
     1
  8
0
 62
     1
100
AcDbPolyline
 90
       18
 70
     1
 43
0.0
 10
166.259341620759
 20
9.766812620944655
 42
0.1602289575782981
 10
166.1356673791248
 20
10.29906930192685
 42
0.2678367822512051
 10
165.3350637654536
 20
10.7060897489492
 42
0.1250890829061368
 10
164.0122886196519
 20
10.35087444135887
 10
163.6286695786015
 20
11.04939135924316
 42
-0.2393084470231862
 10
166.2796355984096
 20
11.41486673678506
 42
-0.2771818233458632
 10
167.2712060597314
 20
9.882719197536598
 10
167.2712060597314
 20
7.783325622030456
 42
0.2106080285028759
 10
167.7202111446426
 20
6.798458239304608
 42
-0.655875337136226
 10
167.6137723919788
 20
6.508406778884861
 42
-0.2140955845208337
 10
166.5344695771976
 20
6.859115730674083
 42
0.3793030021024653
 10
166.2537188174503
 20
6.825450788898354
 42
-0.1547524270167758
 10
165.2998619467866
 20
6.520090938431859
 10
164.5766028699789
 20
6.520090938431859
 42
-0.3920539506815679
 10
163.4141116315821
 20
7.671700873843386
 42
-0.1827818212654531
 10
163.7059431775548
 20
8.863368905817711
 42
-0.1876748474912757
 10
165.338753255916
 20
9.684427399142013
 42
-0.0541248642832585
 10
166.1579051751706
 20
9.686850262029896
 42
0.4569276421989473
  0
LWPOLYLINE
  5
1ABE
102
{ACAD_REACTORS
330
1ABF
102
}
330
15
100
AcDbEntity
 67
     1
  8
0
 62
     1
100
AcDbPolyline
 90
       12
 70
     1
 43
0.0
 10
155.9988026775777
 20
3.45243228849938
 42
-0.4142135623730951
 10
155.0238026775777
 20
4.42743228849938
 10
155.0238026775777
 20
14.86596045719827
 42
-0.2659775848638765
 10
155.5050998594816
 20
15.70672351978129
 42
-0.2516648824931137
 10
170.4646271489323
 20
16.27351992293238
 10
170.2645821096617
 20
15.86485504523517
 42
0.2516648824931138
 10
155.7354945079265
 20
15.3143674239092
 42
0.2659775848638775
 10
155.4788026775777
 20
14.86596045719827
 10
155.4788026775777
 20
4.42743228849938
 42
0.4142135623730951
 10
155.9988026775777
 20
3.907432288499379
 10
170.3638026775777
 20
3.907432288499379
 10
170.3638026775777
 20
3.45243228849938
  0
HATCH
  5
1ABF
330
15
100
AcDbEntity
 67
     1
  8
0
 62
     1
100
AcDbHatch
 10
0.0
 20
0.0
 30
0.0
210
0.0
220
0.0
230
1.0
  2
SOLID
 70
     1
 71
     1
 91
        5
 92
        7
 72
     1
 73
     1
 93
       12
 10
155.5050998594816
 20
15.70672351978129
 42
0.2659775848638745
 10
155.0238026775777
 20
14.86596045719827
 42
0.0
 10
155.0238026775777
 20
4.427432288499375
 42
0.4142135623730935
 10
155.9988026775777
 20
3.45243228849938
 42
0.0
 10
170.3638026775777
 20
3.45243228849938
 42
0.0
 10
170.3638026775777
 20
3.907432288499379
 42
0.0
 10
155.9988026775777
 20
3.907432288499379
 42
-0.4142135623730977
 10
155.4788026775777
 20
4.427432288499384
 42
0.0
 10
155.4788026775777
 20
14.86596045719825
 42
-0.2659775848638737
 10
155.7354945079264
 20
15.31436742390919
 42
-0.2516648824931143
 10
170.2645821096617
 20
15.86485504523517
 42
0.0
 10
170.4646271489323
 20
16.27351992293238
 42
0.2516648824931142
 97
        1
330
1ABE
 92
       23
 72
     0
 73
     1
 93
       12
 10
159.1931723049634
 20
13.22874580593033
 10
158.1646157734467
 20
13.22874580593033
 10
158.1646157734467
 20
6.517180945758529
 10
159.1931723049634
 20
6.517180945758529
 10
159.1931723049634
 20
8.416854470426423
 10
159.9972121719259
 20
9.488106931637414
 10
161.9443609729196
 20
6.517180945758531
 10
163.0818442971624
 20
6.517180945758525
 10
160.6296878713945
 20
10.33077801991478
 10
162.8047882492229
 20
13.22874580593033
 10
161.6553645179006
 20
13.22874580593032
 10
159.1931723049634
 20
9.801516354479634
 97
        1
330
1AC0
 92
       23
 72
     1
 73
     1
 93
       18
 10
163.6286695786015
 20
11.04939135924316
 42
0.0
 10
164.0122886196519
 20
10.35087444135887
 42
-0.1250890829061343
 10
165.3350637654535
 20
10.7060897489492
 42
-0.267836782250909
 10
166.1356673791243
 20
10.29906930192775
 42
-0.1602289575786653
 10
166.259341620759
 20
9.766812620944451
 42
-0.4569276421982639
 10
166.1579051751706
 20
9.686850262029896
 42
0.0541248642832679
 10
165.3387532559159
 20
9.684427399141997
 42
0.1876748474912564
 10
163.7059431775548
 20
8.863368905817745
 42
0.1827818212654466
 10
163.4141116315821
 20
7.671700873843476
 42
0.3920539506815952
 10
164.5766028699789
 20
6.520090938431859
 42
0.0
 10
165.2998619467867
 20
6.520090938431859
 42
0.1547524270167747
 10
166.2537188174504
 20
6.825450788898421
 42
-0.4453775332542486
 10
166.5706341894595
 20
6.827482174510481
 42
0.2086188919813899
 10
167.6326352870495
 20
6.510575979547967
 42
0.6162695522437575
 10
167.7202111446429
 20
6.798458239304361
 42
-0.2171983840448881
 10
167.2712060597314
 20
7.817149536132321
 42
0.0
 10
167.2712060597314
 20
9.88271919753687
 42
0.2771818233458192
 10
166.2796355984096
 20
11.41486673678506
 42
0.2393084470231889
 97
        1
330
1ABD
 92
       22
 72
     1
 73
     1
 93
        8
 10
165.3625434248853
 20
8.991341152224311
 42
0.0
 10
166.1245441633908
 20
8.991341152224311
 42
-0.4387538430829209
 10
166.3406046281455
 20
8.761487855260405
 42
0.0
 10
166.3406046281456
 20
8.013716733755426
 42
-0.231573802586463
 10
166.0827366039533
 20
7.455908097310621
 42
-0.2231591289142601
 10
164.8861137720388
 20
7.137625632008874
 42
-0.2451258193607781
 10
164.3521353642011
 20
7.539273909737975
 42
-0.1420187448229963
 10
164.3660736963494
 20
8.360392260644081
 42
-0.2899718709829691
 97
        1
330
1ABC
 92
        7
 72
     1
 73
     1
 93
        7
 10
169.6263780685755
 20
13.44753510223376
 42
0.0
 10
168.6891947302181
 20
13.44753510223375
 42
0.0
 10
168.6891947302181
 20
7.544132570549709
 42
0.3265321329225785
 10
169.8330021056258
 20
6.517077464232746
 42
0.0
 10
170.5080567525449
 20
6.517082367544258
 42
0.0
 10
170.5080567525449
 20
7.254687454191742
 42
-0.4142135623730958
 10
169.6263780685755
 20
8.136366138161109
 42
0.0
 97
        1
330
1AC6
 75
     0
 76
     1
 47
0.2105755737740495
 98
        5
 10
167.7702663149571
 20
17.11509740741697
 10
158.7298222459274
 20
12.02338006614279
 10
165.3046907160368
 20
11.1473856688791
 10
165.3046907160368
 20
11.1473856688791
 10
169.2770070447092
 20
9.149023475904932
450
        0
451
        0
460
0.0
461
0.0
452
        0
462
0.0
453
        0
470

  0
LWPOLYLINE
  5
1AC0
102
{ACAD_REACTORS
330
1ABF
102
}
330
15
100
AcDbEntity
 67
     1
  8
0
 62
     1
100
AcDbPolyline
 90
       13
 70
     0
 43
0.0
 10
159.1931723049634
 20
9.801516354479705
 10
159.1931723049634
 20
13.22874580593033
 10
158.1646157734467
 20
13.22874580593033
 10
158.1646157734467
 20
6.517180945758529
 10
159.1931723049634
 20
6.517180945758529
 10
159.1931723049634
 20
8.416854470426436
 10
159.9972121719259
 20
9.488106931637414
 10
161.9443609729196
 20
6.517180945758532
 10
163.0818442971624
 20
6.517180945758525
 10
160.6296878713945
 20
10.3307780199148
 10
162.804788249223
 20
13.22874580593033
 10
161.6553645179006
 20
13.22874580593032
 10
159.1818950726489
 20
9.78581909797958
  0
LWPOLYLINE
  5
1AC1
102
{ACAD_REACTORS
330
1AC4
102
}
330
15
100
AcDbEntity
 67
     1
  8
0
 62
     1
100
AcDbPolyline
 90
       15
 70
     0
 43
0.0
 10
185.2488026775777
 20
14.11243969102315
 42
-0.4142135623730951
 10
186.2238026775777
 20
13.13743969102315
 10
186.2238026775777
 20
4.42743228849938
 42
-0.4142135623730951
 10
185.2488026775777
 20
3.45243228849938
 10
171.0138026775777
 20
3.45243228849938
 10
171.0138026775777
 20
3.907432288499379
 10
185.2488026775777
 20
3.907432288499379
 42
0.4142135623730951
 10
185.7688026775777
 20
4.42743228849938
 10
185.7688026775777
 20
13.13743969102315
 42
0.4142135623730951
 10
185.2488026775777
 20
13.65743969102315
 10
182.5863981046802
 20
13.65743969102315
 42
-0.0829624126767354
 10
170.9447796284981
 20
15.53426399885702
 10
171.0902320537082
 20
15.96538879749483
 42
0.0829624126767356
 10
182.5838026775777
 20
14.11243228849936
 10
185.2526020020644
 20
14.11243228849938
  0
LWPOLYLINE
  5
1AC2
102
{ACAD_REACTORS
330
1AC4
102
}
330
15
100
AcDbEntity
 67
     1
  8
0
 62
     1
100
AcDbPolyline
 90
        7
 70
     1
 43
0.0
 10
182.0963936467352
 20
9.742901537095619
 42
0.1898212309735227
 10
181.5225547645433
 20
10.62346929122494
 42
0.2989352106795207
 10
179.8110897008635
 20
10.45907813124387
 10
179.8110897008635
 20
7.547186016419454
 42
0.2741033349168594
 10
181.3595039469848
 20
7.476237103839597
 42
0.0600684322456349
 10
181.7499333116428
 20
7.776068293503376
 42
0.1241286129052769
 10
182.0969018567786
 20
8.37592981493028
 42
0.0659282931228788
  0
LWPOLYLINE
  5
1AC3
102
{ACAD_REACTORS
330
1AC4
102
}
330
15
100
AcDbEntity
 67
     1
  8
0
 62
     1
100
AcDbPolyline
 90
       12
 70
     1
 43
0.0
 10
179.8110897008635
 20
11.45052776646599
 10
179.8110897008635
 20
11.5880347764463
 10
178.6763698634262
 20
11.5880347764463
 10
178.6763698634262
 20
4.60952968599879
 10
179.8333863446493
 20
4.60952968599879
 10
179.8333863446493
 20
6.544596513445739
 42
-0.4980732597277929
 10
179.9481246231819
 20
6.614124945370356
 42
0.1631603344019285
 10
181.6706342515861
 20
6.515724973164847
 42
0.2143211476370474
 10
183.0159376947648
 20
7.92793466808396
 42
0.1454787830754339
 10
183.0513380400315
 20
10.26262705850799
 42
0.209028960994081
 10
181.9021619421
 20
11.5256850107906
 42
0.2333951007146881
 10
179.9382999912279
 20
11.45052776646599
  0
HATCH
  5
1AC4
330
15
100
AcDbEntity
 67
     1
  8
0
 62
     1
100
AcDbHatch
 10
0.0
 20
0.0
 30
0.0
210
0.0
220
0.0
230
1.0
  2
SOLID
 70
     1
 71
     1
 91
        9
 92
       23
 72
     1
 73
     1
 93
       12
 10
171.0495182531482
 20
11.58468167054701
 42
0.0
 10
171.0495182531482
 20
10.62507523001182
 42
0.0
 10
173.571452805713
 20
10.62507523001182
 42
-0.7299518516203806
 10
173.6459583513536
 20
10.48584260609456
 42
0.0
 10
170.9756246602298
 20
6.830043279915821
 42
0.5071802274159938
 10
171.1283808734264
 20
6.517086873316618
 42
0.0
 10
175.284198162826
 20
6.517117059415895
 42
0.0
 10
175.284198162826
 20
7.480341056735928
 42
0.0
 10
172.7023968172833
 20
7.480341056735928
 42
-0.6989832493954995
 10
172.6669460236101
 20
7.55699371936049
 42
0.0
 10
175.2379173206443
 20
11.11065926093471
 42
0.0
 10
175.2379173206444
 20
11.58468167054701
 42
0.0
 97
        1
330
1AC5
 92
       23
 72
     0
 73
     1
 93
        6
 10
177.4507764679005
 20
11.57647335834188
 10
175.726821670779
 20
11.57647335834188
 10
175.7268216707789
 20
10.64789000558534
 10
176.3745368003476
 20
10.64789000558535
 10
176.3745368003476
 20
6.517124979174709
 10
177.4507764679005
 20
6.51713279652457
 97
        1
330
1AC8
 92
       23
 72
     1
 73
     1
 93
       12
 10
178.6763698634262
 20
4.609529685998791
 42
0.0
 10
179.8333863446493
 20
4.60952968599879
 42
0.0
 10
179.8333863446493
 20
6.527516848940283
 42
-0.564020014537643
 10
179.9482949130561
 20
6.614056830583248
 42
0.1631429899312781
 10
181.6706342515861
 20
6.515724973164848
 42
0.2143211476370291
 10
183.0159376947647
 20
7.927934668083806
 42
0.1454787830754401
 10
183.0513380400315
 20
10.26262705850793
 42
0.2090289609908675
 10
181.902161942124
 20
11.52568501077987
 42
0.2333951007178159
 10
179.9382999912278
 20
11.45052776646599
 42
0.0
 10
179.8110897008635
 20
11.45052776646599
 42
0.0
 10
179.8110897008635
 20
11.5880347764463
 42
0.0
 10
178.6763698634263
 20
11.5880347764463
 42
0.0
 97
        1
330
1AC3
 92
       22
 72
     1
 73
     1
 93
        7
 10
179.8110897008635
 20
10.45907813124387
 42
-0.2989352106795097
 10
181.5225547645432
 20
10.62346929122497
 42
-0.1898212309735409
 10
182.0963936467352
 20
9.742901537095576
 42
-0.0659282931228754
 10
182.0969018567786
 20
8.375929814930309
 42
-0.1241286129053254
 10
181.7499333116426
 20
7.7760682935032
 42
-0.0600684322456203
 10
181.3595039469847
 20
7.476237103839542
 42
-0.2741033349168366
 10
179.8110897008635
 20
7.547186016419455
 42
0.0
 97
        1
330
1AC2
 92
        7
 72
     1
 73
     1
 93
       14
 10
185.2526020020644
 20
14.11243228849938
 42
0.0
 10
182.5838026775755
 20
14.11243228849935
 42
-0.0829624126767202
 10
171.0902320537082
 20
15.96538879749483
 42
0.0
 10
170.9447796284981
 20
15.53426399885703
 42
0.0829624126767251
 10
182.5863981046788
 20
13.65743969102315
 42
0.0
 10
185.2488026775777
 20
13.65743969102315
 42
-0.4142135623730971
 10
185.7688026775777
 20
13.13743969102314
 42
0.0
 10
185.7688026775777
 20
4.427432288499384
 42
-0.4142135623730977
 10
185.2488026775777
 20
3.907432288499379
 42
0.0
 10
171.0138026775777
 20
3.907432288499379
 42
0.0
 10
171.0138026775777
 20
3.45243228849938
 42
0.0
 10
185.2488026775777
 20
3.45243228849938
 42
0.4142135623730997
 10
186.2238026775777
 20
4.427432288499395
 42
0.0
 10
186.2238026775777
 20
13.13743969102316
 42
0.4130726898721487
 97
        1
330
1AC1
 92
        7
 72
     1
 73
     1
 93
        2
 10
187.7148786157863
 20
15.29180325279995
 42
1.0
 10
186.0509184131385
 20
15.29180325279995
 42
1.0
 97
        1
330
1ACC
 92
       22
 72
     1
 73
     1
 93
        2
 10
186.1898762718818
 20
15.29180325279995
 42
-1.0
 10
187.575920757043
 20
15.29180325279995
 42
-1.0
 97
        1
330
1ACA
 92
        6
 72
     1
 73
     1
 93
       16
 10
186.573348544529
 20
14.85321699296151
 42
0.0
 10
186.573348544529
 20
15.68662511925185
 42
-0.4302925980981736
 10
186.6443928316434
 20
15.76039807420019
 42
0.0
 10
186.9103247593841
 20
15.76039807420018
 42
-0.1568897140508004
 10
187.1848476228127
 20
15.69322617395473
 42
-0.3153417755023655
 10
187.2594405946101
 20
15.54753811975315
 42
0.0
 10
187.2594405946101
 20
15.35438349373616
 42
-0.1080222927165122
 10
187.2053794071094
 20
15.23388978600439
 42
-0.0878146924641181
 10
187.2594405946101
 20
15.10162688769751
 42
0.0
 10
187.2594405946101
 20
14.85321699296164
 42
0.0
 10
187.1185260569889
 20
14.85321699296165
 42
0.0
 10
187.1185260569889
 20
15.01723450398278
 42
0.3344300509710908
 10
186.9658488462047
 20
15.15099399856719
 42
0.0
 10
186.835170364258
 20
15.15099399856719
 42
0.3320036502385211
 10
186.7327437201752
 20
15.03068494417714
 42
0.0
 10
186.7327437201752
 20
14.85321699296164
 42
0.0
 97
        1
330
1AC9
 92
        6
 72
     1
 73
     1
 93
       10
 10
186.7572272630642
 20
15.41552053180345
 42
0.0
 10
186.7572272630642
 20
15.51612920146668
 42
-0.4700313181867731
 10
186.8350658774122
 20
15.59841005860066
 42
0.0
 10
186.9184150293482
 20
15.59841005860066
 42
-0.3239396334643629
 10
187.0591561767088
 20
15.53897538934071
 42
-0.1629090778550143
 10
187.0773280440464
 20
15.47236256632572
 42
0.0
 10
187.0773280440464
 20
15.38597059880904
 42
-0.2807969914256643
 10
187.056151362799
 20
15.35069397560769
 42
-0.1413133624006426
 10
186.9757658203196
 20
15.32905276702983
 42
0.0
 10
186.8472400220925
 20
15.32905276702983
 42
-0.4644547038390189
 97
        1
330
1ACD
 75
     0
 76
     1
 47
0.2105755736759934
 98
        9
 10
174.1295308450467
 20
11.08984134836124
 10
176.9786404844792
 20
10.51497003031367
 10
179.2524491405141
 20
10.65184417723191
 10
179.2524491405141
 20
10.65184417723191
 10
185.9095034432886
 20
13.6083252336187
 10
186.5395949817962
 20
14.59381888241095
 10
186.5395949817962
 20
14.59381888241095
 10
186.5395949817962
 20
14.59381888241095
 10
186.5395949817962
 20
14.59381888241095
450
        0
451
        0
460
0.0
461
0.0
452
        0
462
0.0
453
        0
470

  0
LWPOLYLINE
  5
1AC5
102
{ACAD_REACTORS
330
1AC4
102
}
330
15
100
AcDbEntity
 67
     1
  8
0
 62
     1
100
AcDbPolyline
 90
       13
 70
     0
 43
0.0
 10
172.6949881047529
 20
7.480341056735928
 10
175.284198162826
 20
7.480341056735928
 10
175.284198162826
 20
6.517117059415895
 10
171.1283808734264
 20
6.517086873316618
 42
-0.5071802274160878
 10
170.9756246602299
 20
6.830043279915891
 10
173.6594973297956
 20
10.50437803798824
 42
0.5083225216873333
 10
173.601403805907
 20
10.62507523001182
 10
171.0495182531482
 20
10.62507523001182
 10
171.0495182531482
 20
11.58468167054701
 10
175.2379173206443
 20
11.58468167054701
 10
175.2379173206443
 20
11.11065926093475
 10
172.6585172790626
 20
7.545343282386738
 42
0.5855768765223777
 10
172.7023968172833
 20
7.480341056735928
  0
LWPOLYLINE
  5
1AC6
102
{ACAD_REACTORS
330
1ABF
102
}
330
15
100
AcDbEntity
 67
     1
  8
0
 62
     1
100
AcDbPolyline
 90
        7
 70
     1
 43
0.0
 10
169.6263780685755
 20
13.44753510223376
 10
168.6891947302181
 20
13.44753510223375
 10
168.6891947302181
 20
7.544132570549679
 42
0.3265321329225733
 10
169.8330021056258
 20
6.517077464232746
 10
170.5080567525449
 20
6.517082367544258
 10
170.5080567525449
 20
7.254687454191742
 42
-0.4142135623730951
 10
169.6263780685755
 20
8.136366138161108
  0
LWPOLYLINE
  5
1AC7
330
15
100
AcDbEntity
 67
     1
  8
0
 62
     1
100
AcDbPolyline
 90
        2
 70
     1
 43
0.5199938194713205
 10
176.6526661202828
 20
12.90939942560018
 42
1.0
 10
177.1726599397541
 20
12.90939942560018
 42
1.0
  0
LWPOLYLINE
  5
1AC8
102
{ACAD_REACTORS
330
1AC4
102
}
330
15
100
AcDbEntity
 67
     1
  8
0
 62
     1
100
AcDbPolyline
 90
        6
 70
     1
 43
0.0
 10
175.726821670779
 20
10.64789000558534
 10
175.726821670779
 20
11.57647335834188
 10
177.4507764679005
 20
11.57647335834188
 10
177.4507764679005
 20
6.51713279652457
 10
176.3745368003476
 20
6.51712497917471
 10
176.3745368003476
 20
10.64789000558535
  0
LWPOLYLINE
  5
1AC9
102
{ACAD_REACTORS
330
1AC4
330
1ACB
102
}
330
15
100
AcDbEntity
 67
     1
  8
0
 62
     1
100
AcDbPolyline
 90
       17
 70
     0
 43
0.0
 10
186.573348544529
 20
15.69312952784665
 10
186.573348544529
 20
14.85321699296164
 10
186.7327437201752
 20
14.85321699296164
 10
186.7327437201752
 20
15.03068494417733
 42
-0.3320036502381971
 10
186.8351703642581
 20
15.15099399856719
 10
186.9658488462047
 20
15.15099399856719
 42
-0.3344300509710546
 10
187.1185260569889
 20
15.0172345039828
 10
187.1185260569889
 20
14.85321699296164
 10
187.2594405946101
 20
14.85321699296164
 10
187.2594405946101
 20
15.1016268876975
 42
0.0878146924641325
 10
187.2053794071094
 20
15.23388978600441
 42
0.1080222927165679
 10
187.2594405946101
 20
15.35438349373625
 10
187.2594405946101
 20
15.58671409813049
 42
0.2411188226969047
 10
187.1848476228128
 20
15.69322617395468
 42
0.1568897140508559
 10
186.9103247593841
 20
15.76039807420018
 10
186.6432007401251
 20
15.76039807420019
 42
0.4252932903388871
 10
186.573348544529
 20
15.68662511925286
  0
CIRCLE
  5
1ACA
102
{ACAD_REACTORS
330
1AC4
102
}
330
15
100
AcDbEntity
 67
     1
  8
0
 62
     1
100
AcDbCircle
 10
186.8828985144624
 20
15.29180325279995
 30
0.0
 40
0.6930222425806165
  0
HATCH
  5
1ACB
330
15
100
AcDbEntity
 67
     1
  8
0
 62
     1
100
AcDbHatch
 10
0.0
 20
0.0
 30
0.0
210
0.0
220
0.0
230
1.0
  2
SOLID
 70
     1
 71
     1
 91
        2
 92
        7
 72
     1
 73
     1
 93
       16
 10
187.1185260569889
 20
15.01723450398278
 42
0.0
 10
187.1185260569889
 20
14.85321699296164
 42
0.0
 10
187.2594405946101
 20
14.85321699296164
 42
0.0
 10
187.2594405946101
 20
15.10162688769753
 42
0.0878146924641104
 10
187.2053794071095
 20
15.23388978600441
 42
0.1080222927165595
 10
187.2594405946101
 20
15.35438349373625
 42
0.0
 10
187.2594405946101
 20
15.58671409813055
 42
0.192215680109946
 10
187.2071070595019
 20
15.67864078235184
 42
0.171699417140815
 10
186.9103247593841
 20
15.76039807420018
 42
0.0
 10
186.6432007401251
 20
15.76039807420019
 42
0.3983152836414639
 10
186.573348544529
 20
15.69312952784779
 42
0.0
 10
186.573348544529
 20
14.85321699296164
 42
0.0
 10
186.7327437201752
 20
14.85321699296165
 42
0.0
 10
186.7327437201752
 20
15.01374171031459
 42
-0.5014973867698699
 10
186.8939585404043
 20
15.15099399856719
 42
0.0
 10
186.9409113813758
 20
15.15099399856719
 42
-0.3760883100637777
 97
        1
330
1AC9
 92
       22
 72
     1
 73
     1
 93
        2
 10
186.9757658203196
 20
15.32905276702983
 42
0.008892798644809
 10
186.9811087595017
 20
15.32905276702983
 42
0.0
 97
        1
330
1ACD
 75
     0
 76
     1
 47
0.025620434889365
 98
        2
 10
187.0591864004112
 20
15.25275491347287
 10
187.0591864004112
 20
15.25275491347287
450
        0
451
        0
460
0.0
461
0.0
452
        0
462
0.0
453
        0
470

  0
CIRCLE
  5
1ACC
102
{ACAD_REACTORS
330
1AC4
102
}
330
15
100
AcDbEntity
 67
     1
  8
0
 62
     1
100
AcDbCircle
 10
186.8828985144624
 20
15.29180325279995
 30
0.0
 40
0.8319801013239141
  0
LWPOLYLINE
  5
1ACD
102
{ACAD_REACTORS
330
1AC4
330
1ACB
102
}
330
15
100
AcDbEntity
 67
     1
  8
0
 62
     1
100
AcDbPolyline
 90
       10
 70
     1
 43
0.0
 10
187.0591561767089
 20
15.5389753893405
 42
0.2024912017590097
 10
186.9770455384229
 20
15.59841005860066
 10
186.8254169676201
 20
15.59841005860066
 42
0.3605152320615398
 10
186.7572272630642
 20
15.53390183274687
 10
186.7572272630642
 20
15.40505088979384
 42
0.3656960469701174
 10
186.8302323333825
 20
15.32905276702983
 10
186.9811087595017
 20
15.32905276702983
 42
0.143350963341212
 10
187.0616754082996
 20
15.35419997391923
 42
0.2365834905846161
 10
187.0773280440464
 20
15.38597059880696
 10
187.0773280440464
 20
15.48468253561346
 42
0.133951748517549
  0
TEXT
  5
1ACE
330
15
100
AcDbEntity
 67
     1
  8
0
 62
     7
100
AcDbText
 10
108.328165688336
 20
278.4525358203893
 30
0.0
 40
2.872918975993215
  1
01.02.04
  7
Stil1
100
AcDbText
  0
TEXT
  5
1ACF
330
15
100
AcDbEntity
 67
     1
  8
0
 62
     7
100
AcDbText
 10
108.328165688336
 20
273.8374442866485
 30
0.0
 40
2.872918975993215
  1
M 1:5
  7
Stil1
100
AcDbText
  0
TEXT
  5
1AD0
330
15
100
AcDbEntity
 67
     1
  8
0
 62
     7
100
AcDbText
 10
179.3687237271429
 20
278.4525358203893
 30
0.0
 40
2.872918975993215
  1
střecha
  7
Stil1
100
AcDbText
  0
TEXT
  5
1AD1
330
15
100
AcDbEntity
 67
     1
  8
0
 62
     7
100
AcDbText
 10
184.0647047235909
 20
273.8374442866485
 30
0.0
 40
2.872918975993215
  1
125
  7
Stil1
100
AcDbText
  0
ENDSEC
  0
SECTION
  2
OBJECTS
  0
DICTIONARY
  5
C
330
0
100
AcDbDictionary
281
     1
  3
ACAD_CIP_PREVIOUS_PRODUCT_INFO
350
32AE
  3
ACAD_COLOR
350
328F
  3
ACAD_DETAILVIEWSTYLE
350
32A8
  3
ACAD_GROUP
350
D
  3
ACAD_IMAGE_DICT
350
6C4
  3
ACAD_IMAGE_VARS
350
6C5
  3
ACAD_LAYOUT
350
5E9
  3
ACAD_MATERIAL
350
325D
  3
ACAD_MLEADERSTYLE
350
32A4
  3
ACAD_MLINESTYLE
350
1B
  3
ACAD_PLOTSETTINGS
350
5EA
  3
ACAD_PLOTSTYLENAME
350
5E7
  3
ACAD_SCALELIST
350
3292
  3
ACAD_SECTIONVIEWSTYLE
350
32A6
  3
ACAD_TABLESTYLE
350
3290
  3
ACAD_VISUALSTYLE
350
3276
  3
ACDB_RECOMPOSE_DATA
350
3426
  3
AcDbVariableDictionary
350
7F0
  3
AcDsDecomposeData
350
342C
  0
DICTIONARY
  5
32B3
330
2
100
AcDbDictionary
280
     1
281
     1
  3
ACAD_LAYERSTATES
360
32B4
  0
DICTIONARY
  5
32D8
330
E
100
AcDbDictionary
280
     1
281
     1
  3
ADSK_XREC_LAYER_RECONCILED
360
32D9
  0
DICTIONARY
  5
32DA
330
B7
100
AcDbDictionary
280
     1
281
     1
  3
ADSK_XREC_LAYER_RECONCILED
360
32DB
  0
DICTIONARY
  5
32DC
330
8F4
100
AcDbDictionary
280
     1
281
     1
  3
ADSK_XREC_LAYER_RECONCILED
360
32DD
  0
DICTIONARY
  5
32DE
330
9AF
100
AcDbDictionary
280
     1
281
     1
  3
ADSK_XREC_LAYER_RECONCILED
360
32DF
  0
DICTIONARY
  5
32E0
330
1209
100
AcDbDictionary
280
     1
281
     1
  3
ADSK_XREC_LAYER_RECONCILED
360
32E1
  0
DICTIONARY
  5
32E2
330
120A
100
AcDbDictionary
280
     1
281
     1
  3
ADSK_XREC_LAYER_RECONCILED
360
32E3
  0
DICTIONARY
  5
32E4
330
120B
100
AcDbDictionary
280
     1
281
     1
  3
ADSK_XREC_LAYER_RECONCILED
360
32E5
  0
DICTIONARY
  5
32E6
330
120C
100
AcDbDictionary
280
     1
281
     1
  3
ADSK_XREC_LAYER_RECONCILED
360
32E7
  0
DICTIONARY
  5
32E8
330
120D
100
AcDbDictionary
280
     1
281
     1
  3
ADSK_XREC_LAYER_RECONCILED
360
32E9
  0
DICTIONARY
  5
32EA
330
120E
100
AcDbDictionary
280
     1
281
     1
  3
ADSK_XREC_LAYER_RECONCILED
360
32EB
  0
DICTIONARY
  5
32EC
330
120F
100
AcDbDictionary
280
     1
281
     1
  3
ADSK_XREC_LAYER_RECONCILED
360
32ED
  0
DICTIONARY
  5
32EE
330
1211
100
AcDbDictionary
280
     1
281
     1
  3
ADSK_XREC_LAYER_RECONCILED
360
32EF
  0
DICTIONARY
  5
32F0
330
290C
100
AcDbDictionary
280
     1
281
     1
  3
ADSK_XREC_LAYER_RECONCILED
360
32F1
  0
DICTIONARY
  5
81C
330
18
100
AcDbDictionary
280
     1
281
     1
  3
ACAD_LAYOUTSELFREF
360
194E
  0
DICTIONARY
  5
81A
330
15
100
AcDbDictionary
280
     1
281
     1
  3
ACAD_LAYOUTSELFREF
360
194D
  0
DICTIONARY
  5
3340
330
1F3A
100
AcDbDictionary
280
     1
281
     1
  3
ACAD_MTEXT_2008_RT
360
342F
  0
DICTIONARY
  5
3430
330
1FA1
100
AcDbDictionary
280
     1
281
     1
  3
ACAD_MTEXT_2008_RT
360
3431
  0
DICTIONARY
  5
3432
330
21B6
100
AcDbDictionary
280
     1
281
     1
  3
ACAD_MTEXT_2008_RT
360
3433
  0
DICTIONARY
  5
3434
330
2370
100
AcDbDictionary
280
     1
281
     1
  3
ACAD_MTEXT_2008_RT
360
3435
  0
DICTIONARY
  5
3436
330
2880
100
AcDbDictionary
280
     1
281
     1
  3
ACAD_MTEXT_2008_RT
360
3437
  0
DICTIONARY
  5
3438
330
289E
100
AcDbDictionary
280
     1
281
     1
  3
ACAD_MTEXT_2008_RT
360
3439
  0
DICTIONARY
  5
343A
330
28A2
100
AcDbDictionary
280
     1
281
     1
  3
ACAD_MTEXT_2008_RT
360
343B
  0
DICTIONARY
  5
343C
330
28A5
100
AcDbDictionary
280
     1
281
     1
  3
ACAD_MTEXT_2008_RT
360
343D
  0
DICTIONARY
  5
343E
330
28C0
100
AcDbDictionary
280
     1
281
     1
  3
ACAD_MTEXT_2008_RT
360
343F
  0
DICTIONARY
  5
3440
330
3210
100
AcDbDictionary
280
     1
281
     1
  3
ACAD_MTEXT_2008_RT
360
3441
  0
XRECORD
  5
32AE
102
{ACAD_REACTORS
330
C
102
}
330
C
100
AcDbXrecord
280
     1
300
ACD
300
2013
300
ACD_F_S
  0
DICTIONARY
  5
328F
102
{ACAD_REACTORS
330
C
102
}
330
C
100
AcDbDictionary
281
     1
  0
DICTIONARY
  5
32A8
102
{ACAD_REACTORS
330
C
102
}
330
C
100
AcDbDictionary
281
     1
  3
Metric50
350
32A9
  0
DICTIONARY
  5
D
102
{ACAD_REACTORS
330
C
102
}
330
C
100
AcDbDictionary
281
     1
  0
DICTIONARY
  5
6C4
102
{ACAD_REACTORS
330
C
102
}
330
C
100
AcDbDictionary
281
     1
  3
Kalzip
350
6C6
  0
RASTERVARIABLES
  5
6C5
102
{ACAD_REACTORS
330
C
102
}
330
C
100
AcDbRasterVariables
 90
        0
 70
     1
 71
     1
 72
     0
  0
DICTIONARY
  5
5E9
102
{ACAD_REACTORS
330
C
102
}
330
C
100
AcDbDictionary
281
     1
  3
A4
350
5EC
  3
Model
350
5EB
  0
DICTIONARY
  5
325D
102
{ACAD_REACTORS
330
C
102
}
330
C
100
AcDbDictionary
281
     1
  3
ByBlock
350
3266
  3
ByLayer
350
325E
  3
Global
350
326E
  0
DICTIONARY
  5
32A4
102
{ACAD_REACTORS
330
C
102
}
330
C
100
AcDbDictionary
281
     1
  3
Standard
350
32A5
  0
DICTIONARY
  5
1B
102
{ACAD_REACTORS
330
C
102
}
330
C
100
AcDbDictionary
281
     1
  3
STANDARD
350
1C
  0
DICTIONARY
  5
5EA
102
{ACAD_REACTORS
330
C
102
}
330
C
100
AcDbDictionary
281
     1
  0
ACDBDICTIONARYWDFLT
  5
5E7
102
{ACAD_REACTORS
330
C
102
}
330
C
100
AcDbDictionary
281
     1
  3
Normal
350
5E8
100
AcDbDictionaryWithDefault
340
5E8
  0
DICTIONARY
  5
3292
102
{ACAD_REACTORS
330
C
102
}
330
C
100
AcDbDictionary
281
     1
  3
A0
350
3293
  3
A1
350
3294
  3
A2
350
3295
  3
A3
350
3296
  3
A4
350
3297
  3
A5
350
3298
  3
A6
350
3299
  3
A7
350
329A
  3
A8
350
329B
  3
A9
350
329C
  3
B0
350
329D
  3
B1
350
329E
  3
B2
350
329F
  3
B3
350
32A0
  3
B4
350
32A1
  3
B5
350
32A2
  3
B6
350
32A3
  0
DICTIONARY
  5
32A6
102
{ACAD_REACTORS
330
C
102
}
330
C
100
AcDbDictionary
281
     1
  3
Metric50
350
32A7
  0
DICTIONARY
  5
3290
102
{ACAD_REACTORS
330
C
102
}
330
C
100
AcDbDictionary
281
     1
  3
Standard
350
3291
  0
DICTIONARY
  5
3276
102
{ACAD_REACTORS
330
C
102
}
330
C
100
AcDbDictionary
281
     1
  3
2dWireframe
350
327C
  3
Basic
350
327B
  3
Brighten
350
3282
  3
ColorChange
350
3286
  3
Conceptual
350
327F
  3
Dim
350
3281
  3
EdgeColorOff
350
328E
  3
Facepattern
350
3285
  3
Flat
350
3277
  3
FlatWithEdges
350
3278
  3
Gouraud
350
3279
  3
GouraudWithEdges
350
327A
  3
Hidden
350
327E
  3
JitterOff
350
328C
  3
Linepattern
350
3284
  3
OverhangOff
350
328D
  3
Realistic
350
3280
  3
Shaded
350
328B
  3
Shaded with edges
350
328A
  3
Shades of Gray
350
3287
  3
Sketchy
350
3288
  3
Thicken
350
3283
  3
Wireframe
350
327D
  3
X-Ray
350
3289
  0
XRECORD
  5
3426
102
{ACAD_REACTORS
330
C
102
}
330
C
100
AcDbXrecord
280
     1
 90
        1
330
1F3A
330
3291
  0
DICTIONARY
  5
7F0
102
{ACAD_REACTORS
330
C
102
}
330
C
100
AcDbDictionary
281
     1
  3
CANNOSCALE
350
3348
  3
CMLEADERSTYLE
350
3344
  3
CTABLESTYLE
350
3343
  3
CVIEWDETAILSTYLE
350
3345
  3
CVIEWSECTIONSTYLE
350
3346
  3
DIMASSOC
350
1F21
  3
LAYEREVAL
350
334A
  3
LAYERNOTIFY
350
334B
  3
LIGHTINGUNITS
350
3349
  3
MSLTSCALE
350
3347
  3
SORTENTS
350
7F1
  3
XCLIPFRAME
350
3422
  0
DICTIONARY
  5
342C
102
{ACAD_REACTORS
330
C
102
}
330
C
100
AcDbDictionary
281
     1
  3
AcDsRecords
350
342E
  3
AcDsSchemas
350
342D
1001
ACAD
1070
     2
  0
DICTIONARY
  5
32B4
102
{ACAD_REACTORS
330
32B3
102
}
330
32B3
100
AcDbDictionary
281
     1
  0
XRECORD
  5
32D9
102
{ACAD_REACTORS
330
32D8
102
}
330
32D8
100
AcDbXrecord
280
     1
290
     1
  0
XRECORD
  5
32DB
102
{ACAD_REACTORS
330
32DA
102
}
330
32DA
100
AcDbXrecord
280
     1
290
     1
  0
XRECORD
  5
32DD
102
{ACAD_REACTORS
330
32DC
102
}
330
32DC
100
AcDbXrecord
280
     1
290
     1
  0
XRECORD
  5
32DF
102
{ACAD_REACTORS
330
32DE
102
}
330
32DE
100
AcDbXrecord
280
     1
290
     1
  0
XRECORD
  5
32E1
102
{ACAD_REACTORS
330
32E0
102
}
330
32E0
100
AcDbXrecord
280
     1
290
     1
  0
XRECORD
  5
32E3
102
{ACAD_REACTORS
330
32E2
102
}
330
32E2
100
AcDbXrecord
280
     1
290
     1
  0
XRECORD
  5
32E5
102
{ACAD_REACTORS
330
32E4
102
}
330
32E4
100
AcDbXrecord
280
     1
290
     1
  0
XRECORD
  5
32E7
102
{ACAD_REACTORS
330
32E6
102
}
330
32E6
100
AcDbXrecord
280
     1
290
     1
  0
XRECORD
  5
32E9
102
{ACAD_REACTORS
330
32E8
102
}
330
32E8
100
AcDbXrecord
280
     1
290
     1
  0
XRECORD
  5
32EB
102
{ACAD_REACTORS
330
32EA
102
}
330
32EA
100
AcDbXrecord
280
     1
290
     1
  0
XRECORD
  5
32ED
102
{ACAD_REACTORS
330
32EC
102
}
330
32EC
100
AcDbXrecord
280
     1
290
     1
  0
XRECORD
  5
32EF
102
{ACAD_REACTORS
330
32EE
102
}
330
32EE
100
AcDbXrecord
280
     1
290
     1
  0
XRECORD
  5
32F1
102
{ACAD_REACTORS
330
32F0
102
}
330
32F0
100
AcDbXrecord
280
     1
290
     1
  0
XRECORD
  5
194E
102
{ACAD_REACTORS
330
81C
102
}
330
81C
100
AcDbXrecord
280
     1
340
18
  0
XRECORD
  5
194D
102
{ACAD_REACTORS
330
81A
102
}
330
81A
100
AcDbXrecord
280
     1
340
15
  0
XRECORD
  5
342F
102
{ACAD_REACTORS
330
3340
102
}
330
3340
100
AcDbXrecord
280
     1
 40
1344390.0
  1
\pi26.572;kotvení hřebenového  \P\pi98.673;oplechování:\P\pi30.067;max. vzdálenost 400 \P\pi53.875;mm, ne do stojaté \P\pi150.46;drážky
  0
XRECORD
  5
3431
102
{ACAD_REACTORS
330
3430
102
}
330
3430
100
AcDbXrecord
280
     1
 40
87601.0
  1
tepelně izolační\P pásek
  0
XRECORD
  5
3433
102
{ACAD_REACTORS
330
3432
102
}
330
3432
100
AcDbXrecord
280
     1
 40
59671.0
  1
uzavírací profil   C kazet
  0
XRECORD
  5
3435
102
{ACAD_REACTORS
330
3434
102
}
330
3434
100
AcDbXrecord
280
     1
 40
128535.0
  1
vnitřní oplechování trapézu
  0
XRECORD
  5
3437
102
{ACAD_REACTORS
330
3436
102
}
330
3436
100
AcDbXrecord
280
     1
 40
14428.0
  1
vlnitý plech
  0
XRECORD
  5
3439
102
{ACAD_REACTORS
330
3438
102
}
330
3438
100
AcDbXrecord
280
     1
 40
34054.0
  1
parotěsná vrstva
  0
XRECORD
  5
343B
102
{ACAD_REACTORS
330
343A
102
}
330
343A
100
AcDbXrecord
280
     1
 40
29235.0
  1
ocelový OMEGA profil
  0
XRECORD
  5
343D
102
{ACAD_REACTORS
330
343C
102
}
330
343C
100
AcDbXrecord
280
     1
 40
41778.0
  1
dřevěný hranol
  0
XRECORD
  5
343F
102
{ACAD_REACTORS
330
343E
102
}
330
343E
100
AcDbXrecord
280
     1
 40
94948.0
  1
tepelná izolace minerální vlna
  0
XRECORD
  5
3441
102
{ACAD_REACTORS
330
3440
102
}
330
3440
100
AcDbXrecord
280
     1
 40
60317.0
  1
těsnící pásek  2x
  0
ACDBDETAILVIEWSTYLE
  5
32A9
102
{ACAD_REACTORS
330
32A8
102
}
330
32A8
100
AcDbModelDocViewStyle
 70
     0
  3
Metric50
290
     0
100
AcDbDetailViewStyle
 70
     0
 71
     0
 90
        3
 71
     1
340
F
 62
   256
 40
5.0
340
0
 62
   256
 40
5.0
300

 40
0.0
280
     1
 71
     2
340
14
 90
       25
 62
   256
 71
     3
340
F
 62
   256
 40
5.0
 90
        0
 40
15.0
 90
        1
300
%<\AcVar ViewDetailId>% (%<\AcVar ViewScale \f "%sn">%)
 71
     4
340
14
 90
       25
 62
   256
340
14
 90
       25
 62
   256
280
     0
  0
IMAGEDEF
  5
6C6
102
{ACAD_REACTORS
330
6C4
102
}
330
6C4
100
AcDbRasterImageDef
 90
        0
  1
C:\Kalzip.pcx
 10
944.0
 20
1927.0
 11
0.0010593220338983
 21
0.0010593220338983
280
     1
281
     0
  0
LAYOUT
  5
5EC
102
{ACAD_REACTORS
330
5E9
102
}
330
5E9
100
AcDbPlotSettings
  1

  2
Brother HL-760
  4
A4
  6

 40
6.043083190917968
 41
6.762742042541503
 42
7.736419677734375
 43
5.027069091796875
 44
209.9733276367187
 45
296.9683227539062
 46
0.0
 47
0.0
 48
0.0
 49
0.0
140
210.0
141
297.0
142
1.0
143
1.0
 70
   688
 72
     1
 73
     0
 74
     5
  7
CORUS_Mono.ctb
 75
    16
147
1.0
 76
     0
 77
     2
 78
   300
148
0.0
149
0.0
100
AcDbLayout
  1
A4
 70
     0
 71
     1
 10
-6.043083190917968
 20
-6.762742042541503
 11
203.9302444458008
 21
290.2055807113647
 12
0.0
 22
0.0
 32
0.0
 14
5.862626085583912
 24
3.452432288499369
 34
0.0
 15
196.0126473182927
 25
282.1524478440423
 35
0.0
146
0.0
 13
0.0
 23
0.0
 33
0.0
 16
1.0
 26
0.0
 36
0.0
 17
0.0
 27
1.0
 37
0.0
 76
     0
330
15
331
27F
  0
LAYOUT
  5
5EB
102
{ACAD_REACTORS
330
5E9
102
}
330
5E9
100
AcDbPlotSettings
  1

  2
\\BSSRV01\Océ 5120 A0
  4
A4
  6

 40
3.174999952316284
 41
3.174999952316284
 42
3.175003051757812
 43
3.17498779296875
 44
209.9733276367187
 45
296.9683227539062
 46
0.0
 47
0.0
 48
0.0
 49
0.0
140
0.0
141
0.0
142
1.0
143
1.0
 70
 11952
 72
     1
 73
     1
 74
     0
  7

 75
     0
147
1.0
 76
     0
 77
     2
 78
   300
148
973.0712272420497
149
544.3184272033454
100
AcDbLayout
  1
Model
 70
     1
 71
     0
 10
0.0
 20
0.0
 11
12.0
 21
9.0
 12
0.0
 22
0.0
 32
0.0
 14
0.0
 24
0.0
 34
0.0
 15
0.0
 25
0.0
 35
0.0
146
0.0
 13
0.0
 23
0.0
 33
0.0
 16
1.0
 26
0.0
 36
0.0
 17
0.0
 27
1.0
 37
0.0
 76
     0
330
18
331
324B
  0
MATERIAL
  5
3266
102
{ACAD_XDICTIONARY
360
3267
102
}
102
{ACAD_REACTORS
330
325D
102
}
330
325D
100
AcDbMaterial
  1
ByBlock
 72
     0
 43
0.0208333333333333
 43
0.0
 43
0.0
 43
0.0
 43
0.0
 43
0.0208333333333333
 43
0.0
 43
0.0
 43
0.0
 43
0.0
 43
1.0
 43
0.0
 43
0.0
 43
0.0
 43
0.0
 43
1.0
 77
     0
 47
0.0208333333333333
 47
0.0
 47
0.0
 47
0.0
 47
0.0
 47
0.0208333333333333
 47
0.0
 47
0.0
 47
0.0
 47
0.0
 47
1.0
 47
0.0
 47
0.0
 47
0.0
 47
0.0
 47
1.0
171
     0
 49
0.0208333333333333
 49
0.0
 49
0.0
 49
0.0
 49
0.0
 49
0.0208333333333333
 49
0.0
 49
0.0
 49
0.0
 49
0.0
 49
1.0
 49
0.0
 49
0.0
 49
0.0
 49
0.0
 49
1.0
175
     0
142
0.0208333333333333
142
0.0
142
0.0
142
0.0
142
0.0
142
0.0208333333333333
142
0.0
142
0.0
142
0.0
142
0.0
142
1.0
142
0.0
142
0.0
142
0.0
142
0.0
142
1.0
179
     0
144
0.0208333333333333
144
0.0
144
0.0
144
0.0
144
0.0
144
0.0208333333333333
144
0.0
144
0.0
144
0.0
144
0.0
144
1.0
144
0.0
144
0.0
144
0.0
144
0.0
144
1.0
147
0.0208333333333333
147
0.0
147
0.0
147
0.0
147
0.0
147
0.0208333333333333
147
0.0
147
0.0
147
0.0
147
0.0
147
1.0
147
0.0
147
0.0
147
0.0
147
0.0
147
1.0
  0
MATERIAL
  5
325E
102
{ACAD_XDICTIONARY
360
325F
102
}
102
{ACAD_REACTORS
330
325D
102
}
330
325D
100
AcDbMaterial
  1
ByLayer
 72
     0
 43
0.0208333333333333
 43
0.0
 43
0.0
 43
0.0
 43
0.0
 43
0.0208333333333333
 43
0.0
 43
0.0
 43
0.0
 43
0.0
 43
1.0
 43
0.0
 43
0.0
 43
0.0
 43
0.0
 43
1.0
 77
     0
 47
0.0208333333333333
 47
0.0
 47
0.0
 47
0.0
 47
0.0
 47
0.0208333333333333
 47
0.0
 47
0.0
 47
0.0
 47
0.0
 47
1.0
 47
0.0
 47
0.0
 47
0.0
 47
0.0
 47
1.0
171
     0
 49
0.0208333333333333
 49
0.0
 49
0.0
 49
0.0
 49
0.0
 49
0.0208333333333333
 49
0.0
 49
0.0
 49
0.0
 49
0.0
 49
1.0
 49
0.0
 49
0.0
 49
0.0
 49
0.0
 49
1.0
175
     0
142
0.0208333333333333
142
0.0
142
0.0
142
0.0
142
0.0
142
0.0208333333333333
142
0.0
142
0.0
142
0.0
142
0.0
142
1.0
142
0.0
142
0.0
142
0.0
142
0.0
142
1.0
179
     0
144
0.0208333333333333
144
0.0
144
0.0
144
0.0
144
0.0
144
0.0208333333333333
144
0.0
144
0.0
144
0.0
144
0.0
144
1.0
144
0.0
144
0.0
144
0.0
144
0.0
144
1.0
147
0.0208333333333333
147
0.0
147
0.0
147
0.0
147
0.0
147
0.0208333333333333
147
0.0
147
0.0
147
0.0
147
0.0
147
1.0
147
0.0
147
0.0
147
0.0
147
0.0
147
1.0
  0
MATERIAL
  5
326E
102
{ACAD_XDICTIONARY
360
326F
102
}
102
{ACAD_REACTORS
330
325D
102
}
330
325D
100
AcDbMaterial
  1
Global
 72
     0
 43
0.0208333333333333
 43
0.0
 43
0.0
 43
0.0
 43
0.0
 43
0.0208333333333333
 43
0.0
 43
0.0
 43
0.0
 43
0.0
 43
1.0
 43
0.0
 43
0.0
 43
0.0
 43
0.0
 43
1.0
 77
     0
 47
0.0208333333333333
 47
0.0
 47
0.0
 47
0.0
 47
0.0
 47
0.0208333333333333
 47
0.0
 47
0.0
 47
0.0
 47
0.0
 47
1.0
 47
0.0
 47
0.0
 47
0.0
 47
0.0
 47
1.0
171
     0
 49
0.0208333333333333
 49
0.0
 49
0.0
 49
0.0
 49
0.0
 49
0.0208333333333333
 49
0.0
 49
0.0
 49
0.0
 49
0.0
 49
1.0
 49
0.0
 49
0.0
 49
0.0
 49
0.0
 49
1.0
175
     0
142
0.0208333333333333
142
0.0
142
0.0
142
0.0
142
0.0
142
0.0208333333333333
142
0.0
142
0.0
142
0.0
142
0.0
142
1.0
142
0.0
142
0.0
142
0.0
142
0.0
142
1.0
179
     0
144
0.0208333333333333
144
0.0
144
0.0
144
0.0
144
0.0
144
0.0208333333333333
144
0.0
144
0.0
144
0.0
144
0.0
144
1.0
144
0.0
144
0.0
144
0.0
144
0.0
144
1.0
147
0.0208333333333333
147
0.0
147
0.0
147
0.0
147
0.0
147
0.0208333333333333
147
0.0
147
0.0
147
0.0
147
0.0
147
1.0
147
0.0
147
0.0
147
0.0
147
0.0
147
1.0
  0
MLEADERSTYLE
  5
32A5
102
{ACAD_XDICTIONARY
360
3477
102
}
102
{ACAD_REACTORS
330
32A4
102
}
330
32A4
100
AcDbMLeaderStyle
170
     2
171
     1
172
     0
 90
        2
 40
0.0
 41
0.0
173
     1
 91
-1056964608
340
12
 92
       -2
290
     1
 42
2.0
291
     1
 43
0.36
  3
Standard
 44
4.0
300

342
F
174
     1
178
     6
175
     1
176
     0
 93
-1056964608
 45
4.0
292
     0
297
     0
 46
4.0
 94
-1056964608
 47
1.0
 49
1.0
140
1.0
293
     1
141
0.0
294
     1
177
     0
142
1.0
295
     0
296
     0
143
0.125
1001
ACAD_MLEADERVER
1070
     2
  0
MLINESTYLE
  5
1C
102
{ACAD_REACTORS
330
1B
102
}
330
1B
100
AcDbMlineStyle
  2
STANDARD
 70
     0
  3

 62
   256
 51
90.0
 52
90.0
 71
     2
 49
0.5
 62
   256
  6
BYLAYER
 49
-0.5
 62
   256
  6
BYLAYER
  0
ACDBPLACEHOLDER
  5
5E8
102
{ACAD_REACTORS
330
5E7
102
}
330
5E7
  0
SCALE
  5
3293
102
{ACAD_REACTORS
330
3292
102
}
330
3292
100
AcDbScale
 70
     0
300
1:1
140
1.0
141
1.0
290
     1
  0
SCALE
  5
3294
102
{ACAD_REACTORS
330
3292
102
}
330
3292
100
AcDbScale
 70
     0
300
1:2
140
1.0
141
2.0
290
     0
  0
SCALE
  5
3295
102
{ACAD_REACTORS
330
3292
102
}
330
3292
100
AcDbScale
 70
     0
300
1:4
140
1.0
141
4.0
290
     0
  0
SCALE
  5
3296
102
{ACAD_REACTORS
330
3292
102
}
330
3292
100
AcDbScale
 70
     0
300
1:5
140
1.0
141
5.0
290
     0
  0
SCALE
  5
3297
102
{ACAD_REACTORS
330
3292
102
}
330
3292
100
AcDbScale
 70
     0
300
1:8
140
1.0
141
8.0
290
     0
  0
SCALE
  5
3298
102
{ACAD_REACTORS
330
3292
102
}
330
3292
100
AcDbScale
 70
     0
300
1:10
140
1.0
141
10.0
290
     0
  0
SCALE
  5
3299
102
{ACAD_REACTORS
330
3292
102
}
330
3292
100
AcDbScale
 70
     0
300
1:16
140
1.0
141
16.0
290
     0
  0
SCALE
  5
329A
102
{ACAD_REACTORS
330
3292
102
}
330
3292
100
AcDbScale
 70
     0
300
1:20
140
1.0
141
20.0
290
     0
  0
SCALE
  5
329B
102
{ACAD_REACTORS
330
3292
102
}
330
3292
100
AcDbScale
 70
     0
300
1:30
140
1.0
141
30.0
290
     0
  0
SCALE
  5
329C
102
{ACAD_REACTORS
330
3292
102
}
330
3292
100
AcDbScale
 70
     0
300
1:40
140
1.0
141
40.0
290
     0
  0
SCALE
  5
329D
102
{ACAD_REACTORS
330
3292
102
}
330
3292
100
AcDbScale
 70
     0
300
1:50
140
1.0
141
50.0
290
     0
  0
SCALE
  5
329E
102
{ACAD_REACTORS
330
3292
102
}
330
3292
100
AcDbScale
 70
     0
300
1:100
140
1.0
141
100.0
290
     0
  0
SCALE
  5
329F
102
{ACAD_REACTORS
330
3292
102
}
330
3292
100
AcDbScale
 70
     0
300
2:1
140
2.0
141
1.0
290
     0
  0
SCALE
  5
32A0
102
{ACAD_REACTORS
330
3292
102
}
330
3292
100
AcDbScale
 70
     0
300
4:1
140
4.0
141
1.0
290
     0
  0
SCALE
  5
32A1
102
{ACAD_REACTORS
330
3292
102
}
330
3292
100
AcDbScale
 70
     0
300
8:1
140
8.0
141
1.0
290
     0
  0
SCALE
  5
32A2
102
{ACAD_REACTORS
330
3292
102
}
330
3292
100
AcDbScale
 70
     0
300
10:1
140
10.0
141
1.0
290
     0
  0
SCALE
  5
32A3
102
{ACAD_REACTORS
330
3292
102
}
330
3292
100
AcDbScale
 70
     0
300
100:1
140
100.0
141
1.0
290
     0
  0
ACDBSECTIONVIEWSTYLE
  5
32A7
102
{ACAD_REACTORS
330
32A6
102
}
330
32A6
100
AcDbModelDocViewStyle
 70
     0
  3
Metric50
290
     0
100
AcDbSectionViewStyle
 70
     0
 71
     0
 90
      102
 71
     1
340
F
 62
   256
 40
5.0
340
0
340
0
 62
   256
 40
5.0
300
I, O, Q, S, X, Z
 40
10.0
 90
        0
 40
2.5
 90
        0
 71
     2
340
14
 90
       25
 62
   256
340
14
 90
       50
 62
   256
 40
5.0
 40
2.5
 40
5.0
 71
     3
340
F
 62
   256
 40
5.0
 90
        0
 40
15.0
 90
        1
300
%<\AcVar ViewSectionStartId>%-%<\AcVar ViewSectionEndId>% (%<\AcVar ViewScale \f "%sn">%)
 71
     4
 62
   256
 62
   257
300
ANSI31
 40
1.0
 90
        0
290
     0
290
     0
 90
        6
 40
0.0
 40
1.570796326794896
 40
0.2617993877991494
 40
1.308996938995747
 40
-0.2617993877991494
 40
1.832595714594046
  0
TABLESTYLE
  5
3291
102
{ACAD_XDICTIONARY
360
3424
102
}
102
{ACAD_REACTORS
330
3290
102
}
330
3290
100
AcDbTableStyle
  3
Standard
 70
     0
 71
     0
 40
1.5
 41
1.5
280
     0
281
     0
  7
STANDARD
140
4.5
170
     2
 62
     0
 63
     7
283
     0
274
    -2
284
     1
 64
     0
275
    -2
285
     1
 65
     0
276
    -2
286
     1
 66
     0
277
    -2
287
     1
 67
     0
278
    -2
288
     1
 68
     0
279
    -2
289
     1
 69
     0
  7
STANDARD
140
6.0
170
     5
 62
     0
 63
     7
283
     0
274
    -2
284
     1
 64
     0
275
    -2
285
     1
 65
     0
276
    -2
286
     1
 66
     0
277
    -2
287
     1
 67
     0
278
    -2
288
     1
 68
     0
279
    -2
289
     1
 69
     0
  7
STANDARD
140
4.5
170
     5
 62
     0
 63
     7
283
     0
274
    -2
284
     1
 64
     0
275
    -2
285
     1
 65
     0
276
    -2
286
     1
 66
     0
277
    -2
287
     1
 67
     0
278
    -2
288
     1
 68
     0
279
    -2
289
     1
 69
     0
  0
VISUALSTYLE
  5
327C
102
{ACAD_XDICTIONARY
360
344F
102
}
102
{ACAD_REACTORS
330
3276
102
}
330
3276
100
AcDbVisualStyle
  2
2dWireframe
 70
     4
 71
     0
 72
     2
 73
     0
 90
        0
 40
-0.6
 41
-30.0
 62
     5
 63
     7
421
 16777215
 74
     1
 91
        4
 64
     7
 65
   257
 75
     1
175
     1
 42
1.0
 92
        0
 66
   257
 43
1.0
 76
     1
 77
     6
 78
     2
 67
     7
 79
     5
170
     0
171
     0
290
     0
174
     0
 93
        1
 44
0.0
173
     0
291
     0
 45
0.0
1001
ACAD
1000
AcDbSavedByObjectVersion
1070
     0
  0
VISUALSTYLE
  5
327B
102
{ACAD_XDICTIONARY
360
344D
102
}
102
{ACAD_REACTORS
330
3276
102
}
330
3276
100
AcDbVisualStyle
  2
Basic
 70
     7
 71
     1
 72
     0
 73
     1
 90
        0
 40
-0.6
 41
-30.0
 62
     5
 63
     7
421
 16777215
 74
     0
 91
        4
 64
     7
 65
   257
 75
     1
175
     1
 42
1.0
 92
        8
 66
     7
 43
1.0
 76
     1
 77
     6
 78
     2
 67
     7
 79
     5
170
     0
171
     0
290
     0
174
     0
 93
        1
 44
0.0
173
     0
291
     1
 45
0.0
1001
ACAD
1000
AcDbSavedByObjectVersion
1070
     0
  0
VISUALSTYLE
  5
3282
102
{ACAD_XDICTIONARY
360
345B
102
}
102
{ACAD_REACTORS
330
3276
102
}
330
3276
100
AcDbVisualStyle
  2
Brighten
 70
    12
 71
     2
 72
     2
 73
     0
 90
        0
 40
-0.6
 41
-30.0
 62
     5
 63
     7
421
 16777215
 74
     1
 91
        4
 64
     7
 65
   257
 75
     1
175
     1
 42
1.0
 92
        8
 66
     7
 43
1.0
 76
     1
 77
     6
 78
     2
 67
     7
 79
     5
170
     0
171
     0
290
     0
174
     0
 93
        1
 44
50.0
173
     0
291
     1
 45
0.0
1001
ACAD
1000
AcDbSavedByObjectVersion
1070
     0
  0
VISUALSTYLE
  5
3286
102
{ACAD_XDICTIONARY
360
3463
102
}
102
{ACAD_REACTORS
330
3276
102
}
330
3276
100
AcDbVisualStyle
  2
ColorChange
 70
    16
 71
     2
 72
     2
 73
     3
 90
        0
 40
-0.6
 41
-30.0
 62
     5
 63
     8
421
  8421504
 74
     1
 91
        4
 64
     7
 65
   257
 75
     1
175
     1
 42
1.0
 92
        8
 66
     8
424
  8421504
 43
1.0
 76
     1
 77
     6
 78
     2
 67
     7
 79
     5
170
     0
171
     0
290
     0
174
     0
 93
        1
 44
0.0
173
     0
291
     1
 45
0.0
1001
ACAD
1000
AcDbSavedByObjectVersion
1070
     0
  0
VISUALSTYLE
  5
327F
102
{ACAD_XDICTIONARY
360
3455
102
}
102
{ACAD_REACTORS
330
3276
102
}
330
3276
100
AcDbVisualStyle
  2
Conceptual
 70
     9
 71
     3
 72
     2
 73
     0
 90
        0
 40
-0.6
 41
-30.0
 62
     5
 63
     7
421
 16777215
 74
     2
 91
        2
 64
     7
 65
   257
 75
     1
175
     1
 42
179.0
 92
        8
 66
     7
 43
1.0
 76
     1
 77
     6
 78
     2
 67
     7
 79
     3
170
     0
171
     0
290
     0
174
     0
 93
        1
 44
0.0
173
     0
291
     0
 45
0.0
1001
ACAD
1000
AcDbSavedByObjectVersion
1070
     0
  0
VISUALSTYLE
  5
3281
102
{ACAD_XDICTIONARY
360
3459
102
}
102
{ACAD_REACTORS
330
3276
102
}
330
3276
100
AcDbVisualStyle
  2
Dim
 70
    11
 71
     2
 72
     2
 73
     0
 90
        0
 40
-0.6
 41
-30.0
 62
     5
 63
     7
421
 16777215
 74
     1
 91
        4
 64
     7
 65
   257
 75
     1
175
     1
 42
1.0
 92
        8
 66
     7
 43
1.0
 76
     1
 77
     6
 78
     2
 67
     7
 79
     5
170
     0
171
     0
290
     0
174
     0
 93
        1
 44
-50.0
173
     0
291
     1
 45
0.0
1001
ACAD
1000
AcDbSavedByObjectVersion
1070
     0
  0
VISUALSTYLE
  5
328E
102
{ACAD_XDICTIONARY
360
3473
102
}
102
{ACAD_REACTORS
330
3276
102
}
330
3276
100
AcDbVisualStyle
  2
EdgeColorOff
 70
    22
 71
     2
 72
     2
 73
     0
 90
        0
 40
-0.6
 41
-30.0
 62
     5
 63
     7
421
 16777215
 74
     1
 91
        4
 64
     7
 65
   257
 75
     1
175
     1
 42
1.0
 92
        8
 66
     7
 43
1.0
 76
     1
 77
     6
 78
     2
 67
     7
 79
     5
170
     0
171
     0
290
     0
174
     0
 93
        1
 44
0.0
173
     0
291
     1
 45
0.0
1001
ACAD
1000
AcDbSavedByObjectVersion
1070
     0
  0
VISUALSTYLE
  5
3285
102
{ACAD_XDICTIONARY
360
3461
102
}
102
{ACAD_REACTORS
330
3276
102
}
330
3276
100
AcDbVisualStyle
  2
Facepattern
 70
    15
 71
     2
 72
     2
 73
     0
 90
        0
 40
-0.6
 41
-30.0
 62
     5
 63
     7
421
 16777215
 74
     1
 91
        4
 64
     7
 65
   257
 75
     1
175
     1
 42
1.0
 92
        8
 66
     7
 43
1.0
 76
     1
 77
     6
 78
     2
 67
     7
 79
     5
170
     0
171
     0
290
     0
174
     0
 93
        1
 44
0.0
173
     0
291
     1
 45
0.0
1001
ACAD
1000
AcDbSavedByObjectVersion
1070
     0
  0
VISUALSTYLE
  5
3277
102
{ACAD_XDICTIONARY
360
3445
102
}
102
{ACAD_REACTORS
330
3276
102
}
330
3276
100
AcDbVisualStyle
  2
Flat
 70
     0
 71
     2
 72
     1
 73
     1
 90
        2
 40
-0.6
 41
30.0
 62
     5
 63
     7
421
 16777215
 74
     0
 91
        0
 64
     7
 65
   257
 75
     1
175
     1
 42
1.0
 92
        8
 66
     7
 43
1.0
 76
     1
 77
     6
 78
     2
 67
     7
 79
     5
170
     0
171
     0
290
     0
174
     0
 93
       13
 44
0.0
173
     0
291
     1
 45
0.0
1001
ACAD
1000
AcDbSavedByObjectVersion
1070
     0
  0
VISUALSTYLE
  5
3278
102
{ACAD_XDICTIONARY
360
3447
102
}
102
{ACAD_REACTORS
330
3276
102
}
330
3276
100
AcDbVisualStyle
  2
FlatWithEdges
 70
     1
 71
     2
 72
     1
 73
     1
 90
        2
 40
-0.6
 41
30.0
 62
     5
 63
     7
421
 16777215
 74
     1
 91
        0
 64
     7
 65
   257
 75
     1
175
     1
 42
1.0
 92
        0
 66
   257
 43
1.0
 76
     1
 77
     6
 78
     2
 67
     7
 79
     5
170
     0
171
     0
290
     0
174
     0
 93
       13
 44
0.0
173
     0
291
     1
 45
0.0
1001
ACAD
1000
AcDbSavedByObjectVersion
1070
     0
  0
VISUALSTYLE
  5
3279
102
{ACAD_XDICTIONARY
360
3449
102
}
102
{ACAD_REACTORS
330
3276
102
}
330
3276
100
AcDbVisualStyle
  2
Gouraud
 70
     2
 71
     2
 72
     2
 73
     1
 90
        2
 40
-0.6
 41
30.0
 62
     5
 63
     7
421
 16777215
 74
     0
 91
        0
 64
     7
 65
   257
 75
     1
175
     1
 42
1.0
 92
        0
 66
     7
 43
1.0
 76
     1
 77
     6
 78
     2
 67
     7
 79
     5
170
     0
171
     0
290
     0
174
     0
 93
       13
 44
0.0
173
     0
291
     1
 45
0.0
1001
ACAD
1000
AcDbSavedByObjectVersion
1070
     0
  0
VISUALSTYLE
  5
327A
102
{ACAD_XDICTIONARY
360
344B
102
}
102
{ACAD_REACTORS
330
3276
102
}
330
3276
100
AcDbVisualStyle
  2
GouraudWithEdges
 70
     3
 71
     2
 72
     2
 73
     1
 90
        2
 40
-0.6
 41
30.0
 62
     5
 63
     7
421
 16777215
 74
     1
 91
        0
 64
     7
 65
   257
 75
     1
175
     1
 42
1.0
 92
        0
 66
   257
 43
1.0
 76
     1
 77
     6
 78
     2
 67
     7
 79
     5
170
     0
171
     0
290
     0
174
     0
 93
       13
 44
0.0
173
     0
291
     1
 45
0.0
1001
ACAD
1000
AcDbSavedByObjectVersion
1070
     0
  0
VISUALSTYLE
  5
327E
102
{ACAD_XDICTIONARY
360
3453
102
}
102
{ACAD_REACTORS
330
3276
102
}
330
3276
100
AcDbVisualStyle
  2
Hidden
 70
     6
 71
     1
 72
     2
 73
     2
 90
        0
 40
-0.6
 41
-30.0
 62
     5
 63
     7
421
 16777215
 74
     2
 91
        2
 64
     7
 65
   257
 75
     2
175
     1
 42
40.0
 92
        0
 66
   257
 43
1.0
 76
     1
 77
     6
 78
     2
 67
     7
 79
     3
170
     0
171
     0
290
     0
174
     0
 93
        1
 44
0.0
173
     0
291
     0
 45
0.0
1001
ACAD
1000
AcDbSavedByObjectVersion
1070
     0
  0
VISUALSTYLE
  5
328C
102
{ACAD_XDICTIONARY
360
346F
102
}
102
{ACAD_REACTORS
330
3276
102
}
330
3276
100
AcDbVisualStyle
  2
JitterOff
 70
    20
 71
     2
 72
     2
 73
     0
 90
        0
 40
-0.6
 41
-30.0
 62
     5
 63
     7
421
 16777215
 74
     1
 91
        4
 64
     7
 65
   257
 75
     1
175
     1
 42
1.0
 92
       10
 66
     7
 43
1.0
 76
     1
 77
     6
 78
     2
 67
     7
 79
     5
170
     0
171
     0
290
     0
174
     0
 93
        1
 44
0.0
173
     0
291
     1
 45
0.0
1001
ACAD
1000
AcDbSavedByObjectVersion
1070
     0
  0
VISUALSTYLE
  5
3284
102
{ACAD_XDICTIONARY
360
345F
102
}
102
{ACAD_REACTORS
330
3276
102
}
330
3276
100
AcDbVisualStyle
  2
Linepattern
 70
    14
 71
     2
 72
     2
 73
     0
 90
        0
 40
-0.6
 41
-30.0
 62
     5
 63
     7
421
 16777215
 74
     1
 91
        4
 64
     7
 65
   257
 75
     7
175
     7
 42
1.0
 92
        8
 66
     7
 43
1.0
 76
     1
 77
     6
 78
     2
 67
     7
 79
     5
170
     0
171
     0
290
     0
174
     0
 93
        1
 44
0.0
173
     0
291
     1
 45
0.0
1001
ACAD
1000
AcDbSavedByObjectVersion
1070
     0
  0
VISUALSTYLE
  5
328D
102
{ACAD_XDICTIONARY
360
3471
102
}
102
{ACAD_REACTORS
330
3276
102
}
330
3276
100
AcDbVisualStyle
  2
OverhangOff
 70
    21
 71
     2
 72
     2
 73
     0
 90
        0
 40
-0.6
 41
-30.0
 62
     5
 63
     7
421
 16777215
 74
     1
 91
        4
 64
     7
 65
   257
 75
     1
175
     1
 42
1.0
 92
        9
 66
     7
 43
1.0
 76
     1
 77
     6
 78
     2
 67
     7
 79
     5
170
     0
171
     0
290
     0
174
     0
 93
        1
 44
0.0
173
     0
291
     1
 45
0.0
1001
ACAD
1000
AcDbSavedByObjectVersion
1070
     0
  0
VISUALSTYLE
  5
3280
102
{ACAD_XDICTIONARY
360
3457
102
}
102
{ACAD_REACTORS
330
3276
102
}
330
3276
100
AcDbVisualStyle
  2
Realistic
 70
     8
 71
     2
 72
     3
 73
     0
 90
        2
 40
-0.6
 41
30.0
 62
     5
 63
     7
421
 16777215
 74
     0
 91
        0
 64
     7
 65
   257
 75
     1
175
     1
 42
1.0
 92
        8
 66
   257
 43
1.0
 76
     1
 77
     6
 78
     2
 67
     7
 79
     3
170
     0
171
     0
290
     0
174
     0
 93
       13
 44
0.0
173
     0
291
     0
 45
0.0
1001
ACAD
1000
AcDbSavedByObjectVersion
1070
     0
  0
VISUALSTYLE
  5
328B
102
{ACAD_XDICTIONARY
360
346D
102
}
102
{ACAD_REACTORS
330
3276
102
}
330
3276
100
AcDbVisualStyle
  2
Shaded
 70
    27
 71
     2
 72
     2
 73
     1
 90
        2
 40
-0.6
 41
30.0
 62
     5
 63
     7
421
 16777215
 74
     0
 91
        4
 64
     7
 65
   257
 75
     1
175
     1
 42
1.0
 92
        8
 66
   257
 43
1.0
 76
     1
 77
     6
 78
     2
 67
     8
425
  7895160
 79
     3
170
     0
171
     0
290
     0
174
     0
 93
        5
 44
0.0
173
     0
291
     0
 45
0.0
1001
ACAD
1000
AcDbSavedByObjectVersion
1070
     0
  0
VISUALSTYLE
  5
328A
102
{ACAD_XDICTIONARY
360
346B
102
}
102
{ACAD_REACTORS
330
3276
102
}
330
3276
100
AcDbVisualStyle
  2
Shaded with edges
 70
    26
 71
     2
 72
     2
 73
     1
 90
        2
 40
-0.6
 41
30.0
 62
     5
 63
     7
421
 16777215
 74
     1
 91
       10
 64
     7
 65
   257
 75
     2
175
     1
 42
1.0
 92
        8
 66
   257
 43
1.0
 76
     1
 77
     6
 78
     2
 67
     7
 79
     3
170
     0
171
     0
290
     0
174
     0
 93
        5
 44
0.0
173
     0
291
     0
 45
0.0
1001
ACAD
1000
AcDbSavedByObjectVersion
1070
     0
  0
VISUALSTYLE
  5
3287
102
{ACAD_XDICTIONARY
360
3465
102
}
102
{ACAD_REACTORS
330
3276
102
}
330
3276
100
AcDbVisualStyle
  2
Shades of Gray
 70
    23
 71
     2
 72
     2
 73
     3
 90
        0
 40
-0.6
 41
-30.0
 62
     5
 63
     7
421
 16777215
 74
     2
 91
        2
 64
     7
 65
     7
 75
     1
175
     1
 42
40.0
 92
        8
 66
     7
 43
1.0
 76
     1
 77
     6
 78
     2
 67
     7
 79
     3
170
     0
171
     0
290
     0
174
     0
 93
        1
 44
0.0
173
     0
291
     0
 45
0.0
1001
ACAD
1000
AcDbSavedByObjectVersion
1070
     0
  0
VISUALSTYLE
  5
3288
102
{ACAD_XDICTIONARY
360
3467
102
}
102
{ACAD_REACTORS
330
3276
102
}
330
3276
100
AcDbVisualStyle
  2
Sketchy
 70
    24
 71
     1
 72
     2
 73
     2
 90
        0
 40
-0.6
 41
-30.0
 62
     5
 63
     7
421
 16777215
 74
     2
 91
        2
 64
     7
 65
     7
 75
     1
175
     1
 42
40.0
 92
       11
 66
     7
 43
1.0
 76
     1
 77
     6
 78
     2
 67
     7
 79
     6
170
     0
171
     0
290
     0
174
     0
 93
        1
 44
0.0
173
     0
291
     0
 45
0.0
1001
ACAD
1000
AcDbSavedByObjectVersion
1070
     0
  0
VISUALSTYLE
  5
3283
102
{ACAD_XDICTIONARY
360
345D
102
}
102
{ACAD_REACTORS
330
3276
102
}
330
3276
100
AcDbVisualStyle
  2
Thicken
 70
    13
 71
     2
 72
     2
 73
     0
 90
        0
 40
-0.6
 41
-30.0
 62
     5
 63
     7
421
 16777215
 74
     1
 91
        4
 64
     7
 65
   257
 75
     1
175
     1
 42
1.0
 92
       12
 66
     7
 43
1.0
 76
     1
 77
     6
 78
     2
 67
     7
 79
     5
170
     0
171
     0
290
     0
174
     0
 93
        1
 44
0.0
173
     0
291
     1
 45
0.0
1001
ACAD
1000
AcDbSavedByObjectVersion
1070
     0
  0
VISUALSTYLE
  5
327D
102
{ACAD_XDICTIONARY
360
3451
102
}
102
{ACAD_REACTORS
330
3276
102
}
330
3276
100
AcDbVisualStyle
  2
Wireframe
 70
     5
 71
     0
 72
     2
 73
     0
 90
        0
 40
-0.6
 41
-30.0
 62
     5
 63
     7
421
 16777215
 74
     1
 91
        4
 64
     7
 65
   257
 75
     1
175
     1
 42
1.0
 92
        0
 66
   257
 43
1.0
 76
     1
 77
     6
 78
     2
 67
     7
 79
     3
170
     0
171
     0
290
     0
174
     0
 93
        1
 44
0.0
173
     0
291
     0
 45
0.0
1001
ACAD
1000
AcDbSavedByObjectVersion
1070
     0
  0
VISUALSTYLE
  5
3289
102
{ACAD_XDICTIONARY
360
3469
102
}
102
{ACAD_REACTORS
330
3276
102
}
330
3276
100
AcDbVisualStyle
  2
X-Ray
 70
    25
 71
     2
 72
     2
 73
     1
 90
        1
 40
0.5
 41
-30.0
 62
     5
 63
     7
421
 16777215
 74
     1
 91
        0
 64
     7
 65
   257
 75
     1
175
     1
 42
1.0
 92
        8
 66
     7
 43
1.0
 76
     1
 77
     6
 78
     2
 67
     7
 79
     3
170
     0
171
     0
290
     0
174
     0
 93
       13
 44
0.0
173
     0
291
     0
 45
0.0
1001
ACAD
1000
AcDbSavedByObjectVersion
1070
     0
  0
DICTIONARYVAR
  5
3348
102
{ACAD_REACTORS
330
7F0
102
}
330
7F0
100
DictionaryVariables
280
     0
  1
1:1
  0
DICTIONARYVAR
  5
3344
102
{ACAD_REACTORS
330
7F0
102
}
330
7F0
100
DictionaryVariables
280
     0
  1
STANDARD
  0
DICTIONARYVAR
  5
3343
102
{ACAD_REACTORS
330
7F0
102
}
330
7F0
100
DictionaryVariables
280
     0
  1
STANDARD
  0
DICTIONARYVAR
  5
3345
102
{ACAD_REACTORS
330
7F0
102
}
330
7F0
100
DictionaryVariables
280
     0
  1
Metric50
  0
DICTIONARYVAR
  5
3346
102
{ACAD_REACTORS
330
7F0
102
}
330
7F0
100
DictionaryVariables
280
     0
  1
Metric50
  0
DICTIONARYVAR
  5
1F21
102
{ACAD_REACTORS
330
7F0
102
}
330
7F0
100
DictionaryVariables
280
     0
  1
1
  0
DICTIONARYVAR
  5
334A
102
{ACAD_REACTORS
330
7F0
102
}
330
7F0
100
DictionaryVariables
280
     0
  1
1
  0
DICTIONARYVAR
  5
334B
102
{ACAD_REACTORS
330
7F0
102
}
330
7F0
100
DictionaryVariables
280
     0
  1
15
  0
DICTIONARYVAR
  5
3349
102
{ACAD_REACTORS
330
7F0
102
}
330
7F0
100
DictionaryVariables
280
     0
  1
0
  0
DICTIONARYVAR
  5
3347
102
{ACAD_REACTORS
330
7F0
102
}
330
7F0
100
DictionaryVariables
280
     0
  1
0
  0
DICTIONARYVAR
  5
7F1
102
{ACAD_REACTORS
330
7F0
102
}
330
7F0
100
DictionaryVariables
280
     0
  1
96
  0
DICTIONARYVAR
  5
3422
102
{ACAD_REACTORS
330
7F0
102
}
330
7F0
100
DictionaryVariables
280
     0
  1
2
  0
DICTIONARY
  5
342E
102
{ACAD_REACTORS
330
342C
102
}
330
342C
100
AcDbDictionary
281
     1
  0
DICTIONARY
  5
342D
102
{ACAD_REACTORS
330
342C
102
}
330
342C
100
AcDbDictionary
281
     1
  3
140695674177776
350
3427
  3
140695674177792
350
3428
  3
140695674177808
350
3429
  3
140695674177824
350
342A
  3
140695674177840
350
342B
  0
DICTIONARY
  5
3267
330
3266
100
AcDbDictionary
280
     1
281
     1
  3
ACAD_XREC_ROUNDTRIP
360
3443
  3
BUMPTILE
360
3269
  3
DIFFUSETILE
360
3268
  3
OPACITYTILE
360
326C
  3
REFLECTIONTILE
360
326B
  3
REFRACTIONTILE
360
326D
  3
SPECULARTILE
360
326A
  0
DICTIONARY
  5
325F
330
325E
100
AcDbDictionary
280
     1
281
     1
  3
ACAD_XREC_ROUNDTRIP
360
3442
  3
BUMPTILE
360
3261
  3
DIFFUSETILE
360
3260
  3
OPACITYTILE
360
3264
  3
REFLECTIONTILE
360
3263
  3
REFRACTIONTILE
360
3265
  3
SPECULARTILE
360
3262
  0
DICTIONARY
  5
326F
330
326E
100
AcDbDictionary
280
     1
281
     1
  3
ACAD_XREC_ROUNDTRIP
360
3444
  3
BUMPTILE
360
3271
  3
DIFFUSETILE
360
3270
  3
OPACITYTILE
360
3274
  3
REFLECTIONTILE
360
3273
  3
REFRACTIONTILE
360
3275
  3
SPECULARTILE
360
3272
  0
DICTIONARY
  5
3477
330
32A5
100
AcDbDictionary
280
     1
281
     1
  3
ACAD_XREC_ROUNDTRIP
360
3478
  0
DICTIONARY
  5
3424
330
3291
100
AcDbDictionary
280
     1
281
     1
  3
ACAD_ROUNDTRIP_2008_TABLESTYLE_CELLSTYLEMAP
360
3425
  3
ACAD_XREC_ROUNDTRIP
360
3475
  0
DICTIONARY
  5
344F
330
327C
100
AcDbDictionary
280
     1
281
     1
  3
ACAD_XREC_ROUNDTRIP
360
3450
  0
DICTIONARY
  5
344D
330
327B
100
AcDbDictionary
280
     1
281
     1
  3
ACAD_XREC_ROUNDTRIP
360
344E
  0
DICTIONARY
  5
345B
330
3282
100
AcDbDictionary
280
     1
281
     1
  3
ACAD_XREC_ROUNDTRIP
360
345C
  0
DICTIONARY
  5
3463
330
3286
100
AcDbDictionary
280
     1
281
     1
  3
ACAD_XREC_ROUNDTRIP
360
3464
  0
DICTIONARY
  5
3455
330
327F
100
AcDbDictionary
280
     1
281
     1
  3
ACAD_XREC_ROUNDTRIP
360
3456
  0
DICTIONARY
  5
3459
330
3281
100
AcDbDictionary
280
     1
281
     1
  3
ACAD_XREC_ROUNDTRIP
360
345A
  0
DICTIONARY
  5
3473
330
328E
100
AcDbDictionary
280
     1
281
     1
  3
ACAD_XREC_ROUNDTRIP
360
3474
  0
DICTIONARY
  5
3461
330
3285
100
AcDbDictionary
280
     1
281
     1
  3
ACAD_XREC_ROUNDTRIP
360
3462
  0
DICTIONARY
  5
3445
330
3277
100
AcDbDictionary
280
     1
281
     1
  3
ACAD_XREC_ROUNDTRIP
360
3446
  0
DICTIONARY
  5
3447
330
3278
100
AcDbDictionary
280
     1
281
     1
  3
ACAD_XREC_ROUNDTRIP
360
3448
  0
DICTIONARY
  5
3449
330
3279
100
AcDbDictionary
280
     1
281
     1
  3
ACAD_XREC_ROUNDTRIP
360
344A
  0
DICTIONARY
  5
344B
330
327A
100
AcDbDictionary
280
     1
281
     1
  3
ACAD_XREC_ROUNDTRIP
360
344C
  0
DICTIONARY
  5
3453
330
327E
100
AcDbDictionary
280
     1
281
     1
  3
ACAD_XREC_ROUNDTRIP
360
3454
  0
DICTIONARY
  5
346F
330
328C
100
AcDbDictionary
280
     1
281
     1
  3
ACAD_XREC_ROUNDTRIP
360
3470
  0
DICTIONARY
  5
345F
330
3284
100
AcDbDictionary
280
     1
281
     1
  3
ACAD_XREC_ROUNDTRIP
360
3460
  0
DICTIONARY
  5
3471
330
328D
100
AcDbDictionary
280
     1
281
     1
  3
ACAD_XREC_ROUNDTRIP
360
3472
  0
DICTIONARY
  5
3457
330
3280
100
AcDbDictionary
280
     1
281
     1
  3
ACAD_XREC_ROUNDTRIP
360
3458
  0
DICTIONARY
  5
346D
330
328B
100
AcDbDictionary
280
     1
281
     1
  3
ACAD_XREC_ROUNDTRIP
360
346E
  0
DICTIONARY
  5
346B
330
328A
100
AcDbDictionary
280
     1
281
     1
  3
ACAD_XREC_ROUNDTRIP
360
346C
  0
DICTIONARY
  5
3465
330
3287
100
AcDbDictionary
280
     1
281
     1
  3
ACAD_XREC_ROUNDTRIP
360
3466
  0
DICTIONARY
  5
3467
330
3288
100
AcDbDictionary
280
     1
281
     1
  3
ACAD_XREC_ROUNDTRIP
360
3468
  0
DICTIONARY
  5
345D
330
3283
100
AcDbDictionary
280
     1
281
     1
  3
ACAD_XREC_ROUNDTRIP
360
345E
  0
DICTIONARY
  5
3451
330
327D
100
AcDbDictionary
280
     1
281
     1
  3
ACAD_XREC_ROUNDTRIP
360
3452
  0
DICTIONARY
  5
3469
330
3289
100
AcDbDictionary
280
     1
281
     1
  3
ACAD_XREC_ROUNDTRIP
360
346A
  0
XRECORD
  5
3427
102
{ACAD_REACTORS
330
342D
102
}
330
342D
100
AcDbXrecord
280
     1
  1
AcDb_Thumbnail_Schema
102
{ATTRRECORD
341
3428
  2
AcDbDs::TreatedAsObjectData
280
     1
291
     1
102
ATTRRECORD}
102
{ATTRRECORD
341
3429
  2
AcDbDs::Legacy
280
     1
291
     1
102
ATTRRECORD}
  2
AcDbDs::ID
280
    10
 91
        8
102
{ATTRRECORD
341
342A
  2
AcDs:Indexable
280
     1
291
     1
102
ATTRRECORD}
102
{ATTRRECORD
341
342B
  2
AcDbDs::HandleAttribute
280
     7
282
     1
102
ATTRRECORD}
  2
Thumbnail_Data
280
    15
 91
        0
  0
XRECORD
  5
3428
102
{ACAD_REACTORS
330
342D
102
}
330
342D
100
AcDbXrecord
280
     1
  1
AcDbDs::TreatedAsObjectDataSchema
  2
AcDbDs::TreatedAsObjectData
280
     1
 91
        0
  0
XRECORD
  5
3429
102
{ACAD_REACTORS
330
342D
102
}
330
342D
100
AcDbXrecord
280
     1
  1
AcDbDs::LegacySchema
  2
AcDbDs::Legacy
280
     1
 91
        0
  0
XRECORD
  5
342A
102
{ACAD_REACTORS
330
342D
102
}
330
342D
100
AcDbXrecord
280
     1
  1
AcDbDs::IndexedPropertySchema
  2
AcDs:Indexable
280
     1
 91
        0
  0
XRECORD
  5
342B
102
{ACAD_REACTORS
330
342D
102
}
330
342D
100
AcDbXrecord
280
     1
  1
AcDbDs::HandleAttributeSchema
  2
AcDbDs::HandleAttribute
280
     7
 91
        1
284
     1
  0
XRECORD
  5
3443
102
{ACAD_REACTORS
330
3267
102
}
330
3267
100
AcDbXrecord
280
     1
102
MATERIAL
148
0.0
149
0.0
149
0.0
 93
        0
 94
      127
282
     0
 72
     0
 77
     0
171
     0
175
     0
179
     0
273
     0
  0
XRECORD
  5
3269
102
{ACAD_REACTORS
330
3267
102
}
330
3267
100
AcDbXrecord
280
     1
270
     1
271
     1
  0
XRECORD
  5
3268
102
{ACAD_REACTORS
330
3267
102
}
330
3267
100
AcDbXrecord
280
     1
270
     1
271
     1
  0
XRECORD
  5
326C
102
{ACAD_REACTORS
330
3267
102
}
330
3267
100
AcDbXrecord
280
     1
270
     1
271
     1
  0
XRECORD
  5
326B
102
{ACAD_REACTORS
330
3267
102
}
330
3267
100
AcDbXrecord
280
     1
270
     1
271
     1
  0
XRECORD
  5
326D
102
{ACAD_REACTORS
330
3267
102
}
330
3267
100
AcDbXrecord
280
     1
270
     1
271
     1
  0
XRECORD
  5
326A
102
{ACAD_REACTORS
330
3267
102
}
330
3267
100
AcDbXrecord
280
     1
270
     1
271
     1
  0
XRECORD
  5
3442
102
{ACAD_REACTORS
330
325F
102
}
330
325F
100
AcDbXrecord
280
     1
102
MATERIAL
148
0.0
149
0.0
149
0.0
 93
        0
 94
      127
282
     0
 72
     0
 77
     0
171
     0
175
     0
179
     0
273
     0
  0
XRECORD
  5
3261
102
{ACAD_REACTORS
330
325F
102
}
330
325F
100
AcDbXrecord
280
     1
270
     1
271
     1
  0
XRECORD
  5
3260
102
{ACAD_REACTORS
330
325F
102
}
330
325F
100
AcDbXrecord
280
     1
270
     1
271
     1
  0
XRECORD
  5
3264
102
{ACAD_REACTORS
330
325F
102
}
330
325F
100
AcDbXrecord
280
     1
270
     1
271
     1
  0
XRECORD
  5
3263
102
{ACAD_REACTORS
330
325F
102
}
330
325F
100
AcDbXrecord
280
     1
270
     1
271
     1
  0
XRECORD
  5
3265
102
{ACAD_REACTORS
330
325F
102
}
330
325F
100
AcDbXrecord
280
     1
270
     1
271
     1
  0
XRECORD
  5
3262
102
{ACAD_REACTORS
330
325F
102
}
330
325F
100
AcDbXrecord
280
     1
270
     1
271
     1
  0
XRECORD
  5
3444
102
{ACAD_REACTORS
330
326F
102
}
330
326F
100
AcDbXrecord
280
     1
102
MATERIAL
148
0.0
149
0.0
149
0.0
 93
        0
 94
      127
282
     0
 72
     0
 77
     0
171
     0
175
     0
179
     0
273
     0
  0
XRECORD
  5
3271
102
{ACAD_REACTORS
330
326F
102
}
330
326F
100
AcDbXrecord
280
     1
270
     1
271
     1
  0
XRECORD
  5
3270
102
{ACAD_REACTORS
330
326F
102
}
330
326F
100
AcDbXrecord
280
     1
270
     1
271
     1
  0
XRECORD
  5
3274
102
{ACAD_REACTORS
330
326F
102
}
330
326F
100
AcDbXrecord
280
     1
270
     1
271
     1
  0
XRECORD
  5
3273
102
{ACAD_REACTORS
330
326F
102
}
330
326F
100
AcDbXrecord
280
     1
270
     1
271
     1
  0
XRECORD
  5
3275
102
{ACAD_REACTORS
330
326F
102
}
330
326F
100
AcDbXrecord
280
     1
270
     1
271
     1
  0
XRECORD
  5
3272
102
{ACAD_REACTORS
330
326F
102
}
330
326F
100
AcDbXrecord
280
     1
270
     1
271
     1
  0
XRECORD
  5
3478
102
{ACAD_REACTORS
330
3477
102
}
330
3477
100
AcDbXrecord
280
     1
102
ACAD_ROUNDTRIP_2012_MLEADER_STYLE
298
     1
  0
CELLSTYLEMAP
  5
3425
102
{ACAD_REACTORS
330
3424
102
}
330
3424
100
AcDbCellStyleMap
 90
        3
300
CELLSTYLE
  1
TABLEFORMAT_BEGIN
 90
        5
170
     1
 91
        0
 92
    32768
 62
   257
 93
        1
300
CONTENTFORMAT
  1
CONTENTFORMAT_BEGIN
 90
        0
 91
        0
 92
      512
 93
        0
300

 40
0.0
140
1.0
 94
        5
 62
     0
340
F
144
6.0
309
CONTENTFORMAT_END
171
     1
301
MARGIN
  1
CELLMARGIN_BEGIN
 40
1.5
 40
1.5
 40
1.5
 40
1.5
 40
4.5
 40
4.5
309
CELLMARGIN_END
 94
        6
 95
        1
302
GRIDFORMAT
  1
GRIDFORMAT_BEGIN
 90
        0
 91
        1
 62
     0
 92
       -2
340
0
 93
        0
 40
1.125
309
GRIDFORMAT_END
 95
        2
302
GRIDFORMAT
  1
GRIDFORMAT_BEGIN
 90
        0
 91
        1
 62
     0
 92
       -2
340
0
 93
        0
 40
1.125
309
GRIDFORMAT_END
 95
        4
302
GRIDFORMAT
  1
GRIDFORMAT_BEGIN
 90
        0
 91
        1
 62
     0
 92
       -2
340
0
 93
        0
 40
1.125
309
GRIDFORMAT_END
 95
        8
302
GRIDFORMAT
  1
GRIDFORMAT_BEGIN
 90
        0
 91
        1
 62
     0
 92
       -2
340
0
 93
        0
 40
1.125
309
GRIDFORMAT_END
 95
       16
302
GRIDFORMAT
  1
GRIDFORMAT_BEGIN
 90
        0
 91
        1
 62
     0
 92
       -2
340
0
 93
        0
 40
1.125
309
GRIDFORMAT_END
 95
       32
302
GRIDFORMAT
  1
GRIDFORMAT_BEGIN
 90
        0
 91
        1
 62
     0
 92
       -2
340
0
 93
        0
 40
1.125
309
GRIDFORMAT_END
309
TABLEFORMAT_END
  1
CELLSTYLE_BEGIN
 90
        1
 91
        1
300
_TITLE
309
CELLSTYLE_END
300
CELLSTYLE
  1
TABLEFORMAT_BEGIN
 90
        5
170
     1
 91
        0
 92
        0
 62
   257
 93
        1
300
CONTENTFORMAT
  1
CONTENTFORMAT_BEGIN
 90
        0
 91
        0
 92
      512
 93
        0
300

 40
0.0
140
1.0
 94
        5
 62
     0
340
F
144
4.5
309
CONTENTFORMAT_END
171
     1
301
MARGIN
  1
CELLMARGIN_BEGIN
 40
1.5
 40
1.5
 40
1.5
 40
1.5
 40
4.5
 40
4.5
309
CELLMARGIN_END
 94
        6
 95
        1
302
GRIDFORMAT
  1
GRIDFORMAT_BEGIN
 90
        0
 91
        1
 62
     0
 92
       -2
340
0
 93
        0
 40
1.125
309
GRIDFORMAT_END
 95
        2
302
GRIDFORMAT
  1
GRIDFORMAT_BEGIN
 90
        0
 91
        1
 62
     0
 92
       -2
340
0
 93
        0
 40
1.125
309
GRIDFORMAT_END
 95
        4
302
GRIDFORMAT
  1
GRIDFORMAT_BEGIN
 90
        0
 91
        1
 62
     0
 92
       -2
340
0
 93
        0
 40
1.125
309
GRIDFORMAT_END
 95
        8
302
GRIDFORMAT
  1
GRIDFORMAT_BEGIN
 90
        0
 91
        1
 62
     0
 92
       -2
340
0
 93
        0
 40
1.125
309
GRIDFORMAT_END
 95
       16
302
GRIDFORMAT
  1
GRIDFORMAT_BEGIN
 90
        0
 91
        1
 62
     0
 92
       -2
340
0
 93
        0
 40
1.125
309
GRIDFORMAT_END
 95
       32
302
GRIDFORMAT
  1
GRIDFORMAT_BEGIN
 90
        0
 91
        1
 62
     0
 92
       -2
340
0
 93
        0
 40
1.125
309
GRIDFORMAT_END
309
TABLEFORMAT_END
  1
CELLSTYLE_BEGIN
 90
        2
 91
        1
300
_HEADER
309
CELLSTYLE_END
300
CELLSTYLE
  1
TABLEFORMAT_BEGIN
 90
        5
170
     1
 91
        0
 92
        0
 62
   257
 93
        1
300
CONTENTFORMAT
  1
CONTENTFORMAT_BEGIN
 90
        0
 91
        0
 92
      512
 93
        0
300

 40
0.0
140
1.0
 94
        2
 62
     0
340
F
144
4.5
309
CONTENTFORMAT_END
171
     1
301
MARGIN
  1
CELLMARGIN_BEGIN
 40
1.5
 40
1.5
 40
1.5
 40
1.5
 40
4.5
 40
4.5
309
CELLMARGIN_END
 94
        6
 95
        1
302
GRIDFORMAT
  1
GRIDFORMAT_BEGIN
 90
        0
 91
        1
 62
     0
 92
       -2
340
0
 93
        0
 40
1.125
309
GRIDFORMAT_END
 95
        2
302
GRIDFORMAT
  1
GRIDFORMAT_BEGIN
 90
        0
 91
        1
 62
     0
 92
       -2
340
0
 93
        0
 40
1.125
309
GRIDFORMAT_END
 95
        4
302
GRIDFORMAT
  1
GRIDFORMAT_BEGIN
 90
        0
 91
        1
 62
     0
 92
       -2
340
0
 93
        0
 40
1.125
309
GRIDFORMAT_END
 95
        8
302
GRIDFORMAT
  1
GRIDFORMAT_BEGIN
 90
        0
 91
        1
 62
     0
 92
       -2
340
0
 93
        0
 40
1.125
309
GRIDFORMAT_END
 95
       16
302
GRIDFORMAT
  1
GRIDFORMAT_BEGIN
 90
        0
 91
        1
 62
     0
 92
       -2
340
0
 93
        0
 40
1.125
309
GRIDFORMAT_END
 95
       32
302
GRIDFORMAT
  1
GRIDFORMAT_BEGIN
 90
        0
 91
        1
 62
     0
 92
       -2
340
0
 93
        0
 40
1.125
309
GRIDFORMAT_END
309
TABLEFORMAT_END
  1
CELLSTYLE_BEGIN
 90
        3
 91
        2
300
_DATA
309
CELLSTYLE_END
  0
XRECORD
  5
3475
102
{ACAD_REACTORS
330
3424
102
}
330
3424
100
AcDbXrecord
280
     1
102
ACAD_ROUNDTRIP_PRE2007_TABLESTYLE
 90
      512
 91
        0
  1

 92
      512
 93
        0
  2

 94
      512
 95
        0
  3

  0
XRECORD
  5
3450
102
{ACAD_REACTORS
330
344F
102
}
330
344F
100
AcDbXrecord
280
     1
102
RTVSPost2010Prop28
280
     1
102
RTVSPost2010PropOp28
 70
     1
102
RTVSPost2010Prop29
280
     1
102
RTVSPost2010PropOp29
 70
     1
102
RTVSPost2010Prop30
280
     0
102
RTVSPost2010PropOp30
 70
     1
102
RTVSPost2010Prop31
280
     0
102
RTVSPost2010PropOp31
 70
     1
102
RTVSPost2010Prop32
280
     0
102
RTVSPost2010PropOp32
 70
     1
102
RTVSPost2010Prop33
280
     0
102
RTVSPost2010PropOp33
 70
     1
102
RTVSPost2010Prop34
280
     0
102
RTVSPost2010PropOp34
 70
     1
102
RTVSPost2010Prop35
280
     0
102
RTVSPost2010PropOp35
 70
     1
102
RTVSPost2010Prop36
280
     0
102
RTVSPost2010PropOp36
 70
     1
102
RTVSPost2010Prop37
 90
       50
102
RTVSPost2010PropOp37
 70
     1
102
RTVSPost2010Prop38
140
0.0
102
RTVSPost2010PropOp38
 70
     1
102
RTVSPost2010Prop39
140
1.0
102
RTVSPost2010PropOp39
 70
     1
102
RTVSPost2010Prop40
 90
        0
102
RTVSPost2010PropOp40
 70
     1
102
RTVSPost2010Prop41ColorIndex
 90
       18
102
RTVSPost2010Prop41ColorRGB
 90
        0
102
RTVSPost2010PropOp41
 70
     1
102
RTVSPost2010Prop42
 90
       50
102
RTVSPost2010PropOp42
 70
     1
102
RTVSPost2010Prop43
 90
        3
102
RTVSPost2010PropOp43
 70
     1
102
RTVSPost2010Prop44ColorIndex
 90
        5
102
RTVSPost2010Prop44ColorRGB
 90
      255
102
RTVSPost2010PropOp44
 70
     1
102
RTVSPost2010Prop45
280
     0
102
RTVSPost2010PropOp45
 70
     1
102
RTVSPost2010Prop46
 90
       50
102
RTVSPost2010PropOp46
 70
     1
102
RTVSPost2010Prop47
 90
       50
102
RTVSPost2010PropOp47
 70
     1
102
RTVSPost2010Prop48
 90
       50
102
RTVSPost2010PropOp48
 70
     1
102
RTVSPost2010Prop49
280
     0
102
RTVSPost2010PropOp49
 70
     1
102
RTVSPost2010Prop50
 90
       50
102
RTVSPost2010PropOp50
 70
     1
102
RTVSPost2010Prop51ColorIndex
 90
      256
102
RTVSPost2010Prop51ColorRGB
 90
-16777216
102
RTVSPost2010PropOp51
 70
     0
102
RTVSPost2010Prop52
140
1.0
102
RTVSPost2010PropOp52
 70
     0
102
RTVSPost2010Prop53
 90
        2
102
RTVSPost2010PropOp53
 70
     1
102
RTVSPost2010Prop54
  1
strokes_ogs.tif
102
RTVSPost2010PropOp54
 70
     1
102
RTVSPost2010Prop55
280
     0
102
RTVSPost2010PropOp55
 70
     1
102
RTVSPost2010Prop56
140
1.0
102
RTVSPost2010PropOp56
 70
     1
102
RTVSPost2010Prop57
140
1.0
102
RTVSPost2010PropOp57
 70
     1
102
RTVSPropertyOp0
 70
     1
102
RTVSPropertyOp1
 70
     1
102
RTVSPropertyOp2
 70
     1
102
RTVSPropertyOp3
 70
     1
102
RTVSPropertyOp4
 70
     1
102
RTVSPropertyOp5
 70
     1
102
RTVSPropertyOp6
 70
     1
102
RTVSPropertyOp7
 70
     1
102
RTVSPropertyOp8
 70
     1
102
RTVSPropertyOp9
 70
     1
102
RTVSPropertyOp10
 70
     1
102
RTVSPropertyOp11
 70
     1
102
RTVSPropertyOp12
 70
     1
102
RTVSPropertyOp13
 70
     1
102
RTVSPropertyOp14
 70
     1
102
RTVSPropertyOp15
 70
     1
102
RTVSPropertyOp16
 70
     1
102
RTVSPropertyOp17
 70
     1
102
RTVSPropertyOp18
 70
     1
102
RTVSPropertyOp19
 70
     1
102
RTVSPropertyOp20
 70
     1
102
RTVSPropertyOp21
 70
     1
102
RTVSPropertyOp22
 70
     1
102
RTVSPropertyOp23
 70
     1
102
RTVSPropertyOp24
 70
     1
102
RTVSPropertyOp25
 70
     1
102
RTVSPropertyOp26
 70
     1
102
RTVSPropertyOp27
 70
     1
102
RTVSPropertyOp28
 70
     1
102
RTVSPropertyOp29
 70
     1
102
RTVSPropertyOp30
 70
     1
102
RTVSPropertyOp31
 70
     1
102
RTVSPropertyOp32
 70
     1
102
RTVSPropertyOp33
 70
     1
102
RTVSPropertyOp34
 70
     1
102
RTVSPropertyOp35
 70
     1
102
RTVSPropertyOp36
 70
     1
102
RTVSPropertyOp37
 70
     1
102
RTVSPropertyOp38
 70
     1
102
RTVSPropertyOp39
 70
     1
102
RTVSPropertyOp40
 70
     1
102
RTVSPropertyOp41
 70
     1
102
RTVSPropertyOp42
 70
     1
102
RTVSPropertyOp43
 70
     1
102
RTVSPropertyOp44
 70
     1
102
RTVSPropertyOp45
 70
     1
102
RTVSPropertyOp46
 70
     1
102
RTVSPropertyOp47
 70
     1
102
RTVSPropertyOp48
 70
     1
102
RTVSPropertyOp49
 70
     1
102
RTVSPropertyOp50
 70
     1
102
RTVSPropertyOp51
 70
     0
102
RTVSPropertyOp52
 70
     0
102
RTVSPropertyOp53
 70
     1
102
RTVSPropertyOp54
 70
     1
102
RTVSPropertyOp55
 70
     1
102
RTVSPropertyOp56
 70
     1
102
RTVSPropertyOp57
 70
     1
102
RTVSPropertyOp58
 70
     1
102
RTVSPropertyOp59
 70
     1
102
RTVSPropertyOp60
 70
     1
102
RTVSPropertyOp61
 70
     1
102
RTVSPropertyOp62
 70
     1
  0
XRECORD
  5
344E
102
{ACAD_REACTORS
330
344D
102
}
330
344D
100
AcDbXrecord
280
     1
102
RTVSPost2010Prop28
280
     0
102
RTVSPost2010PropOp28
 70
     1
102
RTVSPost2010Prop29
280
     1
102
RTVSPost2010PropOp29
 70
     1
102
RTVSPost2010Prop30
280
     1
102
RTVSPost2010PropOp30
 70
     1
102
RTVSPost2010Prop31
280
     0
102
RTVSPost2010PropOp31
 70
     1
102
RTVSPost2010Prop32
280
     0
102
RTVSPost2010PropOp32
 70
     1
102
RTVSPost2010Prop33
280
     0
102
RTVSPost2010PropOp33
 70
     1
102
RTVSPost2010Prop34
280
     0
102
RTVSPost2010PropOp34
 70
     1
102
RTVSPost2010Prop35
280
     0
102
RTVSPost2010PropOp35
 70
     1
102
RTVSPost2010Prop36
280
     0
102
RTVSPost2010PropOp36
 70
     1
102
RTVSPost2010Prop37
 90
       50
102
RTVSPost2010PropOp37
 70
     1
102
RTVSPost2010Prop38
140
0.0
102
RTVSPost2010PropOp38
 70
     1
102
RTVSPost2010Prop39
140
1.0
102
RTVSPost2010PropOp39
 70
     1
102
RTVSPost2010Prop40
 90
        0
102
RTVSPost2010PropOp40
 70
     1
102
RTVSPost2010Prop41ColorIndex
 90
       18
102
RTVSPost2010Prop41ColorRGB
 90
        0
102
RTVSPost2010PropOp41
 70
     1
102
RTVSPost2010Prop42
 90
       50
102
RTVSPost2010PropOp42
 70
     1
102
RTVSPost2010Prop43
 90
        3
102
RTVSPost2010PropOp43
 70
     1
102
RTVSPost2010Prop44ColorIndex
 90
        5
102
RTVSPost2010Prop44ColorRGB
 90
      255
102
RTVSPost2010PropOp44
 70
     1
102
RTVSPost2010Prop45
280
     0
102
RTVSPost2010PropOp45
 70
     1
102
RTVSPost2010Prop46
 90
       50
102
RTVSPost2010PropOp46
 70
     1
102
RTVSPost2010Prop47
 90
       50
102
RTVSPost2010PropOp47
 70
     1
102
RTVSPost2010Prop48
 90
       50
102
RTVSPost2010PropOp48
 70
     1
102
RTVSPost2010Prop49
280
     0
102
RTVSPost2010PropOp49
 70
     1
102
RTVSPost2010Prop50
 90
       50
102
RTVSPost2010PropOp50
 70
     1
102
RTVSPost2010Prop51ColorIndex
 90
      256
102
RTVSPost2010Prop51ColorRGB
 90
-16777216
102
RTVSPost2010PropOp51
 70
     0
102
RTVSPost2010Prop52
140
1.0
102
RTVSPost2010PropOp52
 70
     0
102
RTVSPost2010Prop53
 90
        2
102
RTVSPost2010PropOp53
 70
     1
102
RTVSPost2010Prop54
  1
strokes_ogs.tif
102
RTVSPost2010PropOp54
 70
     1
102
RTVSPost2010Prop55
280
     0
102
RTVSPost2010PropOp55
 70
     1
102
RTVSPost2010Prop56
140
1.0
102
RTVSPost2010PropOp56
 70
     1
102
RTVSPost2010Prop57
140
1.0
102
RTVSPost2010PropOp57
 70
     1
102
RTVSPropertyOp0
 70
     1
102
RTVSPropertyOp1
 70
     1
102
RTVSPropertyOp2
 70
     1
102
RTVSPropertyOp3
 70
     1
102
RTVSPropertyOp4
 70
     1
102
RTVSPropertyOp5
 70
     1
102
RTVSPropertyOp6
 70
     1
102
RTVSPropertyOp7
 70
     1
102
RTVSPropertyOp8
 70
     1
102
RTVSPropertyOp9
 70
     1
102
RTVSPropertyOp10
 70
     1
102
RTVSPropertyOp11
 70
     1
102
RTVSPropertyOp12
 70
     1
102
RTVSPropertyOp13
 70
     1
102
RTVSPropertyOp14
 70
     1
102
RTVSPropertyOp15
 70
     1
102
RTVSPropertyOp16
 70
     1
102
RTVSPropertyOp17
 70
     1
102
RTVSPropertyOp18
 70
     1
102
RTVSPropertyOp19
 70
     1
102
RTVSPropertyOp20
 70
     1
102
RTVSPropertyOp21
 70
     1
102
RTVSPropertyOp22
 70
     1
102
RTVSPropertyOp23
 70
     1
102
RTVSPropertyOp24
 70
     1
102
RTVSPropertyOp25
 70
     1
102
RTVSPropertyOp26
 70
     1
102
RTVSPropertyOp27
 70
     1
102
RTVSPropertyOp28
 70
     1
102
RTVSPropertyOp29
 70
     1
102
RTVSPropertyOp30
 70
     1
102
RTVSPropertyOp31
 70
     1
102
RTVSPropertyOp32
 70
     1
102
RTVSPropertyOp33
 70
     1
102
RTVSPropertyOp34
 70
     1
102
RTVSPropertyOp35
 70
     1
102
RTVSPropertyOp36
 70
     1
102
RTVSPropertyOp37
 70
     1
102
RTVSPropertyOp38
 70
     1
102
RTVSPropertyOp39
 70
     1
102
RTVSPropertyOp40
 70
     1
102
RTVSPropertyOp41
 70
     1
102
RTVSPropertyOp42
 70
     1
102
RTVSPropertyOp43
 70
     1
102
RTVSPropertyOp44
 70
     1
102
RTVSPropertyOp45
 70
     1
102
RTVSPropertyOp46
 70
     1
102
RTVSPropertyOp47
 70
     1
102
RTVSPropertyOp48
 70
     1
102
RTVSPropertyOp49
 70
     1
102
RTVSPropertyOp50
 70
     1
102
RTVSPropertyOp51
 70
     0
102
RTVSPropertyOp52
 70
     0
102
RTVSPropertyOp53
 70
     1
102
RTVSPropertyOp54
 70
     1
102
RTVSPropertyOp55
 70
     1
102
RTVSPropertyOp56
 70
     1
102
RTVSPropertyOp57
 70
     1
102
RTVSPropertyOp58
 70
     1
102
RTVSPropertyOp59
 70
     1
102
RTVSPropertyOp60
 70
     1
102
RTVSPropertyOp61
 70
     1
102
RTVSPropertyOp62
 70
     1
  0
XRECORD
  5
345C
102
{ACAD_REACTORS
330
345B
102
}
330
345B
100
AcDbXrecord
280
     1
102
RTVSPost2010Prop28
280
     0
102
RTVSPost2010PropOp28
 70
     1
102
RTVSPost2010Prop29
280
     1
102
RTVSPost2010PropOp29
 70
     1
102
RTVSPost2010Prop30
280
     1
102
RTVSPost2010PropOp30
 70
     1
102
RTVSPost2010Prop31
280
     0
102
RTVSPost2010PropOp31
 70
     1
102
RTVSPost2010Prop32
280
     0
102
RTVSPost2010PropOp32
 70
     1
102
RTVSPost2010Prop33
280
     0
102
RTVSPost2010PropOp33
 70
     1
102
RTVSPost2010Prop34
280
     0
102
RTVSPost2010PropOp34
 70
     1
102
RTVSPost2010Prop35
280
     0
102
RTVSPost2010PropOp35
 70
     1
102
RTVSPost2010Prop36
280
     0
102
RTVSPost2010PropOp36
 70
     1
102
RTVSPost2010Prop37
 90
       50
102
RTVSPost2010PropOp37
 70
     1
102
RTVSPost2010Prop38
140
0.0
102
RTVSPost2010PropOp38
 70
     1
102
RTVSPost2010Prop39
140
1.0
102
RTVSPost2010PropOp39
 70
     1
102
RTVSPost2010Prop40
 90
        0
102
RTVSPost2010PropOp40
 70
     1
102
RTVSPost2010Prop41ColorIndex
 90
       18
102
RTVSPost2010Prop41ColorRGB
 90
        0
102
RTVSPost2010PropOp41
 70
     1
102
RTVSPost2010Prop42
 90
       50
102
RTVSPost2010PropOp42
 70
     1
102
RTVSPost2010Prop43
 90
        3
102
RTVSPost2010PropOp43
 70
     1
102
RTVSPost2010Prop44ColorIndex
 90
        5
102
RTVSPost2010Prop44ColorRGB
 90
      255
102
RTVSPost2010PropOp44
 70
     1
102
RTVSPost2010Prop45
280
     0
102
RTVSPost2010PropOp45
 70
     1
102
RTVSPost2010Prop46
 90
       50
102
RTVSPost2010PropOp46
 70
     1
102
RTVSPost2010Prop47
 90
       50
102
RTVSPost2010PropOp47
 70
     1
102
RTVSPost2010Prop48
 90
       50
102
RTVSPost2010PropOp48
 70
     1
102
RTVSPost2010Prop49
280
     0
102
RTVSPost2010PropOp49
 70
     1
102
RTVSPost2010Prop50
 90
       50
102
RTVSPost2010PropOp50
 70
     1
102
RTVSPost2010Prop51ColorIndex
 90
      256
102
RTVSPost2010Prop51ColorRGB
 90
-16777216
102
RTVSPost2010PropOp51
 70
     0
102
RTVSPost2010Prop52
140
1.0
102
RTVSPost2010PropOp52
 70
     0
102
RTVSPost2010Prop53
 90
        2
102
RTVSPost2010PropOp53
 70
     1
102
RTVSPost2010Prop54
  1
strokes_ogs.tif
102
RTVSPost2010PropOp54
 70
     1
102
RTVSPost2010Prop55
280
     0
102
RTVSPost2010PropOp55
 70
     1
102
RTVSPost2010Prop56
140
1.0
102
RTVSPost2010PropOp56
 70
     1
102
RTVSPost2010Prop57
140
1.0
102
RTVSPost2010PropOp57
 70
     1
102
RTVSPropertyOp0
 70
     1
102
RTVSPropertyOp1
 70
     1
102
RTVSPropertyOp2
 70
     1
102
RTVSPropertyOp3
 70
     1
102
RTVSPropertyOp4
 70
     1
102
RTVSPropertyOp5
 70
     1
102
RTVSPropertyOp6
 70
     1
102
RTVSPropertyOp7
 70
     1
102
RTVSPropertyOp8
 70
     1
102
RTVSPropertyOp9
 70
     1
102
RTVSPropertyOp10
 70
     1
102
RTVSPropertyOp11
 70
     1
102
RTVSPropertyOp12
 70
     1
102
RTVSPropertyOp13
 70
     1
102
RTVSPropertyOp14
 70
     1
102
RTVSPropertyOp15
 70
     1
102
RTVSPropertyOp16
 70
     1
102
RTVSPropertyOp17
 70
     1
102
RTVSPropertyOp18
 70
     1
102
RTVSPropertyOp19
 70
     1
102
RTVSPropertyOp20
 70
     1
102
RTVSPropertyOp21
 70
     1
102
RTVSPropertyOp22
 70
     1
102
RTVSPropertyOp23
 70
     1
102
RTVSPropertyOp24
 70
     1
102
RTVSPropertyOp25
 70
     1
102
RTVSPropertyOp26
 70
     1
102
RTVSPropertyOp27
 70
     1
102
RTVSPropertyOp28
 70
     1
102
RTVSPropertyOp29
 70
     1
102
RTVSPropertyOp30
 70
     1
102
RTVSPropertyOp31
 70
     1
102
RTVSPropertyOp32
 70
     1
102
RTVSPropertyOp33
 70
     1
102
RTVSPropertyOp34
 70
     1
102
RTVSPropertyOp35
 70
     1
102
RTVSPropertyOp36
 70
     1
102
RTVSPropertyOp37
 70
     1
102
RTVSPropertyOp38
 70
     1
102
RTVSPropertyOp39
 70
     1
102
RTVSPropertyOp40
 70
     1
102
RTVSPropertyOp41
 70
     1
102
RTVSPropertyOp42
 70
     1
102
RTVSPropertyOp43
 70
     1
102
RTVSPropertyOp44
 70
     1
102
RTVSPropertyOp45
 70
     1
102
RTVSPropertyOp46
 70
     1
102
RTVSPropertyOp47
 70
     1
102
RTVSPropertyOp48
 70
     1
102
RTVSPropertyOp49
 70
     1
102
RTVSPropertyOp50
 70
     1
102
RTVSPropertyOp51
 70
     0
102
RTVSPropertyOp52
 70
     0
102
RTVSPropertyOp53
 70
     1
102
RTVSPropertyOp54
 70
     1
102
RTVSPropertyOp55
 70
     1
102
RTVSPropertyOp56
 70
     1
102
RTVSPropertyOp57
 70
     1
102
RTVSPropertyOp58
 70
     1
102
RTVSPropertyOp59
 70
     1
102
RTVSPropertyOp60
 70
     1
102
RTVSPropertyOp61
 70
     1
102
RTVSPropertyOp62
 70
     1
  0
XRECORD
  5
3464
102
{ACAD_REACTORS
330
3463
102
}
330
3463
100
AcDbXrecord
280
     1
102
RTVSPost2010Prop28
280
     0
102
RTVSPost2010PropOp28
 70
     1
102
RTVSPost2010Prop29
280
     1
102
RTVSPost2010PropOp29
 70
     1
102
RTVSPost2010Prop30
280
     1
102
RTVSPost2010PropOp30
 70
     1
102
RTVSPost2010Prop31
280
     0
102
RTVSPost2010PropOp31
 70
     1
102
RTVSPost2010Prop32
280
     0
102
RTVSPost2010PropOp32
 70
     1
102
RTVSPost2010Prop33
280
     0
102
RTVSPost2010PropOp33
 70
     1
102
RTVSPost2010Prop34
280
     0
102
RTVSPost2010PropOp34
 70
     1
102
RTVSPost2010Prop35
280
     0
102
RTVSPost2010PropOp35
 70
     1
102
RTVSPost2010Prop36
280
     0
102
RTVSPost2010PropOp36
 70
     1
102
RTVSPost2010Prop37
 90
       50
102
RTVSPost2010PropOp37
 70
     1
102
RTVSPost2010Prop38
140
0.0
102
RTVSPost2010PropOp38
 70
     1
102
RTVSPost2010Prop39
140
1.0
102
RTVSPost2010PropOp39
 70
     1
102
RTVSPost2010Prop40
 90
        0
102
RTVSPost2010PropOp40
 70
     1
102
RTVSPost2010Prop41ColorIndex
 90
       18
102
RTVSPost2010Prop41ColorRGB
 90
        0
102
RTVSPost2010PropOp41
 70
     1
102
RTVSPost2010Prop42
 90
       50
102
RTVSPost2010PropOp42
 70
     1
102
RTVSPost2010Prop43
 90
        3
102
RTVSPost2010PropOp43
 70
     1
102
RTVSPost2010Prop44ColorIndex
 90
        5
102
RTVSPost2010Prop44ColorRGB
 90
      255
102
RTVSPost2010PropOp44
 70
     1
102
RTVSPost2010Prop45
280
     0
102
RTVSPost2010PropOp45
 70
     1
102
RTVSPost2010Prop46
 90
       50
102
RTVSPost2010PropOp46
 70
     1
102
RTVSPost2010Prop47
 90
       50
102
RTVSPost2010PropOp47
 70
     1
102
RTVSPost2010Prop48
 90
       50
102
RTVSPost2010PropOp48
 70
     1
102
RTVSPost2010Prop49
280
     0
102
RTVSPost2010PropOp49
 70
     1
102
RTVSPost2010Prop50
 90
       50
102
RTVSPost2010PropOp50
 70
     1
102
RTVSPost2010Prop51ColorIndex
 90
      256
102
RTVSPost2010Prop51ColorRGB
 90
-16777216
102
RTVSPost2010PropOp51
 70
     0
102
RTVSPost2010Prop52
140
1.0
102
RTVSPost2010PropOp52
 70
     0
102
RTVSPost2010Prop53
 90
        2
102
RTVSPost2010PropOp53
 70
     1
102
RTVSPost2010Prop54
  1
strokes_ogs.tif
102
RTVSPost2010PropOp54
 70
     1
102
RTVSPost2010Prop55
280
     0
102
RTVSPost2010PropOp55
 70
     1
102
RTVSPost2010Prop56
140
1.0
102
RTVSPost2010PropOp56
 70
     1
102
RTVSPost2010Prop57
140
1.0
102
RTVSPost2010PropOp57
 70
     1
102
RTVSPropertyOp0
 70
     1
102
RTVSPropertyOp1
 70
     1
102
RTVSPropertyOp2
 70
     1
102
RTVSPropertyOp3
 70
     1
102
RTVSPropertyOp4
 70
     1
102
RTVSPropertyOp5
 70
     1
102
RTVSPropertyOp6
 70
     1
102
RTVSPropertyOp7
 70
     1
102
RTVSPropertyOp8
 70
     1
102
RTVSPropertyOp9
 70
     1
102
RTVSPropertyOp10
 70
     1
102
RTVSPropertyOp11
 70
     1
102
RTVSPropertyOp12
 70
     1
102
RTVSPropertyOp13
 70
     1
102
RTVSPropertyOp14
 70
     1
102
RTVSPropertyOp15
 70
     1
102
RTVSPropertyOp16
 70
     1
102
RTVSPropertyOp17
 70
     1
102
RTVSPropertyOp18
 70
     1
102
RTVSPropertyOp19
 70
     1
102
RTVSPropertyOp20
 70
     1
102
RTVSPropertyOp21
 70
     1
102
RTVSPropertyOp22
 70
     1
102
RTVSPropertyOp23
 70
     1
102
RTVSPropertyOp24
 70
     1
102
RTVSPropertyOp25
 70
     1
102
RTVSPropertyOp26
 70
     1
102
RTVSPropertyOp27
 70
     1
102
RTVSPropertyOp28
 70
     1
102
RTVSPropertyOp29
 70
     1
102
RTVSPropertyOp30
 70
     1
102
RTVSPropertyOp31
 70
     1
102
RTVSPropertyOp32
 70
     1
102
RTVSPropertyOp33
 70
     1
102
RTVSPropertyOp34
 70
     1
102
RTVSPropertyOp35
 70
     1
102
RTVSPropertyOp36
 70
     1
102
RTVSPropertyOp37
 70
     1
102
RTVSPropertyOp38
 70
     1
102
RTVSPropertyOp39
 70
     1
102
RTVSPropertyOp40
 70
     1
102
RTVSPropertyOp41
 70
     1
102
RTVSPropertyOp42
 70
     1
102
RTVSPropertyOp43
 70
     1
102
RTVSPropertyOp44
 70
     1
102
RTVSPropertyOp45
 70
     1
102
RTVSPropertyOp46
 70
     1
102
RTVSPropertyOp47
 70
     1
102
RTVSPropertyOp48
 70
     1
102
RTVSPropertyOp49
 70
     1
102
RTVSPropertyOp50
 70
     1
102
RTVSPropertyOp51
 70
     0
102
RTVSPropertyOp52
 70
     0
102
RTVSPropertyOp53
 70
     1
102
RTVSPropertyOp54
 70
     1
102
RTVSPropertyOp55
 70
     1
102
RTVSPropertyOp56
 70
     1
102
RTVSPropertyOp57
 70
     1
102
RTVSPropertyOp58
 70
     1
102
RTVSPropertyOp59
 70
     1
102
RTVSPropertyOp60
 70
     1
102
RTVSPropertyOp61
 70
     1
102
RTVSPropertyOp62
 70
     1
  0
XRECORD
  5
3456
102
{ACAD_REACTORS
330
3455
102
}
330
3455
100
AcDbXrecord
280
     1
102
RTVSPost2010Prop28
280
     0
102
RTVSPost2010PropOp28
 70
     1
102
RTVSPost2010Prop29
280
     1
102
RTVSPost2010PropOp29
 70
     1
102
RTVSPost2010Prop30
280
     1
102
RTVSPost2010PropOp30
 70
     1
102
RTVSPost2010Prop31
280
     0
102
RTVSPost2010PropOp31
 70
     1
102
RTVSPost2010Prop32
280
     0
102
RTVSPost2010PropOp32
 70
     1
102
RTVSPost2010Prop33
280
     0
102
RTVSPost2010PropOp33
 70
     1
102
RTVSPost2010Prop34
280
     0
102
RTVSPost2010PropOp34
 70
     1
102
RTVSPost2010Prop35
280
     0
102
RTVSPost2010PropOp35
 70
     1
102
RTVSPost2010Prop36
280
     0
102
RTVSPost2010PropOp36
 70
     1
102
RTVSPost2010Prop37
 90
       50
102
RTVSPost2010PropOp37
 70
     1
102
RTVSPost2010Prop38
140
0.0
102
RTVSPost2010PropOp38
 70
     1
102
RTVSPost2010Prop39
140
1.0
102
RTVSPost2010PropOp39
 70
     1
102
RTVSPost2010Prop40
 90
        0
102
RTVSPost2010PropOp40
 70
     1
102
RTVSPost2010Prop41ColorIndex
 90
       18
102
RTVSPost2010Prop41ColorRGB
 90
        0
102
RTVSPost2010PropOp41
 70
     1
102
RTVSPost2010Prop42
 90
       50
102
RTVSPost2010PropOp42
 70
     1
102
RTVSPost2010Prop43
 90
        3
102
RTVSPost2010PropOp43
 70
     1
102
RTVSPost2010Prop44ColorIndex
 90
        5
102
RTVSPost2010Prop44ColorRGB
 90
      255
102
RTVSPost2010PropOp44
 70
     1
102
RTVSPost2010Prop45
280
     0
102
RTVSPost2010PropOp45
 70
     1
102
RTVSPost2010Prop46
 90
       50
102
RTVSPost2010PropOp46
 70
     1
102
RTVSPost2010Prop47
 90
       50
102
RTVSPost2010PropOp47
 70
     1
102
RTVSPost2010Prop48
 90
       50
102
RTVSPost2010PropOp48
 70
     1
102
RTVSPost2010Prop49
280
     0
102
RTVSPost2010PropOp49
 70
     1
102
RTVSPost2010Prop50
 90
       50
102
RTVSPost2010PropOp50
 70
     1
102
RTVSPost2010Prop51ColorIndex
 90
      256
102
RTVSPost2010Prop51ColorRGB
 90
-16777216
102
RTVSPost2010PropOp51
 70
     0
102
RTVSPost2010Prop52
140
1.0
102
RTVSPost2010PropOp52
 70
     0
102
RTVSPost2010Prop53
 90
        2
102
RTVSPost2010PropOp53
 70
     1
102
RTVSPost2010Prop54
  1
strokes_ogs.tif
102
RTVSPost2010PropOp54
 70
     1
102
RTVSPost2010Prop55
280
     0
102
RTVSPost2010PropOp55
 70
     1
102
RTVSPost2010Prop56
140
1.0
102
RTVSPost2010PropOp56
 70
     1
102
RTVSPost2010Prop57
140
1.0
102
RTVSPost2010PropOp57
 70
     1
102
RTVSPropertyOp0
 70
     1
102
RTVSPropertyOp1
 70
     1
102
RTVSPropertyOp2
 70
     1
102
RTVSPropertyOp3
 70
     1
102
RTVSPropertyOp4
 70
     1
102
RTVSPropertyOp5
 70
     1
102
RTVSPropertyOp6
 70
     1
102
RTVSPropertyOp7
 70
     1
102
RTVSPropertyOp8
 70
     1
102
RTVSPropertyOp9
 70
     1
102
RTVSPropertyOp10
 70
     1
102
RTVSPropertyOp11
 70
     1
102
RTVSPropertyOp12
 70
     1
102
RTVSPropertyOp13
 70
     1
102
RTVSPropertyOp14
 70
     1
102
RTVSPropertyOp15
 70
     1
102
RTVSPropertyOp16
 70
     1
102
RTVSPropertyOp17
 70
     1
102
RTVSPropertyOp18
 70
     1
102
RTVSPropertyOp19
 70
     1
102
RTVSPropertyOp20
 70
     1
102
RTVSPropertyOp21
 70
     1
102
RTVSPropertyOp22
 70
     1
102
RTVSPropertyOp23
 70
     1
102
RTVSPropertyOp24
 70
     1
102
RTVSPropertyOp25
 70
     1
102
RTVSPropertyOp26
 70
     1
102
RTVSPropertyOp27
 70
     1
102
RTVSPropertyOp28
 70
     1
102
RTVSPropertyOp29
 70
     1
102
RTVSPropertyOp30
 70
     1
102
RTVSPropertyOp31
 70
     1
102
RTVSPropertyOp32
 70
     1
102
RTVSPropertyOp33
 70
     1
102
RTVSPropertyOp34
 70
     1
102
RTVSPropertyOp35
 70
     1
102
RTVSPropertyOp36
 70
     1
102
RTVSPropertyOp37
 70
     1
102
RTVSPropertyOp38
 70
     1
102
RTVSPropertyOp39
 70
     1
102
RTVSPropertyOp40
 70
     1
102
RTVSPropertyOp41
 70
     1
102
RTVSPropertyOp42
 70
     1
102
RTVSPropertyOp43
 70
     1
102
RTVSPropertyOp44
 70
     1
102
RTVSPropertyOp45
 70
     1
102
RTVSPropertyOp46
 70
     1
102
RTVSPropertyOp47
 70
     1
102
RTVSPropertyOp48
 70
     1
102
RTVSPropertyOp49
 70
     1
102
RTVSPropertyOp50
 70
     1
102
RTVSPropertyOp51
 70
     0
102
RTVSPropertyOp52
 70
     0
102
RTVSPropertyOp53
 70
     1
102
RTVSPropertyOp54
 70
     1
102
RTVSPropertyOp55
 70
     1
102
RTVSPropertyOp56
 70
     1
102
RTVSPropertyOp57
 70
     1
102
RTVSPropertyOp58
 70
     1
102
RTVSPropertyOp59
 70
     1
102
RTVSPropertyOp60
 70
     1
102
RTVSPropertyOp61
 70
     1
102
RTVSPropertyOp62
 70
     1
  0
XRECORD
  5
345A
102
{ACAD_REACTORS
330
3459
102
}
330
3459
100
AcDbXrecord
280
     1
102
RTVSPost2010Prop28
280
     0
102
RTVSPost2010PropOp28
 70
     1
102
RTVSPost2010Prop29
280
     1
102
RTVSPost2010PropOp29
 70
     1
102
RTVSPost2010Prop30
280
     1
102
RTVSPost2010PropOp30
 70
     1
102
RTVSPost2010Prop31
280
     0
102
RTVSPost2010PropOp31
 70
     1
102
RTVSPost2010Prop32
280
     0
102
RTVSPost2010PropOp32
 70
     1
102
RTVSPost2010Prop33
280
     0
102
RTVSPost2010PropOp33
 70
     1
102
RTVSPost2010Prop34
280
     0
102
RTVSPost2010PropOp34
 70
     1
102
RTVSPost2010Prop35
280
     0
102
RTVSPost2010PropOp35
 70
     1
102
RTVSPost2010Prop36
280
     0
102
RTVSPost2010PropOp36
 70
     1
102
RTVSPost2010Prop37
 90
       50
102
RTVSPost2010PropOp37
 70
     1
102
RTVSPost2010Prop38
140
0.0
102
RTVSPost2010PropOp38
 70
     1
102
RTVSPost2010Prop39
140
1.0
102
RTVSPost2010PropOp39
 70
     1
102
RTVSPost2010Prop40
 90
        0
102
RTVSPost2010PropOp40
 70
     1
102
RTVSPost2010Prop41ColorIndex
 90
       18
102
RTVSPost2010Prop41ColorRGB
 90
        0
102
RTVSPost2010PropOp41
 70
     1
102
RTVSPost2010Prop42
 90
       50
102
RTVSPost2010PropOp42
 70
     1
102
RTVSPost2010Prop43
 90
        3
102
RTVSPost2010PropOp43
 70
     1
102
RTVSPost2010Prop44ColorIndex
 90
        5
102
RTVSPost2010Prop44ColorRGB
 90
      255
102
RTVSPost2010PropOp44
 70
     1
102
RTVSPost2010Prop45
280
     0
102
RTVSPost2010PropOp45
 70
     1
102
RTVSPost2010Prop46
 90
       50
102
RTVSPost2010PropOp46
 70
     1
102
RTVSPost2010Prop47
 90
       50
102
RTVSPost2010PropOp47
 70
     1
102
RTVSPost2010Prop48
 90
       50
102
RTVSPost2010PropOp48
 70
     1
102
RTVSPost2010Prop49
280
     0
102
RTVSPost2010PropOp49
 70
     1
102
RTVSPost2010Prop50
 90
       50
102
RTVSPost2010PropOp50
 70
     1
102
RTVSPost2010Prop51ColorIndex
 90
      256
102
RTVSPost2010Prop51ColorRGB
 90
-16777216
102
RTVSPost2010PropOp51
 70
     0
102
RTVSPost2010Prop52
140
1.0
102
RTVSPost2010PropOp52
 70
     0
102
RTVSPost2010Prop53
 90
        2
102
RTVSPost2010PropOp53
 70
     1
102
RTVSPost2010Prop54
  1
strokes_ogs.tif
102
RTVSPost2010PropOp54
 70
     1
102
RTVSPost2010Prop55
280
     0
102
RTVSPost2010PropOp55
 70
     1
102
RTVSPost2010Prop56
140
1.0
102
RTVSPost2010PropOp56
 70
     1
102
RTVSPost2010Prop57
140
1.0
102
RTVSPost2010PropOp57
 70
     1
102
RTVSPropertyOp0
 70
     1
102
RTVSPropertyOp1
 70
     1
102
RTVSPropertyOp2
 70
     1
102
RTVSPropertyOp3
 70
     1
102
RTVSPropertyOp4
 70
     1
102
RTVSPropertyOp5
 70
     1
102
RTVSPropertyOp6
 70
     1
102
RTVSPropertyOp7
 70
     1
102
RTVSPropertyOp8
 70
     1
102
RTVSPropertyOp9
 70
     1
102
RTVSPropertyOp10
 70
     1
102
RTVSPropertyOp11
 70
     1
102
RTVSPropertyOp12
 70
     1
102
RTVSPropertyOp13
 70
     1
102
RTVSPropertyOp14
 70
     1
102
RTVSPropertyOp15
 70
     1
102
RTVSPropertyOp16
 70
     1
102
RTVSPropertyOp17
 70
     1
102
RTVSPropertyOp18
 70
     1
102
RTVSPropertyOp19
 70
     1
102
RTVSPropertyOp20
 70
     1
102
RTVSPropertyOp21
 70
     1
102
RTVSPropertyOp22
 70
     1
102
RTVSPropertyOp23
 70
     1
102
RTVSPropertyOp24
 70
     1
102
RTVSPropertyOp25
 70
     1
102
RTVSPropertyOp26
 70
     1
102
RTVSPropertyOp27
 70
     1
102
RTVSPropertyOp28
 70
     1
102
RTVSPropertyOp29
 70
     1
102
RTVSPropertyOp30
 70
     1
102
RTVSPropertyOp31
 70
     1
102
RTVSPropertyOp32
 70
     1
102
RTVSPropertyOp33
 70
     1
102
RTVSPropertyOp34
 70
     1
102
RTVSPropertyOp35
 70
     1
102
RTVSPropertyOp36
 70
     1
102
RTVSPropertyOp37
 70
     1
102
RTVSPropertyOp38
 70
     1
102
RTVSPropertyOp39
 70
     1
102
RTVSPropertyOp40
 70
     1
102
RTVSPropertyOp41
 70
     1
102
RTVSPropertyOp42
 70
     1
102
RTVSPropertyOp43
 70
     1
102
RTVSPropertyOp44
 70
     1
102
RTVSPropertyOp45
 70
     1
102
RTVSPropertyOp46
 70
     1
102
RTVSPropertyOp47
 70
     1
102
RTVSPropertyOp48
 70
     1
102
RTVSPropertyOp49
 70
     1
102
RTVSPropertyOp50
 70
     1
102
RTVSPropertyOp51
 70
     0
102
RTVSPropertyOp52
 70
     0
102
RTVSPropertyOp53
 70
     1
102
RTVSPropertyOp54
 70
     1
102
RTVSPropertyOp55
 70
     1
102
RTVSPropertyOp56
 70
     1
102
RTVSPropertyOp57
 70
     1
102
RTVSPropertyOp58
 70
     1
102
RTVSPropertyOp59
 70
     1
102
RTVSPropertyOp60
 70
     1
102
RTVSPropertyOp61
 70
     1
102
RTVSPropertyOp62
 70
     1
  0
XRECORD
  5
3474
102
{ACAD_REACTORS
330
3473
102
}
330
3473
100
AcDbXrecord
280
     1
102
RTVSPost2010Prop28
280
     0
102
RTVSPost2010PropOp28
 70
     0
102
RTVSPost2010Prop29
280
     1
102
RTVSPost2010PropOp29
 70
     0
102
RTVSPost2010Prop30
280
     1
102
RTVSPost2010PropOp30
 70
     0
102
RTVSPost2010Prop31
280
     0
102
RTVSPost2010PropOp31
 70
     0
102
RTVSPost2010Prop32
280
     0
102
RTVSPost2010PropOp32
 70
     0
102
RTVSPost2010Prop33
280
     0
102
RTVSPost2010PropOp33
 70
     0
102
RTVSPost2010Prop34
280
     0
102
RTVSPost2010PropOp34
 70
     0
102
RTVSPost2010Prop35
280
     0
102
RTVSPost2010PropOp35
 70
     0
102
RTVSPost2010Prop36
280
     0
102
RTVSPost2010PropOp36
 70
     0
102
RTVSPost2010Prop37
 90
       50
102
RTVSPost2010PropOp37
 70
     0
102
RTVSPost2010Prop38
140
0.0
102
RTVSPost2010PropOp38
 70
     0
102
RTVSPost2010Prop39
140
1.0
102
RTVSPost2010PropOp39
 70
     0
102
RTVSPost2010Prop40
 90
        0
102
RTVSPost2010PropOp40
 70
     0
102
RTVSPost2010Prop41ColorIndex
 90
       18
102
RTVSPost2010Prop41ColorRGB
 90
        0
102
RTVSPost2010PropOp41
 70
     0
102
RTVSPost2010Prop42
 90
       50
102
RTVSPost2010PropOp42
 70
     0
102
RTVSPost2010Prop43
 90
        3
102
RTVSPost2010PropOp43
 70
     0
102
RTVSPost2010Prop44ColorIndex
 90
        5
102
RTVSPost2010Prop44ColorRGB
 90
      255
102
RTVSPost2010PropOp44
 70
     0
102
RTVSPost2010Prop45
280
     0
102
RTVSPost2010PropOp45
 70
     0
102
RTVSPost2010Prop46
 90
       50
102
RTVSPost2010PropOp46
 70
     0
102
RTVSPost2010Prop47
 90
       50
102
RTVSPost2010PropOp47
 70
     0
102
RTVSPost2010Prop48
 90
       50
102
RTVSPost2010PropOp48
 70
     0
102
RTVSPost2010Prop49
280
     0
102
RTVSPost2010PropOp49
 70
     0
102
RTVSPost2010Prop50
 90
       50
102
RTVSPost2010PropOp50
 70
     0
102
RTVSPost2010Prop51ColorIndex
 90
      256
102
RTVSPost2010Prop51ColorRGB
 90
-16777216
102
RTVSPost2010PropOp51
 70
     0
102
RTVSPost2010Prop52
140
1.0
102
RTVSPost2010PropOp52
 70
     0
102
RTVSPost2010Prop53
 90
        2
102
RTVSPost2010PropOp53
 70
     0
102
RTVSPost2010Prop54
  1
strokes_ogs.tif
102
RTVSPost2010PropOp54
 70
     0
102
RTVSPost2010Prop55
280
     0
102
RTVSPost2010PropOp55
 70
     0
102
RTVSPost2010Prop56
140
1.0
102
RTVSPost2010PropOp56
 70
     0
102
RTVSPost2010Prop57
140
1.0
102
RTVSPost2010PropOp57
 70
     0
102
RTVSPropertyOp0
 70
     0
102
RTVSPropertyOp1
 70
     0
102
RTVSPropertyOp2
 70
     0
102
RTVSPropertyOp3
 70
     0
102
RTVSPropertyOp4
 70
     0
102
RTVSPropertyOp5
 70
     0
102
RTVSPropertyOp6
 70
     0
102
RTVSPropertyOp7
 70
     0
102
RTVSPropertyOp8
 70
     0
102
RTVSPropertyOp9
 70
     0
102
RTVSPropertyOp10
 70
     0
102
RTVSPropertyOp11
 70
     0
102
RTVSPropertyOp12
 70
     0
102
RTVSPropertyOp13
 70
     0
102
RTVSPropertyOp14
 70
     2
102
RTVSPropertyOp15
 70
     0
102
RTVSPropertyOp16
 70
     0
102
RTVSPropertyOp17
 70
     0
102
RTVSPropertyOp18
 70
     0
102
RTVSPropertyOp19
 70
     0
102
RTVSPropertyOp20
 70
     0
102
RTVSPropertyOp21
 70
     0
102
RTVSPropertyOp22
 70
     0
102
RTVSPropertyOp23
 70
     0
102
RTVSPropertyOp24
 70
     0
102
RTVSPropertyOp25
 70
     0
102
RTVSPropertyOp26
 70
     0
102
RTVSPropertyOp27
 70
     0
102
RTVSPropertyOp28
 70
     0
102
RTVSPropertyOp29
 70
     0
102
RTVSPropertyOp30
 70
     0
102
RTVSPropertyOp31
 70
     0
102
RTVSPropertyOp32
 70
     0
102
RTVSPropertyOp33
 70
     0
102
RTVSPropertyOp34
 70
     0
102
RTVSPropertyOp35
 70
     0
102
RTVSPropertyOp36
 70
     0
102
RTVSPropertyOp37
 70
     0
102
RTVSPropertyOp38
 70
     0
102
RTVSPropertyOp39
 70
     0
102
RTVSPropertyOp40
 70
     0
102
RTVSPropertyOp41
 70
     0
102
RTVSPropertyOp42
 70
     0
102
RTVSPropertyOp43
 70
     0
102
RTVSPropertyOp44
 70
     0
102
RTVSPropertyOp45
 70
     0
102
RTVSPropertyOp46
 70
     0
102
RTVSPropertyOp47
 70
     0
102
RTVSPropertyOp48
 70
     0
102
RTVSPropertyOp49
 70
     0
102
RTVSPropertyOp50
 70
     0
102
RTVSPropertyOp51
 70
     0
102
RTVSPropertyOp52
 70
     0
102
RTVSPropertyOp53
 70
     0
102
RTVSPropertyOp54
 70
     0
102
RTVSPropertyOp55
 70
     0
102
RTVSPropertyOp56
 70
     0
102
RTVSPropertyOp57
 70
     0
102
RTVSPropertyOp58
 70
     1
102
RTVSPropertyOp59
 70
     1
102
RTVSPropertyOp60
 70
     1
102
RTVSPropertyOp61
 70
     1
102
RTVSPropertyOp62
 70
     1
  0
XRECORD
  5
3462
102
{ACAD_REACTORS
330
3461
102
}
330
3461
100
AcDbXrecord
280
     1
102
RTVSPost2010Prop28
280
     0
102
RTVSPost2010PropOp28
 70
     1
102
RTVSPost2010Prop29
280
     1
102
RTVSPost2010PropOp29
 70
     1
102
RTVSPost2010Prop30
280
     1
102
RTVSPost2010PropOp30
 70
     1
102
RTVSPost2010Prop31
280
     0
102
RTVSPost2010PropOp31
 70
     1
102
RTVSPost2010Prop32
280
     0
102
RTVSPost2010PropOp32
 70
     1
102
RTVSPost2010Prop33
280
     0
102
RTVSPost2010PropOp33
 70
     1
102
RTVSPost2010Prop34
280
     0
102
RTVSPost2010PropOp34
 70
     1
102
RTVSPost2010Prop35
280
     0
102
RTVSPost2010PropOp35
 70
     1
102
RTVSPost2010Prop36
280
     0
102
RTVSPost2010PropOp36
 70
     1
102
RTVSPost2010Prop37
 90
       50
102
RTVSPost2010PropOp37
 70
     1
102
RTVSPost2010Prop38
140
0.0
102
RTVSPost2010PropOp38
 70
     1
102
RTVSPost2010Prop39
140
1.0
102
RTVSPost2010PropOp39
 70
     1
102
RTVSPost2010Prop40
 90
        0
102
RTVSPost2010PropOp40
 70
     1
102
RTVSPost2010Prop41ColorIndex
 90
       18
102
RTVSPost2010Prop41ColorRGB
 90
        0
102
RTVSPost2010PropOp41
 70
     1
102
RTVSPost2010Prop42
 90
       50
102
RTVSPost2010PropOp42
 70
     1
102
RTVSPost2010Prop43
 90
        3
102
RTVSPost2010PropOp43
 70
     1
102
RTVSPost2010Prop44ColorIndex
 90
        5
102
RTVSPost2010Prop44ColorRGB
 90
      255
102
RTVSPost2010PropOp44
 70
     1
102
RTVSPost2010Prop45
280
     0
102
RTVSPost2010PropOp45
 70
     1
102
RTVSPost2010Prop46
 90
       50
102
RTVSPost2010PropOp46
 70
     1
102
RTVSPost2010Prop47
 90
       50
102
RTVSPost2010PropOp47
 70
     1
102
RTVSPost2010Prop48
 90
       50
102
RTVSPost2010PropOp48
 70
     1
102
RTVSPost2010Prop49
280
     0
102
RTVSPost2010PropOp49
 70
     1
102
RTVSPost2010Prop50
 90
       50
102
RTVSPost2010PropOp50
 70
     1
102
RTVSPost2010Prop51ColorIndex
 90
      256
102
RTVSPost2010Prop51ColorRGB
 90
-16777216
102
RTVSPost2010PropOp51
 70
     0
102
RTVSPost2010Prop52
140
1.0
102
RTVSPost2010PropOp52
 70
     0
102
RTVSPost2010Prop53
 90
        2
102
RTVSPost2010PropOp53
 70
     1
102
RTVSPost2010Prop54
  1
strokes_ogs.tif
102
RTVSPost2010PropOp54
 70
     1
102
RTVSPost2010Prop55
280
     0
102
RTVSPost2010PropOp55
 70
     1
102
RTVSPost2010Prop56
140
1.0
102
RTVSPost2010PropOp56
 70
     1
102
RTVSPost2010Prop57
140
1.0
102
RTVSPost2010PropOp57
 70
     1
102
RTVSPropertyOp0
 70
     1
102
RTVSPropertyOp1
 70
     1
102
RTVSPropertyOp2
 70
     1
102
RTVSPropertyOp3
 70
     1
102
RTVSPropertyOp4
 70
     1
102
RTVSPropertyOp5
 70
     1
102
RTVSPropertyOp6
 70
     1
102
RTVSPropertyOp7
 70
     1
102
RTVSPropertyOp8
 70
     1
102
RTVSPropertyOp9
 70
     1
102
RTVSPropertyOp10
 70
     1
102
RTVSPropertyOp11
 70
     1
102
RTVSPropertyOp12
 70
     1
102
RTVSPropertyOp13
 70
     1
102
RTVSPropertyOp14
 70
     1
102
RTVSPropertyOp15
 70
     1
102
RTVSPropertyOp16
 70
     1
102
RTVSPropertyOp17
 70
     1
102
RTVSPropertyOp18
 70
     1
102
RTVSPropertyOp19
 70
     1
102
RTVSPropertyOp20
 70
     1
102
RTVSPropertyOp21
 70
     1
102
RTVSPropertyOp22
 70
     1
102
RTVSPropertyOp23
 70
     1
102
RTVSPropertyOp24
 70
     1
102
RTVSPropertyOp25
 70
     1
102
RTVSPropertyOp26
 70
     1
102
RTVSPropertyOp27
 70
     1
102
RTVSPropertyOp28
 70
     1
102
RTVSPropertyOp29
 70
     1
102
RTVSPropertyOp30
 70
     1
102
RTVSPropertyOp31
 70
     1
102
RTVSPropertyOp32
 70
     1
102
RTVSPropertyOp33
 70
     1
102
RTVSPropertyOp34
 70
     1
102
RTVSPropertyOp35
 70
     1
102
RTVSPropertyOp36
 70
     1
102
RTVSPropertyOp37
 70
     1
102
RTVSPropertyOp38
 70
     1
102
RTVSPropertyOp39
 70
     1
102
RTVSPropertyOp40
 70
     1
102
RTVSPropertyOp41
 70
     1
102
RTVSPropertyOp42
 70
     1
102
RTVSPropertyOp43
 70
     1
102
RTVSPropertyOp44
 70
     1
102
RTVSPropertyOp45
 70
     1
102
RTVSPropertyOp46
 70
     1
102
RTVSPropertyOp47
 70
     1
102
RTVSPropertyOp48
 70
     1
102
RTVSPropertyOp49
 70
     1
102
RTVSPropertyOp50
 70
     1
102
RTVSPropertyOp51
 70
     0
102
RTVSPropertyOp52
 70
     0
102
RTVSPropertyOp53
 70
     1
102
RTVSPropertyOp54
 70
     1
102
RTVSPropertyOp55
 70
     1
102
RTVSPropertyOp56
 70
     1
102
RTVSPropertyOp57
 70
     1
102
RTVSPropertyOp58
 70
     1
102
RTVSPropertyOp59
 70
     1
102
RTVSPropertyOp60
 70
     1
102
RTVSPropertyOp61
 70
     1
102
RTVSPropertyOp62
 70
     1
  0
XRECORD
  5
3446
102
{ACAD_REACTORS
330
3445
102
}
330
3445
100
AcDbXrecord
280
     1
102
RTVSPost2010Prop28
280
     0
102
RTVSPost2010PropOp28
 70
     1
102
RTVSPost2010Prop29
280
     1
102
RTVSPost2010PropOp29
 70
     1
102
RTVSPost2010Prop30
280
     1
102
RTVSPost2010PropOp30
 70
     1
102
RTVSPost2010Prop31
280
     0
102
RTVSPost2010PropOp31
 70
     1
102
RTVSPost2010Prop32
280
     0
102
RTVSPost2010PropOp32
 70
     1
102
RTVSPost2010Prop33
280
     0
102
RTVSPost2010PropOp33
 70
     1
102
RTVSPost2010Prop34
280
     0
102
RTVSPost2010PropOp34
 70
     1
102
RTVSPost2010Prop35
280
     0
102
RTVSPost2010PropOp35
 70
     1
102
RTVSPost2010Prop36
280
     0
102
RTVSPost2010PropOp36
 70
     1
102
RTVSPost2010Prop37
 90
       50
102
RTVSPost2010PropOp37
 70
     1
102
RTVSPost2010Prop38
140
0.0
102
RTVSPost2010PropOp38
 70
     1
102
RTVSPost2010Prop39
140
1.0
102
RTVSPost2010PropOp39
 70
     1
102
RTVSPost2010Prop40
 90
        0
102
RTVSPost2010PropOp40
 70
     1
102
RTVSPost2010Prop41ColorIndex
 90
       18
102
RTVSPost2010Prop41ColorRGB
 90
        0
102
RTVSPost2010PropOp41
 70
     1
102
RTVSPost2010Prop42
 90
       50
102
RTVSPost2010PropOp42
 70
     1
102
RTVSPost2010Prop43
 90
        3
102
RTVSPost2010PropOp43
 70
     1
102
RTVSPost2010Prop44ColorIndex
 90
        5
102
RTVSPost2010Prop44ColorRGB
 90
      255
102
RTVSPost2010PropOp44
 70
     1
102
RTVSPost2010Prop45
280
     0
102
RTVSPost2010PropOp45
 70
     1
102
RTVSPost2010Prop46
 90
       50
102
RTVSPost2010PropOp46
 70
     1
102
RTVSPost2010Prop47
 90
       50
102
RTVSPost2010PropOp47
 70
     1
102
RTVSPost2010Prop48
 90
       50
102
RTVSPost2010PropOp48
 70
     1
102
RTVSPost2010Prop49
280
     0
102
RTVSPost2010PropOp49
 70
     1
102
RTVSPost2010Prop50
 90
       50
102
RTVSPost2010PropOp50
 70
     1
102
RTVSPost2010Prop51ColorIndex
 90
      256
102
RTVSPost2010Prop51ColorRGB
 90
-16777216
102
RTVSPost2010PropOp51
 70
     0
102
RTVSPost2010Prop52
140
1.0
102
RTVSPost2010PropOp52
 70
     0
102
RTVSPost2010Prop53
 90
        2
102
RTVSPost2010PropOp53
 70
     1
102
RTVSPost2010Prop54
  1
strokes_ogs.tif
102
RTVSPost2010PropOp54
 70
     1
102
RTVSPost2010Prop55
280
     0
102
RTVSPost2010PropOp55
 70
     1
102
RTVSPost2010Prop56
140
1.0
102
RTVSPost2010PropOp56
 70
     1
102
RTVSPost2010Prop57
140
1.0
102
RTVSPost2010PropOp57
 70
     1
102
RTVSPropertyOp0
 70
     1
102
RTVSPropertyOp1
 70
     1
102
RTVSPropertyOp2
 70
     1
102
RTVSPropertyOp3
 70
     1
102
RTVSPropertyOp4
 70
     1
102
RTVSPropertyOp5
 70
     1
102
RTVSPropertyOp6
 70
     1
102
RTVSPropertyOp7
 70
     1
102
RTVSPropertyOp8
 70
     1
102
RTVSPropertyOp9
 70
     1
102
RTVSPropertyOp10
 70
     1
102
RTVSPropertyOp11
 70
     1
102
RTVSPropertyOp12
 70
     1
102
RTVSPropertyOp13
 70
     1
102
RTVSPropertyOp14
 70
     1
102
RTVSPropertyOp15
 70
     1
102
RTVSPropertyOp16
 70
     1
102
RTVSPropertyOp17
 70
     1
102
RTVSPropertyOp18
 70
     1
102
RTVSPropertyOp19
 70
     1
102
RTVSPropertyOp20
 70
     1
102
RTVSPropertyOp21
 70
     1
102
RTVSPropertyOp22
 70
     1
102
RTVSPropertyOp23
 70
     1
102
RTVSPropertyOp24
 70
     1
102
RTVSPropertyOp25
 70
     1
102
RTVSPropertyOp26
 70
     1
102
RTVSPropertyOp27
 70
     1
102
RTVSPropertyOp28
 70
     1
102
RTVSPropertyOp29
 70
     1
102
RTVSPropertyOp30
 70
     1
102
RTVSPropertyOp31
 70
     1
102
RTVSPropertyOp32
 70
     1
102
RTVSPropertyOp33
 70
     1
102
RTVSPropertyOp34
 70
     1
102
RTVSPropertyOp35
 70
     1
102
RTVSPropertyOp36
 70
     1
102
RTVSPropertyOp37
 70
     1
102
RTVSPropertyOp38
 70
     1
102
RTVSPropertyOp39
 70
     1
102
RTVSPropertyOp40
 70
     1
102
RTVSPropertyOp41
 70
     1
102
RTVSPropertyOp42
 70
     1
102
RTVSPropertyOp43
 70
     1
102
RTVSPropertyOp44
 70
     1
102
RTVSPropertyOp45
 70
     1
102
RTVSPropertyOp46
 70
     1
102
RTVSPropertyOp47
 70
     1
102
RTVSPropertyOp48
 70
     1
102
RTVSPropertyOp49
 70
     1
102
RTVSPropertyOp50
 70
     1
102
RTVSPropertyOp51
 70
     0
102
RTVSPropertyOp52
 70
     0
102
RTVSPropertyOp53
 70
     1
102
RTVSPropertyOp54
 70
     1
102
RTVSPropertyOp55
 70
     1
102
RTVSPropertyOp56
 70
     1
102
RTVSPropertyOp57
 70
     1
102
RTVSPropertyOp58
 70
     1
102
RTVSPropertyOp59
 70
     1
102
RTVSPropertyOp60
 70
     1
102
RTVSPropertyOp61
 70
     1
102
RTVSPropertyOp62
 70
     1
  0
XRECORD
  5
3448
102
{ACAD_REACTORS
330
3447
102
}
330
3447
100
AcDbXrecord
280
     1
102
RTVSPost2010Prop28
280
     0
102
RTVSPost2010PropOp28
 70
     1
102
RTVSPost2010Prop29
280
     1
102
RTVSPost2010PropOp29
 70
     1
102
RTVSPost2010Prop30
280
     1
102
RTVSPost2010PropOp30
 70
     1
102
RTVSPost2010Prop31
280
     0
102
RTVSPost2010PropOp31
 70
     1
102
RTVSPost2010Prop32
280
     0
102
RTVSPost2010PropOp32
 70
     1
102
RTVSPost2010Prop33
280
     0
102
RTVSPost2010PropOp33
 70
     1
102
RTVSPost2010Prop34
280
     0
102
RTVSPost2010PropOp34
 70
     1
102
RTVSPost2010Prop35
280
     0
102
RTVSPost2010PropOp35
 70
     1
102
RTVSPost2010Prop36
280
     0
102
RTVSPost2010PropOp36
 70
     1
102
RTVSPost2010Prop37
 90
       50
102
RTVSPost2010PropOp37
 70
     1
102
RTVSPost2010Prop38
140
0.0
102
RTVSPost2010PropOp38
 70
     1
102
RTVSPost2010Prop39
140
1.0
102
RTVSPost2010PropOp39
 70
     1
102
RTVSPost2010Prop40
 90
        0
102
RTVSPost2010PropOp40
 70
     1
102
RTVSPost2010Prop41ColorIndex
 90
       18
102
RTVSPost2010Prop41ColorRGB
 90
        0
102
RTVSPost2010PropOp41
 70
     1
102
RTVSPost2010Prop42
 90
       50
102
RTVSPost2010PropOp42
 70
     1
102
RTVSPost2010Prop43
 90
        3
102
RTVSPost2010PropOp43
 70
     1
102
RTVSPost2010Prop44ColorIndex
 90
        5
102
RTVSPost2010Prop44ColorRGB
 90
      255
102
RTVSPost2010PropOp44
 70
     1
102
RTVSPost2010Prop45
280
     0
102
RTVSPost2010PropOp45
 70
     1
102
RTVSPost2010Prop46
 90
       50
102
RTVSPost2010PropOp46
 70
     1
102
RTVSPost2010Prop47
 90
       50
102
RTVSPost2010PropOp47
 70
     1
102
RTVSPost2010Prop48
 90
       50
102
RTVSPost2010PropOp48
 70
     1
102
RTVSPost2010Prop49
280
     0
102
RTVSPost2010PropOp49
 70
     1
102
RTVSPost2010Prop50
 90
       50
102
RTVSPost2010PropOp50
 70
     1
102
RTVSPost2010Prop51ColorIndex
 90
      256
102
RTVSPost2010Prop51ColorRGB
 90
-16777216
102
RTVSPost2010PropOp51
 70
     0
102
RTVSPost2010Prop52
140
1.0
102
RTVSPost2010PropOp52
 70
     0
102
RTVSPost2010Prop53
 90
        2
102
RTVSPost2010PropOp53
 70
     1
102
RTVSPost2010Prop54
  1
strokes_ogs.tif
102
RTVSPost2010PropOp54
 70
     1
102
RTVSPost2010Prop55
280
     0
102
RTVSPost2010PropOp55
 70
     1
102
RTVSPost2010Prop56
140
1.0
102
RTVSPost2010PropOp56
 70
     1
102
RTVSPost2010Prop57
140
1.0
102
RTVSPost2010PropOp57
 70
     1
102
RTVSPropertyOp0
 70
     1
102
RTVSPropertyOp1
 70
     1
102
RTVSPropertyOp2
 70
     1
102
RTVSPropertyOp3
 70
     1
102
RTVSPropertyOp4
 70
     1
102
RTVSPropertyOp5
 70
     1
102
RTVSPropertyOp6
 70
     1
102
RTVSPropertyOp7
 70
     1
102
RTVSPropertyOp8
 70
     1
102
RTVSPropertyOp9
 70
     1
102
RTVSPropertyOp10
 70
     1
102
RTVSPropertyOp11
 70
     1
102
RTVSPropertyOp12
 70
     1
102
RTVSPropertyOp13
 70
     1
102
RTVSPropertyOp14
 70
     1
102
RTVSPropertyOp15
 70
     1
102
RTVSPropertyOp16
 70
     1
102
RTVSPropertyOp17
 70
     1
102
RTVSPropertyOp18
 70
     1
102
RTVSPropertyOp19
 70
     1
102
RTVSPropertyOp20
 70
     1
102
RTVSPropertyOp21
 70
     1
102
RTVSPropertyOp22
 70
     1
102
RTVSPropertyOp23
 70
     1
102
RTVSPropertyOp24
 70
     1
102
RTVSPropertyOp25
 70
     1
102
RTVSPropertyOp26
 70
     1
102
RTVSPropertyOp27
 70
     1
102
RTVSPropertyOp28
 70
     1
102
RTVSPropertyOp29
 70
     1
102
RTVSPropertyOp30
 70
     1
102
RTVSPropertyOp31
 70
     1
102
RTVSPropertyOp32
 70
     1
102
RTVSPropertyOp33
 70
     1
102
RTVSPropertyOp34
 70
     1
102
RTVSPropertyOp35
 70
     1
102
RTVSPropertyOp36
 70
     1
102
RTVSPropertyOp37
 70
     1
102
RTVSPropertyOp38
 70
     1
102
RTVSPropertyOp39
 70
     1
102
RTVSPropertyOp40
 70
     1
102
RTVSPropertyOp41
 70
     1
102
RTVSPropertyOp42
 70
     1
102
RTVSPropertyOp43
 70
     1
102
RTVSPropertyOp44
 70
     1
102
RTVSPropertyOp45
 70
     1
102
RTVSPropertyOp46
 70
     1
102
RTVSPropertyOp47
 70
     1
102
RTVSPropertyOp48
 70
     1
102
RTVSPropertyOp49
 70
     1
102
RTVSPropertyOp50
 70
     1
102
RTVSPropertyOp51
 70
     0
102
RTVSPropertyOp52
 70
     0
102
RTVSPropertyOp53
 70
     1
102
RTVSPropertyOp54
 70
     1
102
RTVSPropertyOp55
 70
     1
102
RTVSPropertyOp56
 70
     1
102
RTVSPropertyOp57
 70
     1
102
RTVSPropertyOp58
 70
     1
102
RTVSPropertyOp59
 70
     1
102
RTVSPropertyOp60
 70
     1
102
RTVSPropertyOp61
 70
     1
102
RTVSPropertyOp62
 70
     1
  0
XRECORD
  5
344A
102
{ACAD_REACTORS
330
3449
102
}
330
3449
100
AcDbXrecord
280
     1
102
RTVSPost2010Prop28
280
     0
102
RTVSPost2010PropOp28
 70
     1
102
RTVSPost2010Prop29
280
     1
102
RTVSPost2010PropOp29
 70
     1
102
RTVSPost2010Prop30
280
     1
102
RTVSPost2010PropOp30
 70
     1
102
RTVSPost2010Prop31
280
     0
102
RTVSPost2010PropOp31
 70
     1
102
RTVSPost2010Prop32
280
     0
102
RTVSPost2010PropOp32
 70
     1
102
RTVSPost2010Prop33
280
     0
102
RTVSPost2010PropOp33
 70
     1
102
RTVSPost2010Prop34
280
     0
102
RTVSPost2010PropOp34
 70
     1
102
RTVSPost2010Prop35
280
     0
102
RTVSPost2010PropOp35
 70
     1
102
RTVSPost2010Prop36
280
     0
102
RTVSPost2010PropOp36
 70
     1
102
RTVSPost2010Prop37
 90
       50
102
RTVSPost2010PropOp37
 70
     1
102
RTVSPost2010Prop38
140
0.0
102
RTVSPost2010PropOp38
 70
     1
102
RTVSPost2010Prop39
140
1.0
102
RTVSPost2010PropOp39
 70
     1
102
RTVSPost2010Prop40
 90
        0
102
RTVSPost2010PropOp40
 70
     1
102
RTVSPost2010Prop41ColorIndex
 90
       18
102
RTVSPost2010Prop41ColorRGB
 90
        0
102
RTVSPost2010PropOp41
 70
     1
102
RTVSPost2010Prop42
 90
       50
102
RTVSPost2010PropOp42
 70
     1
102
RTVSPost2010Prop43
 90
        3
102
RTVSPost2010PropOp43
 70
     1
102
RTVSPost2010Prop44ColorIndex
 90
        5
102
RTVSPost2010Prop44ColorRGB
 90
      255
102
RTVSPost2010PropOp44
 70
     1
102
RTVSPost2010Prop45
280
     0
102
RTVSPost2010PropOp45
 70
     1
102
RTVSPost2010Prop46
 90
       50
102
RTVSPost2010PropOp46
 70
     1
102
RTVSPost2010Prop47
 90
       50
102
RTVSPost2010PropOp47
 70
     1
102
RTVSPost2010Prop48
 90
       50
102
RTVSPost2010PropOp48
 70
     1
102
RTVSPost2010Prop49
280
     0
102
RTVSPost2010PropOp49
 70
     1
102
RTVSPost2010Prop50
 90
       50
102
RTVSPost2010PropOp50
 70
     1
102
RTVSPost2010Prop51ColorIndex
 90
      256
102
RTVSPost2010Prop51ColorRGB
 90
-16777216
102
RTVSPost2010PropOp51
 70
     0
102
RTVSPost2010Prop52
140
1.0
102
RTVSPost2010PropOp52
 70
     0
102
RTVSPost2010Prop53
 90
        2
102
RTVSPost2010PropOp53
 70
     1
102
RTVSPost2010Prop54
  1
strokes_ogs.tif
102
RTVSPost2010PropOp54
 70
     1
102
RTVSPost2010Prop55
280
     0
102
RTVSPost2010PropOp55
 70
     1
102
RTVSPost2010Prop56
140
1.0
102
RTVSPost2010PropOp56
 70
     1
102
RTVSPost2010Prop57
140
1.0
102
RTVSPost2010PropOp57
 70
     1
102
RTVSPropertyOp0
 70
     1
102
RTVSPropertyOp1
 70
     1
102
RTVSPropertyOp2
 70
     1
102
RTVSPropertyOp3
 70
     1
102
RTVSPropertyOp4
 70
     1
102
RTVSPropertyOp5
 70
     1
102
RTVSPropertyOp6
 70
     1
102
RTVSPropertyOp7
 70
     1
102
RTVSPropertyOp8
 70
     1
102
RTVSPropertyOp9
 70
     1
102
RTVSPropertyOp10
 70
     1
102
RTVSPropertyOp11
 70
     1
102
RTVSPropertyOp12
 70
     1
102
RTVSPropertyOp13
 70
     1
102
RTVSPropertyOp14
 70
     1
102
RTVSPropertyOp15
 70
     1
102
RTVSPropertyOp16
 70
     1
102
RTVSPropertyOp17
 70
     1
102
RTVSPropertyOp18
 70
     1
102
RTVSPropertyOp19
 70
     1
102
RTVSPropertyOp20
 70
     1
102
RTVSPropertyOp21
 70
     1
102
RTVSPropertyOp22
 70
     1
102
RTVSPropertyOp23
 70
     1
102
RTVSPropertyOp24
 70
     1
102
RTVSPropertyOp25
 70
     1
102
RTVSPropertyOp26
 70
     1
102
RTVSPropertyOp27
 70
     1
102
RTVSPropertyOp28
 70
     1
102
RTVSPropertyOp29
 70
     1
102
RTVSPropertyOp30
 70
     1
102
RTVSPropertyOp31
 70
     1
102
RTVSPropertyOp32
 70
     1
102
RTVSPropertyOp33
 70
     1
102
RTVSPropertyOp34
 70
     1
102
RTVSPropertyOp35
 70
     1
102
RTVSPropertyOp36
 70
     1
102
RTVSPropertyOp37
 70
     1
102
RTVSPropertyOp38
 70
     1
102
RTVSPropertyOp39
 70
     1
102
RTVSPropertyOp40
 70
     1
102
RTVSPropertyOp41
 70
     1
102
RTVSPropertyOp42
 70
     1
102
RTVSPropertyOp43
 70
     1
102
RTVSPropertyOp44
 70
     1
102
RTVSPropertyOp45
 70
     1
102
RTVSPropertyOp46
 70
     1
102
RTVSPropertyOp47
 70
     1
102
RTVSPropertyOp48
 70
     1
102
RTVSPropertyOp49
 70
     1
102
RTVSPropertyOp50
 70
     1
102
RTVSPropertyOp51
 70
     0
102
RTVSPropertyOp52
 70
     0
102
RTVSPropertyOp53
 70
     1
102
RTVSPropertyOp54
 70
     1
102
RTVSPropertyOp55
 70
     1
102
RTVSPropertyOp56
 70
     1
102
RTVSPropertyOp57
 70
     1
102
RTVSPropertyOp58
 70
     1
102
RTVSPropertyOp59
 70
     1
102
RTVSPropertyOp60
 70
     1
102
RTVSPropertyOp61
 70
     1
102
RTVSPropertyOp62
 70
     1
  0
XRECORD
  5
344C
102
{ACAD_REACTORS
330
344B
102
}
330
344B
100
AcDbXrecord
280
     1
102
RTVSPost2010Prop28
280
     0
102
RTVSPost2010PropOp28
 70
     1
102
RTVSPost2010Prop29
280
     1
102
RTVSPost2010PropOp29
 70
     1
102
RTVSPost2010Prop30
280
     1
102
RTVSPost2010PropOp30
 70
     1
102
RTVSPost2010Prop31
280
     0
102
RTVSPost2010PropOp31
 70
     1
102
RTVSPost2010Prop32
280
     0
102
RTVSPost2010PropOp32
 70
     1
102
RTVSPost2010Prop33
280
     0
102
RTVSPost2010PropOp33
 70
     1
102
RTVSPost2010Prop34
280
     0
102
RTVSPost2010PropOp34
 70
     1
102
RTVSPost2010Prop35
280
     0
102
RTVSPost2010PropOp35
 70
     1
102
RTVSPost2010Prop36
280
     0
102
RTVSPost2010PropOp36
 70
     1
102
RTVSPost2010Prop37
 90
       50
102
RTVSPost2010PropOp37
 70
     1
102
RTVSPost2010Prop38
140
0.0
102
RTVSPost2010PropOp38
 70
     1
102
RTVSPost2010Prop39
140
1.0
102
RTVSPost2010PropOp39
 70
     1
102
RTVSPost2010Prop40
 90
        0
102
RTVSPost2010PropOp40
 70
     1
102
RTVSPost2010Prop41ColorIndex
 90
       18
102
RTVSPost2010Prop41ColorRGB
 90
        0
102
RTVSPost2010PropOp41
 70
     1
102
RTVSPost2010Prop42
 90
       50
102
RTVSPost2010PropOp42
 70
     1
102
RTVSPost2010Prop43
 90
        3
102
RTVSPost2010PropOp43
 70
     1
102
RTVSPost2010Prop44ColorIndex
 90
        5
102
RTVSPost2010Prop44ColorRGB
 90
      255
102
RTVSPost2010PropOp44
 70
     1
102
RTVSPost2010Prop45
280
     0
102
RTVSPost2010PropOp45
 70
     1
102
RTVSPost2010Prop46
 90
       50
102
RTVSPost2010PropOp46
 70
     1
102
RTVSPost2010Prop47
 90
       50
102
RTVSPost2010PropOp47
 70
     1
102
RTVSPost2010Prop48
 90
       50
102
RTVSPost2010PropOp48
 70
     1
102
RTVSPost2010Prop49
280
     0
102
RTVSPost2010PropOp49
 70
     1
102
RTVSPost2010Prop50
 90
       50
102
RTVSPost2010PropOp50
 70
     1
102
RTVSPost2010Prop51ColorIndex
 90
      256
102
RTVSPost2010Prop51ColorRGB
 90
-16777216
102
RTVSPost2010PropOp51
 70
     0
102
RTVSPost2010Prop52
140
1.0
102
RTVSPost2010PropOp52
 70
     0
102
RTVSPost2010Prop53
 90
        2
102
RTVSPost2010PropOp53
 70
     1
102
RTVSPost2010Prop54
  1
strokes_ogs.tif
102
RTVSPost2010PropOp54
 70
     1
102
RTVSPost2010Prop55
280
     0
102
RTVSPost2010PropOp55
 70
     1
102
RTVSPost2010Prop56
140
1.0
102
RTVSPost2010PropOp56
 70
     1
102
RTVSPost2010Prop57
140
1.0
102
RTVSPost2010PropOp57
 70
     1
102
RTVSPropertyOp0
 70
     1
102
RTVSPropertyOp1
 70
     1
102
RTVSPropertyOp2
 70
     1
102
RTVSPropertyOp3
 70
     1
102
RTVSPropertyOp4
 70
     1
102
RTVSPropertyOp5
 70
     1
102
RTVSPropertyOp6
 70
     1
102
RTVSPropertyOp7
 70
     1
102
RTVSPropertyOp8
 70
     1
102
RTVSPropertyOp9
 70
     1
102
RTVSPropertyOp10
 70
     1
102
RTVSPropertyOp11
 70
     1
102
RTVSPropertyOp12
 70
     1
102
RTVSPropertyOp13
 70
     1
102
RTVSPropertyOp14
 70
     1
102
RTVSPropertyOp15
 70
     1
102
RTVSPropertyOp16
 70
     1
102
RTVSPropertyOp17
 70
     1
102
RTVSPropertyOp18
 70
     1
102
RTVSPropertyOp19
 70
     1
102
RTVSPropertyOp20
 70
     1
102
RTVSPropertyOp21
 70
     1
102
RTVSPropertyOp22
 70
     1
102
RTVSPropertyOp23
 70
     1
102
RTVSPropertyOp24
 70
     1
102
RTVSPropertyOp25
 70
     1
102
RTVSPropertyOp26
 70
     1
102
RTVSPropertyOp27
 70
     1
102
RTVSPropertyOp28
 70
     1
102
RTVSPropertyOp29
 70
     1
102
RTVSPropertyOp30
 70
     1
102
RTVSPropertyOp31
 70
     1
102
RTVSPropertyOp32
 70
     1
102
RTVSPropertyOp33
 70
     1
102
RTVSPropertyOp34
 70
     1
102
RTVSPropertyOp35
 70
     1
102
RTVSPropertyOp36
 70
     1
102
RTVSPropertyOp37
 70
     1
102
RTVSPropertyOp38
 70
     1
102
RTVSPropertyOp39
 70
     1
102
RTVSPropertyOp40
 70
     1
102
RTVSPropertyOp41
 70
     1
102
RTVSPropertyOp42
 70
     1
102
RTVSPropertyOp43
 70
     1
102
RTVSPropertyOp44
 70
     1
102
RTVSPropertyOp45
 70
     1
102
RTVSPropertyOp46
 70
     1
102
RTVSPropertyOp47
 70
     1
102
RTVSPropertyOp48
 70
     1
102
RTVSPropertyOp49
 70
     1
102
RTVSPropertyOp50
 70
     1
102
RTVSPropertyOp51
 70
     0
102
RTVSPropertyOp52
 70
     0
102
RTVSPropertyOp53
 70
     1
102
RTVSPropertyOp54
 70
     1
102
RTVSPropertyOp55
 70
     1
102
RTVSPropertyOp56
 70
     1
102
RTVSPropertyOp57
 70
     1
102
RTVSPropertyOp58
 70
     1
102
RTVSPropertyOp59
 70
     1
102
RTVSPropertyOp60
 70
     1
102
RTVSPropertyOp61
 70
     1
102
RTVSPropertyOp62
 70
     1
  0
XRECORD
  5
3454
102
{ACAD_REACTORS
330
3453
102
}
330
3453
100
AcDbXrecord
280
     1
102
RTVSPost2010Prop28
280
     0
102
RTVSPost2010PropOp28
 70
     1
102
RTVSPost2010Prop29
280
     1
102
RTVSPost2010PropOp29
 70
     1
102
RTVSPost2010Prop30
280
     1
102
RTVSPost2010PropOp30
 70
     1
102
RTVSPost2010Prop31
280
     0
102
RTVSPost2010PropOp31
 70
     1
102
RTVSPost2010Prop32
280
     0
102
RTVSPost2010PropOp32
 70
     1
102
RTVSPost2010Prop33
280
     0
102
RTVSPost2010PropOp33
 70
     1
102
RTVSPost2010Prop34
280
     0
102
RTVSPost2010PropOp34
 70
     1
102
RTVSPost2010Prop35
280
     0
102
RTVSPost2010PropOp35
 70
     1
102
RTVSPost2010Prop36
280
     0
102
RTVSPost2010PropOp36
 70
     1
102
RTVSPost2010Prop37
 90
       50
102
RTVSPost2010PropOp37
 70
     1
102
RTVSPost2010Prop38
140
0.0
102
RTVSPost2010PropOp38
 70
     1
102
RTVSPost2010Prop39
140
1.0
102
RTVSPost2010PropOp39
 70
     1
102
RTVSPost2010Prop40
 90
        0
102
RTVSPost2010PropOp40
 70
     1
102
RTVSPost2010Prop41ColorIndex
 90
       18
102
RTVSPost2010Prop41ColorRGB
 90
        0
102
RTVSPost2010PropOp41
 70
     1
102
RTVSPost2010Prop42
 90
       50
102
RTVSPost2010PropOp42
 70
     1
102
RTVSPost2010Prop43
 90
        3
102
RTVSPost2010PropOp43
 70
     1
102
RTVSPost2010Prop44ColorIndex
 90
        5
102
RTVSPost2010Prop44ColorRGB
 90
      255
102
RTVSPost2010PropOp44
 70
     1
102
RTVSPost2010Prop45
280
     0
102
RTVSPost2010PropOp45
 70
     1
102
RTVSPost2010Prop46
 90
       50
102
RTVSPost2010PropOp46
 70
     1
102
RTVSPost2010Prop47
 90
       50
102
RTVSPost2010PropOp47
 70
     1
102
RTVSPost2010Prop48
 90
       50
102
RTVSPost2010PropOp48
 70
     1
102
RTVSPost2010Prop49
280
     0
102
RTVSPost2010PropOp49
 70
     1
102
RTVSPost2010Prop50
 90
       50
102
RTVSPost2010PropOp50
 70
     1
102
RTVSPost2010Prop51ColorIndex
 90
      256
102
RTVSPost2010Prop51ColorRGB
 90
-16777216
102
RTVSPost2010PropOp51
 70
     0
102
RTVSPost2010Prop52
140
1.0
102
RTVSPost2010PropOp52
 70
     0
102
RTVSPost2010Prop53
 90
        2
102
RTVSPost2010PropOp53
 70
     1
102
RTVSPost2010Prop54
  1
strokes_ogs.tif
102
RTVSPost2010PropOp54
 70
     1
102
RTVSPost2010Prop55
280
     0
102
RTVSPost2010PropOp55
 70
     1
102
RTVSPost2010Prop56
140
1.0
102
RTVSPost2010PropOp56
 70
     1
102
RTVSPost2010Prop57
140
1.0
102
RTVSPost2010PropOp57
 70
     1
102
RTVSPropertyOp0
 70
     1
102
RTVSPropertyOp1
 70
     1
102
RTVSPropertyOp2
 70
     1
102
RTVSPropertyOp3
 70
     1
102
RTVSPropertyOp4
 70
     1
102
RTVSPropertyOp5
 70
     1
102
RTVSPropertyOp6
 70
     1
102
RTVSPropertyOp7
 70
     1
102
RTVSPropertyOp8
 70
     1
102
RTVSPropertyOp9
 70
     1
102
RTVSPropertyOp10
 70
     1
102
RTVSPropertyOp11
 70
     1
102
RTVSPropertyOp12
 70
     1
102
RTVSPropertyOp13
 70
     1
102
RTVSPropertyOp14
 70
     1
102
RTVSPropertyOp15
 70
     1
102
RTVSPropertyOp16
 70
     1
102
RTVSPropertyOp17
 70
     1
102
RTVSPropertyOp18
 70
     1
102
RTVSPropertyOp19
 70
     1
102
RTVSPropertyOp20
 70
     1
102
RTVSPropertyOp21
 70
     1
102
RTVSPropertyOp22
 70
     1
102
RTVSPropertyOp23
 70
     1
102
RTVSPropertyOp24
 70
     1
102
RTVSPropertyOp25
 70
     1
102
RTVSPropertyOp26
 70
     1
102
RTVSPropertyOp27
 70
     1
102
RTVSPropertyOp28
 70
     1
102
RTVSPropertyOp29
 70
     1
102
RTVSPropertyOp30
 70
     1
102
RTVSPropertyOp31
 70
     1
102
RTVSPropertyOp32
 70
     1
102
RTVSPropertyOp33
 70
     1
102
RTVSPropertyOp34
 70
     1
102
RTVSPropertyOp35
 70
     1
102
RTVSPropertyOp36
 70
     1
102
RTVSPropertyOp37
 70
     1
102
RTVSPropertyOp38
 70
     1
102
RTVSPropertyOp39
 70
     1
102
RTVSPropertyOp40
 70
     1
102
RTVSPropertyOp41
 70
     1
102
RTVSPropertyOp42
 70
     1
102
RTVSPropertyOp43
 70
     1
102
RTVSPropertyOp44
 70
     1
102
RTVSPropertyOp45
 70
     1
102
RTVSPropertyOp46
 70
     1
102
RTVSPropertyOp47
 70
     1
102
RTVSPropertyOp48
 70
     1
102
RTVSPropertyOp49
 70
     1
102
RTVSPropertyOp50
 70
     1
102
RTVSPropertyOp51
 70
     0
102
RTVSPropertyOp52
 70
     0
102
RTVSPropertyOp53
 70
     1
102
RTVSPropertyOp54
 70
     1
102
RTVSPropertyOp55
 70
     1
102
RTVSPropertyOp56
 70
     1
102
RTVSPropertyOp57
 70
     1
102
RTVSPropertyOp58
 70
     1
102
RTVSPropertyOp59
 70
     1
102
RTVSPropertyOp60
 70
     1
102
RTVSPropertyOp61
 70
     1
102
RTVSPropertyOp62
 70
     1
  0
XRECORD
  5
3470
102
{ACAD_REACTORS
330
346F
102
}
330
346F
100
AcDbXrecord
280
     1
102
RTVSPost2010Prop28
280
     0
102
RTVSPost2010PropOp28
 70
     0
102
RTVSPost2010Prop29
280
     1
102
RTVSPost2010PropOp29
 70
     0
102
RTVSPost2010Prop30
280
     1
102
RTVSPost2010PropOp30
 70
     0
102
RTVSPost2010Prop31
280
     0
102
RTVSPost2010PropOp31
 70
     0
102
RTVSPost2010Prop32
280
     0
102
RTVSPost2010PropOp32
 70
     0
102
RTVSPost2010Prop33
280
     0
102
RTVSPost2010PropOp33
 70
     0
102
RTVSPost2010Prop34
280
     0
102
RTVSPost2010PropOp34
 70
     0
102
RTVSPost2010Prop35
280
     0
102
RTVSPost2010PropOp35
 70
     0
102
RTVSPost2010Prop36
280
     0
102
RTVSPost2010PropOp36
 70
     0
102
RTVSPost2010Prop37
 90
       50
102
RTVSPost2010PropOp37
 70
     0
102
RTVSPost2010Prop38
140
0.0
102
RTVSPost2010PropOp38
 70
     0
102
RTVSPost2010Prop39
140
1.0
102
RTVSPost2010PropOp39
 70
     0
102
RTVSPost2010Prop40
 90
        0
102
RTVSPost2010PropOp40
 70
     0
102
RTVSPost2010Prop41ColorIndex
 90
       18
102
RTVSPost2010Prop41ColorRGB
 90
        0
102
RTVSPost2010PropOp41
 70
     0
102
RTVSPost2010Prop42
 90
       50
102
RTVSPost2010PropOp42
 70
     0
102
RTVSPost2010Prop43
 90
        3
102
RTVSPost2010PropOp43
 70
     0
102
RTVSPost2010Prop44ColorIndex
 90
        5
102
RTVSPost2010Prop44ColorRGB
 90
      255
102
RTVSPost2010PropOp44
 70
     0
102
RTVSPost2010Prop45
280
     0
102
RTVSPost2010PropOp45
 70
     0
102
RTVSPost2010Prop46
 90
       50
102
RTVSPost2010PropOp46
 70
     0
102
RTVSPost2010Prop47
 90
       50
102
RTVSPost2010PropOp47
 70
     0
102
RTVSPost2010Prop48
 90
       50
102
RTVSPost2010PropOp48
 70
     0
102
RTVSPost2010Prop49
280
     0
102
RTVSPost2010PropOp49
 70
     0
102
RTVSPost2010Prop50
 90
       50
102
RTVSPost2010PropOp50
 70
     0
102
RTVSPost2010Prop51ColorIndex
 90
      256
102
RTVSPost2010Prop51ColorRGB
 90
-16777216
102
RTVSPost2010PropOp51
 70
     0
102
RTVSPost2010Prop52
140
1.0
102
RTVSPost2010PropOp52
 70
     0
102
RTVSPost2010Prop53
 90
        2
102
RTVSPost2010PropOp53
 70
     0
102
RTVSPost2010Prop54
  1
strokes_ogs.tif
102
RTVSPost2010PropOp54
 70
     0
102
RTVSPost2010Prop55
280
     0
102
RTVSPost2010PropOp55
 70
     0
102
RTVSPost2010Prop56
140
1.0
102
RTVSPost2010PropOp56
 70
     0
102
RTVSPost2010Prop57
140
1.0
102
RTVSPost2010PropOp57
 70
     0
102
RTVSPropertyOp0
 70
     0
102
RTVSPropertyOp1
 70
     0
102
RTVSPropertyOp2
 70
     0
102
RTVSPropertyOp3
 70
     0
102
RTVSPropertyOp4
 70
     0
102
RTVSPropertyOp5
 70
     0
102
RTVSPropertyOp6
 70
     0
102
RTVSPropertyOp7
 70
     0
102
RTVSPropertyOp8
 70
     0
102
RTVSPropertyOp9
 70
     0
102
RTVSPropertyOp10
 70
     0
102
RTVSPropertyOp11
 70
     0
102
RTVSPropertyOp12
 70
     0
102
RTVSPropertyOp13
 70
     0
102
RTVSPropertyOp14
 70
     2
102
RTVSPropertyOp15
 70
     0
102
RTVSPropertyOp16
 70
     0
102
RTVSPropertyOp17
 70
     0
102
RTVSPropertyOp18
 70
     0
102
RTVSPropertyOp19
 70
     0
102
RTVSPropertyOp20
 70
     0
102
RTVSPropertyOp21
 70
     0
102
RTVSPropertyOp22
 70
     0
102
RTVSPropertyOp23
 70
     0
102
RTVSPropertyOp24
 70
     0
102
RTVSPropertyOp25
 70
     0
102
RTVSPropertyOp26
 70
     0
102
RTVSPropertyOp27
 70
     0
102
RTVSPropertyOp28
 70
     0
102
RTVSPropertyOp29
 70
     0
102
RTVSPropertyOp30
 70
     0
102
RTVSPropertyOp31
 70
     0
102
RTVSPropertyOp32
 70
     0
102
RTVSPropertyOp33
 70
     0
102
RTVSPropertyOp34
 70
     0
102
RTVSPropertyOp35
 70
     0
102
RTVSPropertyOp36
 70
     0
102
RTVSPropertyOp37
 70
     0
102
RTVSPropertyOp38
 70
     0
102
RTVSPropertyOp39
 70
     0
102
RTVSPropertyOp40
 70
     0
102
RTVSPropertyOp41
 70
     0
102
RTVSPropertyOp42
 70
     0
102
RTVSPropertyOp43
 70
     0
102
RTVSPropertyOp44
 70
     0
102
RTVSPropertyOp45
 70
     0
102
RTVSPropertyOp46
 70
     0
102
RTVSPropertyOp47
 70
     0
102
RTVSPropertyOp48
 70
     0
102
RTVSPropertyOp49
 70
     0
102
RTVSPropertyOp50
 70
     0
102
RTVSPropertyOp51
 70
     0
102
RTVSPropertyOp52
 70
     0
102
RTVSPropertyOp53
 70
     0
102
RTVSPropertyOp54
 70
     0
102
RTVSPropertyOp55
 70
     0
102
RTVSPropertyOp56
 70
     0
102
RTVSPropertyOp57
 70
     0
102
RTVSPropertyOp58
 70
     1
102
RTVSPropertyOp59
 70
     1
102
RTVSPropertyOp60
 70
     1
102
RTVSPropertyOp61
 70
     1
102
RTVSPropertyOp62
 70
     1
  0
XRECORD
  5
3460
102
{ACAD_REACTORS
330
345F
102
}
330
345F
100
AcDbXrecord
280
     1
102
RTVSPost2010Prop28
280
     0
102
RTVSPost2010PropOp28
 70
     1
102
RTVSPost2010Prop29
280
     1
102
RTVSPost2010PropOp29
 70
     1
102
RTVSPost2010Prop30
280
     1
102
RTVSPost2010PropOp30
 70
     1
102
RTVSPost2010Prop31
280
     0
102
RTVSPost2010PropOp31
 70
     1
102
RTVSPost2010Prop32
280
     0
102
RTVSPost2010PropOp32
 70
     1
102
RTVSPost2010Prop33
280
     0
102
RTVSPost2010PropOp33
 70
     1
102
RTVSPost2010Prop34
280
     0
102
RTVSPost2010PropOp34
 70
     1
102
RTVSPost2010Prop35
280
     0
102
RTVSPost2010PropOp35
 70
     1
102
RTVSPost2010Prop36
280
     0
102
RTVSPost2010PropOp36
 70
     1
102
RTVSPost2010Prop37
 90
       50
102
RTVSPost2010PropOp37
 70
     1
102
RTVSPost2010Prop38
140
0.0
102
RTVSPost2010PropOp38
 70
     1
102
RTVSPost2010Prop39
140
1.0
102
RTVSPost2010PropOp39
 70
     1
102
RTVSPost2010Prop40
 90
        0
102
RTVSPost2010PropOp40
 70
     1
102
RTVSPost2010Prop41ColorIndex
 90
       18
102
RTVSPost2010Prop41ColorRGB
 90
        0
102
RTVSPost2010PropOp41
 70
     1
102
RTVSPost2010Prop42
 90
       50
102
RTVSPost2010PropOp42
 70
     1
102
RTVSPost2010Prop43
 90
        3
102
RTVSPost2010PropOp43
 70
     1
102
RTVSPost2010Prop44ColorIndex
 90
        5
102
RTVSPost2010Prop44ColorRGB
 90
      255
102
RTVSPost2010PropOp44
 70
     1
102
RTVSPost2010Prop45
280
     0
102
RTVSPost2010PropOp45
 70
     1
102
RTVSPost2010Prop46
 90
       50
102
RTVSPost2010PropOp46
 70
     1
102
RTVSPost2010Prop47
 90
       50
102
RTVSPost2010PropOp47
 70
     1
102
RTVSPost2010Prop48
 90
       50
102
RTVSPost2010PropOp48
 70
     1
102
RTVSPost2010Prop49
280
     0
102
RTVSPost2010PropOp49
 70
     1
102
RTVSPost2010Prop50
 90
       50
102
RTVSPost2010PropOp50
 70
     1
102
RTVSPost2010Prop51ColorIndex
 90
      256
102
RTVSPost2010Prop51ColorRGB
 90
-16777216
102
RTVSPost2010PropOp51
 70
     0
102
RTVSPost2010Prop52
140
1.0
102
RTVSPost2010PropOp52
 70
     0
102
RTVSPost2010Prop53
 90
        2
102
RTVSPost2010PropOp53
 70
     1
102
RTVSPost2010Prop54
  1
strokes_ogs.tif
102
RTVSPost2010PropOp54
 70
     1
102
RTVSPost2010Prop55
280
     0
102
RTVSPost2010PropOp55
 70
     1
102
RTVSPost2010Prop56
140
1.0
102
RTVSPost2010PropOp56
 70
     1
102
RTVSPost2010Prop57
140
1.0
102
RTVSPost2010PropOp57
 70
     1
102
RTVSPropertyOp0
 70
     1
102
RTVSPropertyOp1
 70
     1
102
RTVSPropertyOp2
 70
     1
102
RTVSPropertyOp3
 70
     1
102
RTVSPropertyOp4
 70
     1
102
RTVSPropertyOp5
 70
     1
102
RTVSPropertyOp6
 70
     1
102
RTVSPropertyOp7
 70
     1
102
RTVSPropertyOp8
 70
     1
102
RTVSPropertyOp9
 70
     1
102
RTVSPropertyOp10
 70
     1
102
RTVSPropertyOp11
 70
     1
102
RTVSPropertyOp12
 70
     1
102
RTVSPropertyOp13
 70
     1
102
RTVSPropertyOp14
 70
     1
102
RTVSPropertyOp15
 70
     1
102
RTVSPropertyOp16
 70
     1
102
RTVSPropertyOp17
 70
     1
102
RTVSPropertyOp18
 70
     1
102
RTVSPropertyOp19
 70
     1
102
RTVSPropertyOp20
 70
     1
102
RTVSPropertyOp21
 70
     1
102
RTVSPropertyOp22
 70
     1
102
RTVSPropertyOp23
 70
     1
102
RTVSPropertyOp24
 70
     1
102
RTVSPropertyOp25
 70
     1
102
RTVSPropertyOp26
 70
     1
102
RTVSPropertyOp27
 70
     1
102
RTVSPropertyOp28
 70
     1
102
RTVSPropertyOp29
 70
     1
102
RTVSPropertyOp30
 70
     1
102
RTVSPropertyOp31
 70
     1
102
RTVSPropertyOp32
 70
     1
102
RTVSPropertyOp33
 70
     1
102
RTVSPropertyOp34
 70
     1
102
RTVSPropertyOp35
 70
     1
102
RTVSPropertyOp36
 70
     1
102
RTVSPropertyOp37
 70
     1
102
RTVSPropertyOp38
 70
     1
102
RTVSPropertyOp39
 70
     1
102
RTVSPropertyOp40
 70
     1
102
RTVSPropertyOp41
 70
     1
102
RTVSPropertyOp42
 70
     1
102
RTVSPropertyOp43
 70
     1
102
RTVSPropertyOp44
 70
     1
102
RTVSPropertyOp45
 70
     1
102
RTVSPropertyOp46
 70
     1
102
RTVSPropertyOp47
 70
     1
102
RTVSPropertyOp48
 70
     1
102
RTVSPropertyOp49
 70
     1
102
RTVSPropertyOp50
 70
     1
102
RTVSPropertyOp51
 70
     0
102
RTVSPropertyOp52
 70
     0
102
RTVSPropertyOp53
 70
     1
102
RTVSPropertyOp54
 70
     1
102
RTVSPropertyOp55
 70
     1
102
RTVSPropertyOp56
 70
     1
102
RTVSPropertyOp57
 70
     1
102
RTVSPropertyOp58
 70
     1
102
RTVSPropertyOp59
 70
     1
102
RTVSPropertyOp60
 70
     1
102
RTVSPropertyOp61
 70
     1
102
RTVSPropertyOp62
 70
     1
  0
XRECORD
  5
3472
102
{ACAD_REACTORS
330
3471
102
}
330
3471
100
AcDbXrecord
280
     1
102
RTVSPost2010Prop28
280
     0
102
RTVSPost2010PropOp28
 70
     0
102
RTVSPost2010Prop29
280
     1
102
RTVSPost2010PropOp29
 70
     0
102
RTVSPost2010Prop30
280
     1
102
RTVSPost2010PropOp30
 70
     0
102
RTVSPost2010Prop31
280
     0
102
RTVSPost2010PropOp31
 70
     0
102
RTVSPost2010Prop32
280
     0
102
RTVSPost2010PropOp32
 70
     0
102
RTVSPost2010Prop33
280
     0
102
RTVSPost2010PropOp33
 70
     0
102
RTVSPost2010Prop34
280
     0
102
RTVSPost2010PropOp34
 70
     0
102
RTVSPost2010Prop35
280
     0
102
RTVSPost2010PropOp35
 70
     0
102
RTVSPost2010Prop36
280
     0
102
RTVSPost2010PropOp36
 70
     0
102
RTVSPost2010Prop37
 90
       50
102
RTVSPost2010PropOp37
 70
     0
102
RTVSPost2010Prop38
140
0.0
102
RTVSPost2010PropOp38
 70
     0
102
RTVSPost2010Prop39
140
1.0
102
RTVSPost2010PropOp39
 70
     0
102
RTVSPost2010Prop40
 90
        0
102
RTVSPost2010PropOp40
 70
     0
102
RTVSPost2010Prop41ColorIndex
 90
       18
102
RTVSPost2010Prop41ColorRGB
 90
        0
102
RTVSPost2010PropOp41
 70
     0
102
RTVSPost2010Prop42
 90
       50
102
RTVSPost2010PropOp42
 70
     0
102
RTVSPost2010Prop43
 90
        3
102
RTVSPost2010PropOp43
 70
     0
102
RTVSPost2010Prop44ColorIndex
 90
        5
102
RTVSPost2010Prop44ColorRGB
 90
      255
102
RTVSPost2010PropOp44
 70
     0
102
RTVSPost2010Prop45
280
     0
102
RTVSPost2010PropOp45
 70
     0
102
RTVSPost2010Prop46
 90
       50
102
RTVSPost2010PropOp46
 70
     0
102
RTVSPost2010Prop47
 90
       50
102
RTVSPost2010PropOp47
 70
     0
102
RTVSPost2010Prop48
 90
       50
102
RTVSPost2010PropOp48
 70
     0
102
RTVSPost2010Prop49
280
     0
102
RTVSPost2010PropOp49
 70
     0
102
RTVSPost2010Prop50
 90
       50
102
RTVSPost2010PropOp50
 70
     0
102
RTVSPost2010Prop51ColorIndex
 90
      256
102
RTVSPost2010Prop51ColorRGB
 90
-16777216
102
RTVSPost2010PropOp51
 70
     0
102
RTVSPost2010Prop52
140
1.0
102
RTVSPost2010PropOp52
 70
     0
102
RTVSPost2010Prop53
 90
        2
102
RTVSPost2010PropOp53
 70
     0
102
RTVSPost2010Prop54
  1
strokes_ogs.tif
102
RTVSPost2010PropOp54
 70
     0
102
RTVSPost2010Prop55
280
     0
102
RTVSPost2010PropOp55
 70
     0
102
RTVSPost2010Prop56
140
1.0
102
RTVSPost2010PropOp56
 70
     0
102
RTVSPost2010Prop57
140
1.0
102
RTVSPost2010PropOp57
 70
     0
102
RTVSPropertyOp0
 70
     0
102
RTVSPropertyOp1
 70
     0
102
RTVSPropertyOp2
 70
     0
102
RTVSPropertyOp3
 70
     0
102
RTVSPropertyOp4
 70
     0
102
RTVSPropertyOp5
 70
     0
102
RTVSPropertyOp6
 70
     0
102
RTVSPropertyOp7
 70
     0
102
RTVSPropertyOp8
 70
     0
102
RTVSPropertyOp9
 70
     0
102
RTVSPropertyOp10
 70
     0
102
RTVSPropertyOp11
 70
     0
102
RTVSPropertyOp12
 70
     0
102
RTVSPropertyOp13
 70
     0
102
RTVSPropertyOp14
 70
     2
102
RTVSPropertyOp15
 70
     0
102
RTVSPropertyOp16
 70
     0
102
RTVSPropertyOp17
 70
     0
102
RTVSPropertyOp18
 70
     0
102
RTVSPropertyOp19
 70
     0
102
RTVSPropertyOp20
 70
     0
102
RTVSPropertyOp21
 70
     0
102
RTVSPropertyOp22
 70
     0
102
RTVSPropertyOp23
 70
     0
102
RTVSPropertyOp24
 70
     0
102
RTVSPropertyOp25
 70
     0
102
RTVSPropertyOp26
 70
     0
102
RTVSPropertyOp27
 70
     0
102
RTVSPropertyOp28
 70
     0
102
RTVSPropertyOp29
 70
     0
102
RTVSPropertyOp30
 70
     0
102
RTVSPropertyOp31
 70
     0
102
RTVSPropertyOp32
 70
     0
102
RTVSPropertyOp33
 70
     0
102
RTVSPropertyOp34
 70
     0
102
RTVSPropertyOp35
 70
     0
102
RTVSPropertyOp36
 70
     0
102
RTVSPropertyOp37
 70
     0
102
RTVSPropertyOp38
 70
     0
102
RTVSPropertyOp39
 70
     0
102
RTVSPropertyOp40
 70
     0
102
RTVSPropertyOp41
 70
     0
102
RTVSPropertyOp42
 70
     0
102
RTVSPropertyOp43
 70
     0
102
RTVSPropertyOp44
 70
     0
102
RTVSPropertyOp45
 70
     0
102
RTVSPropertyOp46
 70
     0
102
RTVSPropertyOp47
 70
     0
102
RTVSPropertyOp48
 70
     0
102
RTVSPropertyOp49
 70
     0
102
RTVSPropertyOp50
 70
     0
102
RTVSPropertyOp51
 70
     0
102
RTVSPropertyOp52
 70
     0
102
RTVSPropertyOp53
 70
     0
102
RTVSPropertyOp54
 70
     0
102
RTVSPropertyOp55
 70
     0
102
RTVSPropertyOp56
 70
     0
102
RTVSPropertyOp57
 70
     0
102
RTVSPropertyOp58
 70
     1
102
RTVSPropertyOp59
 70
     1
102
RTVSPropertyOp60
 70
     1
102
RTVSPropertyOp61
 70
     1
102
RTVSPropertyOp62
 70
     1
  0
XRECORD
  5
3458
102
{ACAD_REACTORS
330
3457
102
}
330
3457
100
AcDbXrecord
280
     1
102
RTVSPost2010Prop28
280
     0
102
RTVSPost2010PropOp28
 70
     1
102
RTVSPost2010Prop29
280
     1
102
RTVSPost2010PropOp29
 70
     1
102
RTVSPost2010Prop30
280
     1
102
RTVSPost2010PropOp30
 70
     1
102
RTVSPost2010Prop31
280
     0
102
RTVSPost2010PropOp31
 70
     1
102
RTVSPost2010Prop32
280
     0
102
RTVSPost2010PropOp32
 70
     1
102
RTVSPost2010Prop33
280
     0
102
RTVSPost2010PropOp33
 70
     1
102
RTVSPost2010Prop34
280
     0
102
RTVSPost2010PropOp34
 70
     1
102
RTVSPost2010Prop35
280
     0
102
RTVSPost2010PropOp35
 70
     1
102
RTVSPost2010Prop36
280
     0
102
RTVSPost2010PropOp36
 70
     1
102
RTVSPost2010Prop37
 90
       50
102
RTVSPost2010PropOp37
 70
     1
102
RTVSPost2010Prop38
140
0.0
102
RTVSPost2010PropOp38
 70
     1
102
RTVSPost2010Prop39
140
1.0
102
RTVSPost2010PropOp39
 70
     1
102
RTVSPost2010Prop40
 90
        0
102
RTVSPost2010PropOp40
 70
     1
102
RTVSPost2010Prop41ColorIndex
 90
       18
102
RTVSPost2010Prop41ColorRGB
 90
        0
102
RTVSPost2010PropOp41
 70
     1
102
RTVSPost2010Prop42
 90
       50
102
RTVSPost2010PropOp42
 70
     1
102
RTVSPost2010Prop43
 90
        3
102
RTVSPost2010PropOp43
 70
     1
102
RTVSPost2010Prop44ColorIndex
 90
        5
102
RTVSPost2010Prop44ColorRGB
 90
      255
102
RTVSPost2010PropOp44
 70
     1
102
RTVSPost2010Prop45
280
     0
102
RTVSPost2010PropOp45
 70
     1
102
RTVSPost2010Prop46
 90
       50
102
RTVSPost2010PropOp46
 70
     1
102
RTVSPost2010Prop47
 90
       50
102
RTVSPost2010PropOp47
 70
     1
102
RTVSPost2010Prop48
 90
       50
102
RTVSPost2010PropOp48
 70
     1
102
RTVSPost2010Prop49
280
     0
102
RTVSPost2010PropOp49
 70
     1
102
RTVSPost2010Prop50
 90
       50
102
RTVSPost2010PropOp50
 70
     1
102
RTVSPost2010Prop51ColorIndex
 90
      256
102
RTVSPost2010Prop51ColorRGB
 90
-16777216
102
RTVSPost2010PropOp51
 70
     0
102
RTVSPost2010Prop52
140
1.0
102
RTVSPost2010PropOp52
 70
     0
102
RTVSPost2010Prop53
 90
        2
102
RTVSPost2010PropOp53
 70
     1
102
RTVSPost2010Prop54
  1
strokes_ogs.tif
102
RTVSPost2010PropOp54
 70
     1
102
RTVSPost2010Prop55
280
     0
102
RTVSPost2010PropOp55
 70
     1
102
RTVSPost2010Prop56
140
1.0
102
RTVSPost2010PropOp56
 70
     1
102
RTVSPost2010Prop57
140
1.0
102
RTVSPost2010PropOp57
 70
     1
102
RTVSPropertyOp0
 70
     1
102
RTVSPropertyOp1
 70
     1
102
RTVSPropertyOp2
 70
     1
102
RTVSPropertyOp3
 70
     1
102
RTVSPropertyOp4
 70
     1
102
RTVSPropertyOp5
 70
     1
102
RTVSPropertyOp6
 70
     1
102
RTVSPropertyOp7
 70
     1
102
RTVSPropertyOp8
 70
     1
102
RTVSPropertyOp9
 70
     1
102
RTVSPropertyOp10
 70
     1
102
RTVSPropertyOp11
 70
     1
102
RTVSPropertyOp12
 70
     1
102
RTVSPropertyOp13
 70
     1
102
RTVSPropertyOp14
 70
     1
102
RTVSPropertyOp15
 70
     1
102
RTVSPropertyOp16
 70
     1
102
RTVSPropertyOp17
 70
     1
102
RTVSPropertyOp18
 70
     1
102
RTVSPropertyOp19
 70
     1
102
RTVSPropertyOp20
 70
     1
102
RTVSPropertyOp21
 70
     1
102
RTVSPropertyOp22
 70
     1
102
RTVSPropertyOp23
 70
     1
102
RTVSPropertyOp24
 70
     1
102
RTVSPropertyOp25
 70
     1
102
RTVSPropertyOp26
 70
     1
102
RTVSPropertyOp27
 70
     1
102
RTVSPropertyOp28
 70
     1
102
RTVSPropertyOp29
 70
     1
102
RTVSPropertyOp30
 70
     1
102
RTVSPropertyOp31
 70
     1
102
RTVSPropertyOp32
 70
     1
102
RTVSPropertyOp33
 70
     1
102
RTVSPropertyOp34
 70
     1
102
RTVSPropertyOp35
 70
     1
102
RTVSPropertyOp36
 70
     1
102
RTVSPropertyOp37
 70
     1
102
RTVSPropertyOp38
 70
     1
102
RTVSPropertyOp39
 70
     1
102
RTVSPropertyOp40
 70
     1
102
RTVSPropertyOp41
 70
     1
102
RTVSPropertyOp42
 70
     1
102
RTVSPropertyOp43
 70
     1
102
RTVSPropertyOp44
 70
     1
102
RTVSPropertyOp45
 70
     1
102
RTVSPropertyOp46
 70
     1
102
RTVSPropertyOp47
 70
     1
102
RTVSPropertyOp48
 70
     1
102
RTVSPropertyOp49
 70
     1
102
RTVSPropertyOp50
 70
     1
102
RTVSPropertyOp51
 70
     0
102
RTVSPropertyOp52
 70
     0
102
RTVSPropertyOp53
 70
     1
102
RTVSPropertyOp54
 70
     1
102
RTVSPropertyOp55
 70
     1
102
RTVSPropertyOp56
 70
     1
102
RTVSPropertyOp57
 70
     1
102
RTVSPropertyOp58
 70
     1
102
RTVSPropertyOp59
 70
     1
102
RTVSPropertyOp60
 70
     1
102
RTVSPropertyOp61
 70
     1
102
RTVSPropertyOp62
 70
     1
  0
XRECORD
  5
346E
102
{ACAD_REACTORS
330
346D
102
}
330
346D
100
AcDbXrecord
280
     1
102
RTVSPost2010Prop28
280
     0
102
RTVSPost2010PropOp28
 70
     1
102
RTVSPost2010Prop29
280
     1
102
RTVSPost2010PropOp29
 70
     1
102
RTVSPost2010Prop30
280
     1
102
RTVSPost2010PropOp30
 70
     1
102
RTVSPost2010Prop31
280
     0
102
RTVSPost2010PropOp31
 70
     1
102
RTVSPost2010Prop32
280
     0
102
RTVSPost2010PropOp32
 70
     1
102
RTVSPost2010Prop33
280
     0
102
RTVSPost2010PropOp33
 70
     1
102
RTVSPost2010Prop34
280
     0
102
RTVSPost2010PropOp34
 70
     1
102
RTVSPost2010Prop35
280
     0
102
RTVSPost2010PropOp35
 70
     1
102
RTVSPost2010Prop36
280
     0
102
RTVSPost2010PropOp36
 70
     1
102
RTVSPost2010Prop37
 90
       50
102
RTVSPost2010PropOp37
 70
     1
102
RTVSPost2010Prop38
140
0.0
102
RTVSPost2010PropOp38
 70
     1
102
RTVSPost2010Prop39
140
1.0
102
RTVSPost2010PropOp39
 70
     1
102
RTVSPost2010Prop40
 90
        0
102
RTVSPost2010PropOp40
 70
     1
102
RTVSPost2010Prop41ColorIndex
 90
       18
102
RTVSPost2010Prop41ColorRGB
 90
        0
102
RTVSPost2010PropOp41
 70
     1
102
RTVSPost2010Prop42
 90
       50
102
RTVSPost2010PropOp42
 70
     1
102
RTVSPost2010Prop43
 90
        3
102
RTVSPost2010PropOp43
 70
     1
102
RTVSPost2010Prop44ColorIndex
 90
        5
102
RTVSPost2010Prop44ColorRGB
 90
      255
102
RTVSPost2010PropOp44
 70
     1
102
RTVSPost2010Prop45
280
     0
102
RTVSPost2010PropOp45
 70
     1
102
RTVSPost2010Prop46
 90
       50
102
RTVSPost2010PropOp46
 70
     1
102
RTVSPost2010Prop47
 90
       50
102
RTVSPost2010PropOp47
 70
     1
102
RTVSPost2010Prop48
 90
       50
102
RTVSPost2010PropOp48
 70
     1
102
RTVSPost2010Prop49
280
     0
102
RTVSPost2010PropOp49
 70
     1
102
RTVSPost2010Prop50
 90
       50
102
RTVSPost2010PropOp50
 70
     1
102
RTVSPost2010Prop51ColorIndex
 90
      256
102
RTVSPost2010Prop51ColorRGB
 90
-16777216
102
RTVSPost2010PropOp51
 70
     0
102
RTVSPost2010Prop52
140
1.0
102
RTVSPost2010PropOp52
 70
     0
102
RTVSPost2010Prop53
 90
        2
102
RTVSPost2010PropOp53
 70
     1
102
RTVSPost2010Prop54
  1
strokes_ogs.tif
102
RTVSPost2010PropOp54
 70
     1
102
RTVSPost2010Prop55
280
     0
102
RTVSPost2010PropOp55
 70
     1
102
RTVSPost2010Prop56
140
1.0
102
RTVSPost2010PropOp56
 70
     1
102
RTVSPost2010Prop57
140
1.0
102
RTVSPost2010PropOp57
 70
     1
102
RTVSPropertyOp0
 70
     1
102
RTVSPropertyOp1
 70
     1
102
RTVSPropertyOp2
 70
     1
102
RTVSPropertyOp3
 70
     1
102
RTVSPropertyOp4
 70
     1
102
RTVSPropertyOp5
 70
     1
102
RTVSPropertyOp6
 70
     1
102
RTVSPropertyOp7
 70
     1
102
RTVSPropertyOp8
 70
     1
102
RTVSPropertyOp9
 70
     1
102
RTVSPropertyOp10
 70
     1
102
RTVSPropertyOp11
 70
     1
102
RTVSPropertyOp12
 70
     1
102
RTVSPropertyOp13
 70
     1
102
RTVSPropertyOp14
 70
     1
102
RTVSPropertyOp15
 70
     1
102
RTVSPropertyOp16
 70
     1
102
RTVSPropertyOp17
 70
     1
102
RTVSPropertyOp18
 70
     1
102
RTVSPropertyOp19
 70
     1
102
RTVSPropertyOp20
 70
     1
102
RTVSPropertyOp21
 70
     1
102
RTVSPropertyOp22
 70
     1
102
RTVSPropertyOp23
 70
     1
102
RTVSPropertyOp24
 70
     1
102
RTVSPropertyOp25
 70
     1
102
RTVSPropertyOp26
 70
     1
102
RTVSPropertyOp27
 70
     1
102
RTVSPropertyOp28
 70
     1
102
RTVSPropertyOp29
 70
     1
102
RTVSPropertyOp30
 70
     1
102
RTVSPropertyOp31
 70
     1
102
RTVSPropertyOp32
 70
     1
102
RTVSPropertyOp33
 70
     1
102
RTVSPropertyOp34
 70
     1
102
RTVSPropertyOp35
 70
     1
102
RTVSPropertyOp36
 70
     1
102
RTVSPropertyOp37
 70
     1
102
RTVSPropertyOp38
 70
     1
102
RTVSPropertyOp39
 70
     1
102
RTVSPropertyOp40
 70
     1
102
RTVSPropertyOp41
 70
     1
102
RTVSPropertyOp42
 70
     1
102
RTVSPropertyOp43
 70
     1
102
RTVSPropertyOp44
 70
     1
102
RTVSPropertyOp45
 70
     1
102
RTVSPropertyOp46
 70
     1
102
RTVSPropertyOp47
 70
     1
102
RTVSPropertyOp48
 70
     1
102
RTVSPropertyOp49
 70
     1
102
RTVSPropertyOp50
 70
     1
102
RTVSPropertyOp51
 70
     0
102
RTVSPropertyOp52
 70
     0
102
RTVSPropertyOp53
 70
     1
102
RTVSPropertyOp54
 70
     1
102
RTVSPropertyOp55
 70
     1
102
RTVSPropertyOp56
 70
     1
102
RTVSPropertyOp57
 70
     1
102
RTVSPropertyOp58
 70
     1
102
RTVSPropertyOp59
 70
     1
102
RTVSPropertyOp60
 70
     1
102
RTVSPropertyOp61
 70
     1
102
RTVSPropertyOp62
 70
     1
  0
XRECORD
  5
346C
102
{ACAD_REACTORS
330
346B
102
}
330
346B
100
AcDbXrecord
280
     1
102
RTVSPost2010Prop28
280
     0
102
RTVSPost2010PropOp28
 70
     1
102
RTVSPost2010Prop29
280
     1
102
RTVSPost2010PropOp29
 70
     1
102
RTVSPost2010Prop30
280
     1
102
RTVSPost2010PropOp30
 70
     1
102
RTVSPost2010Prop31
280
     0
102
RTVSPost2010PropOp31
 70
     1
102
RTVSPost2010Prop32
280
     0
102
RTVSPost2010PropOp32
 70
     1
102
RTVSPost2010Prop33
280
     0
102
RTVSPost2010PropOp33
 70
     1
102
RTVSPost2010Prop34
280
     0
102
RTVSPost2010PropOp34
 70
     1
102
RTVSPost2010Prop35
280
     0
102
RTVSPost2010PropOp35
 70
     1
102
RTVSPost2010Prop36
280
     0
102
RTVSPost2010PropOp36
 70
     1
102
RTVSPost2010Prop37
 90
       50
102
RTVSPost2010PropOp37
 70
     1
102
RTVSPost2010Prop38
140
0.0
102
RTVSPost2010PropOp38
 70
     1
102
RTVSPost2010Prop39
140
1.0
102
RTVSPost2010PropOp39
 70
     1
102
RTVSPost2010Prop40
 90
        0
102
RTVSPost2010PropOp40
 70
     1
102
RTVSPost2010Prop41ColorIndex
 90
       18
102
RTVSPost2010Prop41ColorRGB
 90
        0
102
RTVSPost2010PropOp41
 70
     1
102
RTVSPost2010Prop42
 90
       50
102
RTVSPost2010PropOp42
 70
     1
102
RTVSPost2010Prop43
 90
        3
102
RTVSPost2010PropOp43
 70
     1
102
RTVSPost2010Prop44ColorIndex
 90
        5
102
RTVSPost2010Prop44ColorRGB
 90
      255
102
RTVSPost2010PropOp44
 70
     1
102
RTVSPost2010Prop45
280
     0
102
RTVSPost2010PropOp45
 70
     1
102
RTVSPost2010Prop46
 90
       50
102
RTVSPost2010PropOp46
 70
     1
102
RTVSPost2010Prop47
 90
       50
102
RTVSPost2010PropOp47
 70
     1
102
RTVSPost2010Prop48
 90
       50
102
RTVSPost2010PropOp48
 70
     1
102
RTVSPost2010Prop49
280
     0
102
RTVSPost2010PropOp49
 70
     1
102
RTVSPost2010Prop50
 90
       50
102
RTVSPost2010PropOp50
 70
     1
102
RTVSPost2010Prop51ColorIndex
 90
      256
102
RTVSPost2010Prop51ColorRGB
 90
-16777216
102
RTVSPost2010PropOp51
 70
     0
102
RTVSPost2010Prop52
140
1.0
102
RTVSPost2010PropOp52
 70
     0
102
RTVSPost2010Prop53
 90
        2
102
RTVSPost2010PropOp53
 70
     1
102
RTVSPost2010Prop54
  1
strokes_ogs.tif
102
RTVSPost2010PropOp54
 70
     1
102
RTVSPost2010Prop55
280
     0
102
RTVSPost2010PropOp55
 70
     1
102
RTVSPost2010Prop56
140
1.0
102
RTVSPost2010PropOp56
 70
     1
102
RTVSPost2010Prop57
140
1.0
102
RTVSPost2010PropOp57
 70
     1
102
RTVSPropertyOp0
 70
     1
102
RTVSPropertyOp1
 70
     1
102
RTVSPropertyOp2
 70
     1
102
RTVSPropertyOp3
 70
     1
102
RTVSPropertyOp4
 70
     1
102
RTVSPropertyOp5
 70
     1
102
RTVSPropertyOp6
 70
     1
102
RTVSPropertyOp7
 70
     1
102
RTVSPropertyOp8
 70
     1
102
RTVSPropertyOp9
 70
     1
102
RTVSPropertyOp10
 70
     1
102
RTVSPropertyOp11
 70
     1
102
RTVSPropertyOp12
 70
     1
102
RTVSPropertyOp13
 70
     1
102
RTVSPropertyOp14
 70
     1
102
RTVSPropertyOp15
 70
     1
102
RTVSPropertyOp16
 70
     1
102
RTVSPropertyOp17
 70
     1
102
RTVSPropertyOp18
 70
     1
102
RTVSPropertyOp19
 70
     1
102
RTVSPropertyOp20
 70
     1
102
RTVSPropertyOp21
 70
     1
102
RTVSPropertyOp22
 70
     1
102
RTVSPropertyOp23
 70
     1
102
RTVSPropertyOp24
 70
     1
102
RTVSPropertyOp25
 70
     1
102
RTVSPropertyOp26
 70
     1
102
RTVSPropertyOp27
 70
     1
102
RTVSPropertyOp28
 70
     1
102
RTVSPropertyOp29
 70
     1
102
RTVSPropertyOp30
 70
     1
102
RTVSPropertyOp31
 70
     1
102
RTVSPropertyOp32
 70
     1
102
RTVSPropertyOp33
 70
     1
102
RTVSPropertyOp34
 70
     1
102
RTVSPropertyOp35
 70
     1
102
RTVSPropertyOp36
 70
     1
102
RTVSPropertyOp37
 70
     1
102
RTVSPropertyOp38
 70
     1
102
RTVSPropertyOp39
 70
     1
102
RTVSPropertyOp40
 70
     1
102
RTVSPropertyOp41
 70
     1
102
RTVSPropertyOp42
 70
     1
102
RTVSPropertyOp43
 70
     1
102
RTVSPropertyOp44
 70
     1
102
RTVSPropertyOp45
 70
     1
102
RTVSPropertyOp46
 70
     1
102
RTVSPropertyOp47
 70
     1
102
RTVSPropertyOp48
 70
     1
102
RTVSPropertyOp49
 70
     1
102
RTVSPropertyOp50
 70
     1
102
RTVSPropertyOp51
 70
     0
102
RTVSPropertyOp52
 70
     0
102
RTVSPropertyOp53
 70
     1
102
RTVSPropertyOp54
 70
     1
102
RTVSPropertyOp55
 70
     1
102
RTVSPropertyOp56
 70
     1
102
RTVSPropertyOp57
 70
     1
102
RTVSPropertyOp58
 70
     1
102
RTVSPropertyOp59
 70
     1
102
RTVSPropertyOp60
 70
     1
102
RTVSPropertyOp61
 70
     1
102
RTVSPropertyOp62
 70
     1
  0
XRECORD
  5
3466
102
{ACAD_REACTORS
330
3465
102
}
330
3465
100
AcDbXrecord
280
     1
102
RTVSPost2010Prop28
280
     0
102
RTVSPost2010PropOp28
 70
     1
102
RTVSPost2010Prop29
280
     1
102
RTVSPost2010PropOp29
 70
     1
102
RTVSPost2010Prop30
280
     1
102
RTVSPost2010PropOp30
 70
     1
102
RTVSPost2010Prop31
280
     0
102
RTVSPost2010PropOp31
 70
     1
102
RTVSPost2010Prop32
280
     0
102
RTVSPost2010PropOp32
 70
     1
102
RTVSPost2010Prop33
280
     0
102
RTVSPost2010PropOp33
 70
     1
102
RTVSPost2010Prop34
280
     0
102
RTVSPost2010PropOp34
 70
     1
102
RTVSPost2010Prop35
280
     0
102
RTVSPost2010PropOp35
 70
     1
102
RTVSPost2010Prop36
280
     0
102
RTVSPost2010PropOp36
 70
     1
102
RTVSPost2010Prop37
 90
       50
102
RTVSPost2010PropOp37
 70
     1
102
RTVSPost2010Prop38
140
0.0
102
RTVSPost2010PropOp38
 70
     1
102
RTVSPost2010Prop39
140
1.0
102
RTVSPost2010PropOp39
 70
     1
102
RTVSPost2010Prop40
 90
        0
102
RTVSPost2010PropOp40
 70
     1
102
RTVSPost2010Prop41ColorIndex
 90
       18
102
RTVSPost2010Prop41ColorRGB
 90
        0
102
RTVSPost2010PropOp41
 70
     1
102
RTVSPost2010Prop42
 90
       50
102
RTVSPost2010PropOp42
 70
     1
102
RTVSPost2010Prop43
 90
        3
102
RTVSPost2010PropOp43
 70
     1
102
RTVSPost2010Prop44ColorIndex
 90
        5
102
RTVSPost2010Prop44ColorRGB
 90
      255
102
RTVSPost2010PropOp44
 70
     1
102
RTVSPost2010Prop45
280
     0
102
RTVSPost2010PropOp45
 70
     1
102
RTVSPost2010Prop46
 90
       50
102
RTVSPost2010PropOp46
 70
     1
102
RTVSPost2010Prop47
 90
       50
102
RTVSPost2010PropOp47
 70
     1
102
RTVSPost2010Prop48
 90
       50
102
RTVSPost2010PropOp48
 70
     1
102
RTVSPost2010Prop49
280
     0
102
RTVSPost2010PropOp49
 70
     1
102
RTVSPost2010Prop50
 90
       50
102
RTVSPost2010PropOp50
 70
     1
102
RTVSPost2010Prop51ColorIndex
 90
      256
102
RTVSPost2010Prop51ColorRGB
 90
-16777216
102
RTVSPost2010PropOp51
 70
     0
102
RTVSPost2010Prop52
140
1.0
102
RTVSPost2010PropOp52
 70
     0
102
RTVSPost2010Prop53
 90
        2
102
RTVSPost2010PropOp53
 70
     1
102
RTVSPost2010Prop54
  1
strokes_ogs.tif
102
RTVSPost2010PropOp54
 70
     1
102
RTVSPost2010Prop55
280
     0
102
RTVSPost2010PropOp55
 70
     1
102
RTVSPost2010Prop56
140
1.0
102
RTVSPost2010PropOp56
 70
     1
102
RTVSPost2010Prop57
140
1.0
102
RTVSPost2010PropOp57
 70
     1
102
RTVSPropertyOp0
 70
     1
102
RTVSPropertyOp1
 70
     1
102
RTVSPropertyOp2
 70
     1
102
RTVSPropertyOp3
 70
     1
102
RTVSPropertyOp4
 70
     1
102
RTVSPropertyOp5
 70
     1
102
RTVSPropertyOp6
 70
     1
102
RTVSPropertyOp7
 70
     1
102
RTVSPropertyOp8
 70
     1
102
RTVSPropertyOp9
 70
     1
102
RTVSPropertyOp10
 70
     1
102
RTVSPropertyOp11
 70
     1
102
RTVSPropertyOp12
 70
     1
102
RTVSPropertyOp13
 70
     1
102
RTVSPropertyOp14
 70
     1
102
RTVSPropertyOp15
 70
     1
102
RTVSPropertyOp16
 70
     1
102
RTVSPropertyOp17
 70
     1
102
RTVSPropertyOp18
 70
     1
102
RTVSPropertyOp19
 70
     1
102
RTVSPropertyOp20
 70
     1
102
RTVSPropertyOp21
 70
     1
102
RTVSPropertyOp22
 70
     1
102
RTVSPropertyOp23
 70
     1
102
RTVSPropertyOp24
 70
     1
102
RTVSPropertyOp25
 70
     1
102
RTVSPropertyOp26
 70
     1
102
RTVSPropertyOp27
 70
     1
102
RTVSPropertyOp28
 70
     1
102
RTVSPropertyOp29
 70
     1
102
RTVSPropertyOp30
 70
     1
102
RTVSPropertyOp31
 70
     1
102
RTVSPropertyOp32
 70
     1
102
RTVSPropertyOp33
 70
     1
102
RTVSPropertyOp34
 70
     1
102
RTVSPropertyOp35
 70
     1
102
RTVSPropertyOp36
 70
     1
102
RTVSPropertyOp37
 70
     1
102
RTVSPropertyOp38
 70
     1
102
RTVSPropertyOp39
 70
     1
102
RTVSPropertyOp40
 70
     1
102
RTVSPropertyOp41
 70
     1
102
RTVSPropertyOp42
 70
     1
102
RTVSPropertyOp43
 70
     1
102
RTVSPropertyOp44
 70
     1
102
RTVSPropertyOp45
 70
     1
102
RTVSPropertyOp46
 70
     1
102
RTVSPropertyOp47
 70
     1
102
RTVSPropertyOp48
 70
     1
102
RTVSPropertyOp49
 70
     1
102
RTVSPropertyOp50
 70
     1
102
RTVSPropertyOp51
 70
     0
102
RTVSPropertyOp52
 70
     0
102
RTVSPropertyOp53
 70
     1
102
RTVSPropertyOp54
 70
     1
102
RTVSPropertyOp55
 70
     1
102
RTVSPropertyOp56
 70
     1
102
RTVSPropertyOp57
 70
     1
102
RTVSPropertyOp58
 70
     1
102
RTVSPropertyOp59
 70
     1
102
RTVSPropertyOp60
 70
     1
102
RTVSPropertyOp61
 70
     1
102
RTVSPropertyOp62
 70
     1
  0
XRECORD
  5
3468
102
{ACAD_REACTORS
330
3467
102
}
330
3467
100
AcDbXrecord
280
     1
102
RTVSPost2010Prop28
280
     0
102
RTVSPost2010PropOp28
 70
     1
102
RTVSPost2010Prop29
280
     1
102
RTVSPost2010PropOp29
 70
     1
102
RTVSPost2010Prop30
280
     1
102
RTVSPost2010PropOp30
 70
     1
102
RTVSPost2010Prop31
280
     0
102
RTVSPost2010PropOp31
 70
     1
102
RTVSPost2010Prop32
280
     0
102
RTVSPost2010PropOp32
 70
     1
102
RTVSPost2010Prop33
280
     0
102
RTVSPost2010PropOp33
 70
     1
102
RTVSPost2010Prop34
280
     0
102
RTVSPost2010PropOp34
 70
     1
102
RTVSPost2010Prop35
280
     0
102
RTVSPost2010PropOp35
 70
     1
102
RTVSPost2010Prop36
280
     0
102
RTVSPost2010PropOp36
 70
     1
102
RTVSPost2010Prop37
 90
       50
102
RTVSPost2010PropOp37
 70
     1
102
RTVSPost2010Prop38
140
0.0
102
RTVSPost2010PropOp38
 70
     1
102
RTVSPost2010Prop39
140
1.0
102
RTVSPost2010PropOp39
 70
     1
102
RTVSPost2010Prop40
 90
        0
102
RTVSPost2010PropOp40
 70
     1
102
RTVSPost2010Prop41ColorIndex
 90
       18
102
RTVSPost2010Prop41ColorRGB
 90
        0
102
RTVSPost2010PropOp41
 70
     1
102
RTVSPost2010Prop42
 90
       50
102
RTVSPost2010PropOp42
 70
     1
102
RTVSPost2010Prop43
 90
        3
102
RTVSPost2010PropOp43
 70
     1
102
RTVSPost2010Prop44ColorIndex
 90
        5
102
RTVSPost2010Prop44ColorRGB
 90
      255
102
RTVSPost2010PropOp44
 70
     1
102
RTVSPost2010Prop45
280
     0
102
RTVSPost2010PropOp45
 70
     1
102
RTVSPost2010Prop46
 90
       50
102
RTVSPost2010PropOp46
 70
     1
102
RTVSPost2010Prop47
 90
       50
102
RTVSPost2010PropOp47
 70
     1
102
RTVSPost2010Prop48
 90
       50
102
RTVSPost2010PropOp48
 70
     1
102
RTVSPost2010Prop49
280
     0
102
RTVSPost2010PropOp49
 70
     1
102
RTVSPost2010Prop50
 90
       50
102
RTVSPost2010PropOp50
 70
     1
102
RTVSPost2010Prop51ColorIndex
 90
      256
102
RTVSPost2010Prop51ColorRGB
 90
-16777216
102
RTVSPost2010PropOp51
 70
     0
102
RTVSPost2010Prop52
140
1.0
102
RTVSPost2010PropOp52
 70
     0
102
RTVSPost2010Prop53
 90
        2
102
RTVSPost2010PropOp53
 70
     1
102
RTVSPost2010Prop54
  1
strokes_ogs.tif
102
RTVSPost2010PropOp54
 70
     1
102
RTVSPost2010Prop55
280
     0
102
RTVSPost2010PropOp55
 70
     1
102
RTVSPost2010Prop56
140
1.0
102
RTVSPost2010PropOp56
 70
     1
102
RTVSPost2010Prop57
140
1.0
102
RTVSPost2010PropOp57
 70
     1
102
RTVSPropertyOp0
 70
     1
102
RTVSPropertyOp1
 70
     1
102
RTVSPropertyOp2
 70
     1
102
RTVSPropertyOp3
 70
     1
102
RTVSPropertyOp4
 70
     1
102
RTVSPropertyOp5
 70
     1
102
RTVSPropertyOp6
 70
     1
102
RTVSPropertyOp7
 70
     1
102
RTVSPropertyOp8
 70
     1
102
RTVSPropertyOp9
 70
     1
102
RTVSPropertyOp10
 70
     1
102
RTVSPropertyOp11
 70
     1
102
RTVSPropertyOp12
 70
     1
102
RTVSPropertyOp13
 70
     1
102
RTVSPropertyOp14
 70
     1
102
RTVSPropertyOp15
 70
     1
102
RTVSPropertyOp16
 70
     1
102
RTVSPropertyOp17
 70
     1
102
RTVSPropertyOp18
 70
     1
102
RTVSPropertyOp19
 70
     1
102
RTVSPropertyOp20
 70
     1
102
RTVSPropertyOp21
 70
     1
102
RTVSPropertyOp22
 70
     1
102
RTVSPropertyOp23
 70
     1
102
RTVSPropertyOp24
 70
     1
102
RTVSPropertyOp25
 70
     1
102
RTVSPropertyOp26
 70
     1
102
RTVSPropertyOp27
 70
     1
102
RTVSPropertyOp28
 70
     1
102
RTVSPropertyOp29
 70
     1
102
RTVSPropertyOp30
 70
     1
102
RTVSPropertyOp31
 70
     1
102
RTVSPropertyOp32
 70
     1
102
RTVSPropertyOp33
 70
     1
102
RTVSPropertyOp34
 70
     1
102
RTVSPropertyOp35
 70
     1
102
RTVSPropertyOp36
 70
     1
102
RTVSPropertyOp37
 70
     1
102
RTVSPropertyOp38
 70
     1
102
RTVSPropertyOp39
 70
     1
102
RTVSPropertyOp40
 70
     1
102
RTVSPropertyOp41
 70
     1
102
RTVSPropertyOp42
 70
     1
102
RTVSPropertyOp43
 70
     1
102
RTVSPropertyOp44
 70
     1
102
RTVSPropertyOp45
 70
     1
102
RTVSPropertyOp46
 70
     1
102
RTVSPropertyOp47
 70
     1
102
RTVSPropertyOp48
 70
     1
102
RTVSPropertyOp49
 70
     1
102
RTVSPropertyOp50
 70
     1
102
RTVSPropertyOp51
 70
     0
102
RTVSPropertyOp52
 70
     0
102
RTVSPropertyOp53
 70
     1
102
RTVSPropertyOp54
 70
     1
102
RTVSPropertyOp55
 70
     1
102
RTVSPropertyOp56
 70
     1
102
RTVSPropertyOp57
 70
     1
102
RTVSPropertyOp58
 70
     1
102
RTVSPropertyOp59
 70
     1
102
RTVSPropertyOp60
 70
     1
102
RTVSPropertyOp61
 70
     1
102
RTVSPropertyOp62
 70
     1
  0
XRECORD
  5
345E
102
{ACAD_REACTORS
330
345D
102
}
330
345D
100
AcDbXrecord
280
     1
102
RTVSPost2010Prop28
280
     0
102
RTVSPost2010PropOp28
 70
     1
102
RTVSPost2010Prop29
280
     1
102
RTVSPost2010PropOp29
 70
     1
102
RTVSPost2010Prop30
280
     1
102
RTVSPost2010PropOp30
 70
     1
102
RTVSPost2010Prop31
280
     0
102
RTVSPost2010PropOp31
 70
     1
102
RTVSPost2010Prop32
280
     0
102
RTVSPost2010PropOp32
 70
     1
102
RTVSPost2010Prop33
280
     0
102
RTVSPost2010PropOp33
 70
     1
102
RTVSPost2010Prop34
280
     0
102
RTVSPost2010PropOp34
 70
     1
102
RTVSPost2010Prop35
280
     0
102
RTVSPost2010PropOp35
 70
     1
102
RTVSPost2010Prop36
280
     0
102
RTVSPost2010PropOp36
 70
     1
102
RTVSPost2010Prop37
 90
       50
102
RTVSPost2010PropOp37
 70
     1
102
RTVSPost2010Prop38
140
0.0
102
RTVSPost2010PropOp38
 70
     1
102
RTVSPost2010Prop39
140
1.0
102
RTVSPost2010PropOp39
 70
     1
102
RTVSPost2010Prop40
 90
        0
102
RTVSPost2010PropOp40
 70
     1
102
RTVSPost2010Prop41ColorIndex
 90
       18
102
RTVSPost2010Prop41ColorRGB
 90
        0
102
RTVSPost2010PropOp41
 70
     1
102
RTVSPost2010Prop42
 90
       50
102
RTVSPost2010PropOp42
 70
     1
102
RTVSPost2010Prop43
 90
        3
102
RTVSPost2010PropOp43
 70
     1
102
RTVSPost2010Prop44ColorIndex
 90
        5
102
RTVSPost2010Prop44ColorRGB
 90
      255
102
RTVSPost2010PropOp44
 70
     1
102
RTVSPost2010Prop45
280
     0
102
RTVSPost2010PropOp45
 70
     1
102
RTVSPost2010Prop46
 90
       50
102
RTVSPost2010PropOp46
 70
     1
102
RTVSPost2010Prop47
 90
       50
102
RTVSPost2010PropOp47
 70
     1
102
RTVSPost2010Prop48
 90
       50
102
RTVSPost2010PropOp48
 70
     1
102
RTVSPost2010Prop49
280
     0
102
RTVSPost2010PropOp49
 70
     1
102
RTVSPost2010Prop50
 90
       50
102
RTVSPost2010PropOp50
 70
     1
102
RTVSPost2010Prop51ColorIndex
 90
      256
102
RTVSPost2010Prop51ColorRGB
 90
-16777216
102
RTVSPost2010PropOp51
 70
     0
102
RTVSPost2010Prop52
140
1.0
102
RTVSPost2010PropOp52
 70
     0
102
RTVSPost2010Prop53
 90
        2
102
RTVSPost2010PropOp53
 70
     1
102
RTVSPost2010Prop54
  1
strokes_ogs.tif
102
RTVSPost2010PropOp54
 70
     1
102
RTVSPost2010Prop55
280
     0
102
RTVSPost2010PropOp55
 70
     1
102
RTVSPost2010Prop56
140
1.0
102
RTVSPost2010PropOp56
 70
     1
102
RTVSPost2010Prop57
140
1.0
102
RTVSPost2010PropOp57
 70
     1
102
RTVSPropertyOp0
 70
     1
102
RTVSPropertyOp1
 70
     1
102
RTVSPropertyOp2
 70
     1
102
RTVSPropertyOp3
 70
     1
102
RTVSPropertyOp4
 70
     1
102
RTVSPropertyOp5
 70
     1
102
RTVSPropertyOp6
 70
     1
102
RTVSPropertyOp7
 70
     1
102
RTVSPropertyOp8
 70
     1
102
RTVSPropertyOp9
 70
     1
102
RTVSPropertyOp10
 70
     1
102
RTVSPropertyOp11
 70
     1
102
RTVSPropertyOp12
 70
     1
102
RTVSPropertyOp13
 70
     1
102
RTVSPropertyOp14
 70
     1
102
RTVSPropertyOp15
 70
     1
102
RTVSPropertyOp16
 70
     1
102
RTVSPropertyOp17
 70
     1
102
RTVSPropertyOp18
 70
     1
102
RTVSPropertyOp19
 70
     1
102
RTVSPropertyOp20
 70
     1
102
RTVSPropertyOp21
 70
     1
102
RTVSPropertyOp22
 70
     1
102
RTVSPropertyOp23
 70
     1
102
RTVSPropertyOp24
 70
     1
102
RTVSPropertyOp25
 70
     1
102
RTVSPropertyOp26
 70
     1
102
RTVSPropertyOp27
 70
     1
102
RTVSPropertyOp28
 70
     1
102
RTVSPropertyOp29
 70
     1
102
RTVSPropertyOp30
 70
     1
102
RTVSPropertyOp31
 70
     1
102
RTVSPropertyOp32
 70
     1
102
RTVSPropertyOp33
 70
     1
102
RTVSPropertyOp34
 70
     1
102
RTVSPropertyOp35
 70
     1
102
RTVSPropertyOp36
 70
     1
102
RTVSPropertyOp37
 70
     1
102
RTVSPropertyOp38
 70
     1
102
RTVSPropertyOp39
 70
     1
102
RTVSPropertyOp40
 70
     1
102
RTVSPropertyOp41
 70
     1
102
RTVSPropertyOp42
 70
     1
102
RTVSPropertyOp43
 70
     1
102
RTVSPropertyOp44
 70
     1
102
RTVSPropertyOp45
 70
     1
102
RTVSPropertyOp46
 70
     1
102
RTVSPropertyOp47
 70
     1
102
RTVSPropertyOp48
 70
     1
102
RTVSPropertyOp49
 70
     1
102
RTVSPropertyOp50
 70
     1
102
RTVSPropertyOp51
 70
     0
102
RTVSPropertyOp52
 70
     0
102
RTVSPropertyOp53
 70
     1
102
RTVSPropertyOp54
 70
     1
102
RTVSPropertyOp55
 70
     1
102
RTVSPropertyOp56
 70
     1
102
RTVSPropertyOp57
 70
     1
102
RTVSPropertyOp58
 70
     1
102
RTVSPropertyOp59
 70
     1
102
RTVSPropertyOp60
 70
     1
102
RTVSPropertyOp61
 70
     1
102
RTVSPropertyOp62
 70
     1
  0
XRECORD
  5
3452
102
{ACAD_REACTORS
330
3451
102
}
330
3451
100
AcDbXrecord
280
     1
102
RTVSPost2010Prop28
280
     0
102
RTVSPost2010PropOp28
 70
     1
102
RTVSPost2010Prop29
280
     1
102
RTVSPost2010PropOp29
 70
     1
102
RTVSPost2010Prop30
280
     1
102
RTVSPost2010PropOp30
 70
     1
102
RTVSPost2010Prop31
280
     0
102
RTVSPost2010PropOp31
 70
     1
102
RTVSPost2010Prop32
280
     0
102
RTVSPost2010PropOp32
 70
     1
102
RTVSPost2010Prop33
280
     0
102
RTVSPost2010PropOp33
 70
     1
102
RTVSPost2010Prop34
280
     0
102
RTVSPost2010PropOp34
 70
     1
102
RTVSPost2010Prop35
280
     0
102
RTVSPost2010PropOp35
 70
     1
102
RTVSPost2010Prop36
280
     0
102
RTVSPost2010PropOp36
 70
     1
102
RTVSPost2010Prop37
 90
       50
102
RTVSPost2010PropOp37
 70
     1
102
RTVSPost2010Prop38
140
0.0
102
RTVSPost2010PropOp38
 70
     1
102
RTVSPost2010Prop39
140
1.0
102
RTVSPost2010PropOp39
 70
     1
102
RTVSPost2010Prop40
 90
        0
102
RTVSPost2010PropOp40
 70
     1
102
RTVSPost2010Prop41ColorIndex
 90
       18
102
RTVSPost2010Prop41ColorRGB
 90
        0
102
RTVSPost2010PropOp41
 70
     1
102
RTVSPost2010Prop42
 90
       50
102
RTVSPost2010PropOp42
 70
     1
102
RTVSPost2010Prop43
 90
        3
102
RTVSPost2010PropOp43
 70
     1
102
RTVSPost2010Prop44ColorIndex
 90
        5
102
RTVSPost2010Prop44ColorRGB
 90
      255
102
RTVSPost2010PropOp44
 70
     1
102
RTVSPost2010Prop45
280
     0
102
RTVSPost2010PropOp45
 70
     1
102
RTVSPost2010Prop46
 90
       50
102
RTVSPost2010PropOp46
 70
     1
102
RTVSPost2010Prop47
 90
       50
102
RTVSPost2010PropOp47
 70
     1
102
RTVSPost2010Prop48
 90
       50
102
RTVSPost2010PropOp48
 70
     1
102
RTVSPost2010Prop49
280
     0
102
RTVSPost2010PropOp49
 70
     1
102
RTVSPost2010Prop50
 90
       50
102
RTVSPost2010PropOp50
 70
     1
102
RTVSPost2010Prop51ColorIndex
 90
      256
102
RTVSPost2010Prop51ColorRGB
 90
-16777216
102
RTVSPost2010PropOp51
 70
     0
102
RTVSPost2010Prop52
140
1.0
102
RTVSPost2010PropOp52
 70
     0
102
RTVSPost2010Prop53
 90
        2
102
RTVSPost2010PropOp53
 70
     1
102
RTVSPost2010Prop54
  1
strokes_ogs.tif
102
RTVSPost2010PropOp54
 70
     1
102
RTVSPost2010Prop55
280
     0
102
RTVSPost2010PropOp55
 70
     1
102
RTVSPost2010Prop56
140
1.0
102
RTVSPost2010PropOp56
 70
     1
102
RTVSPost2010Prop57
140
1.0
102
RTVSPost2010PropOp57
 70
     1
102
RTVSPropertyOp0
 70
     1
102
RTVSPropertyOp1
 70
     1
102
RTVSPropertyOp2
 70
     1
102
RTVSPropertyOp3
 70
     1
102
RTVSPropertyOp4
 70
     1
102
RTVSPropertyOp5
 70
     1
102
RTVSPropertyOp6
 70
     1
102
RTVSPropertyOp7
 70
     1
102
RTVSPropertyOp8
 70
     1
102
RTVSPropertyOp9
 70
     1
102
RTVSPropertyOp10
 70
     1
102
RTVSPropertyOp11
 70
     1
102
RTVSPropertyOp12
 70
     1
102
RTVSPropertyOp13
 70
     1
102
RTVSPropertyOp14
 70
     1
102
RTVSPropertyOp15
 70
     1
102
RTVSPropertyOp16
 70
     1
102
RTVSPropertyOp17
 70
     1
102
RTVSPropertyOp18
 70
     1
102
RTVSPropertyOp19
 70
     1
102
RTVSPropertyOp20
 70
     1
102
RTVSPropertyOp21
 70
     1
102
RTVSPropertyOp22
 70
     1
102
RTVSPropertyOp23
 70
     1
102
RTVSPropertyOp24
 70
     1
102
RTVSPropertyOp25
 70
     1
102
RTVSPropertyOp26
 70
     1
102
RTVSPropertyOp27
 70
     1
102
RTVSPropertyOp28
 70
     1
102
RTVSPropertyOp29
 70
     1
102
RTVSPropertyOp30
 70
     1
102
RTVSPropertyOp31
 70
     1
102
RTVSPropertyOp32
 70
     1
102
RTVSPropertyOp33
 70
     1
102
RTVSPropertyOp34
 70
     1
102
RTVSPropertyOp35
 70
     1
102
RTVSPropertyOp36
 70
     1
102
RTVSPropertyOp37
 70
     1
102
RTVSPropertyOp38
 70
     1
102
RTVSPropertyOp39
 70
     1
102
RTVSPropertyOp40
 70
     1
102
RTVSPropertyOp41
 70
     1
102
RTVSPropertyOp42
 70
     1
102
RTVSPropertyOp43
 70
     1
102
RTVSPropertyOp44
 70
     1
102
RTVSPropertyOp45
 70
     1
102
RTVSPropertyOp46
 70
     1
102
RTVSPropertyOp47
 70
     1
102
RTVSPropertyOp48
 70
     1
102
RTVSPropertyOp49
 70
     1
102
RTVSPropertyOp50
 70
     1
102
RTVSPropertyOp51
 70
     0
102
RTVSPropertyOp52
 70
     0
102
RTVSPropertyOp53
 70
     1
102
RTVSPropertyOp54
 70
     1
102
RTVSPropertyOp55
 70
     1
102
RTVSPropertyOp56
 70
     1
102
RTVSPropertyOp57
 70
     1
102
RTVSPropertyOp58
 70
     1
102
RTVSPropertyOp59
 70
     1
102
RTVSPropertyOp60
 70
     1
102
RTVSPropertyOp61
 70
     1
102
RTVSPropertyOp62
 70
     1
  0
XRECORD
  5
346A
102
{ACAD_REACTORS
330
3469
102
}
330
3469
100
AcDbXrecord
280
     1
102
RTVSPost2010Prop28
280
     0
102
RTVSPost2010PropOp28
 70
     1
102
RTVSPost2010Prop29
280
     1
102
RTVSPost2010PropOp29
 70
     1
102
RTVSPost2010Prop30
280
     1
102
RTVSPost2010PropOp30
 70
     1
102
RTVSPost2010Prop31
280
     0
102
RTVSPost2010PropOp31
 70
     1
102
RTVSPost2010Prop32
280
     0
102
RTVSPost2010PropOp32
 70
     1
102
RTVSPost2010Prop33
280
     0
102
RTVSPost2010PropOp33
 70
     1
102
RTVSPost2010Prop34
280
     0
102
RTVSPost2010PropOp34
 70
     1
102
RTVSPost2010Prop35
280
     0
102
RTVSPost2010PropOp35
 70
     1
102
RTVSPost2010Prop36
280
     0
102
RTVSPost2010PropOp36
 70
     1
102
RTVSPost2010Prop37
 90
       50
102
RTVSPost2010PropOp37
 70
     1
102
RTVSPost2010Prop38
140
0.0
102
RTVSPost2010PropOp38
 70
     1
102
RTVSPost2010Prop39
140
1.0
102
RTVSPost2010PropOp39
 70
     1
102
RTVSPost2010Prop40
 90
        0
102
RTVSPost2010PropOp40
 70
     1
102
RTVSPost2010Prop41ColorIndex
 90
       18
102
RTVSPost2010Prop41ColorRGB
 90
        0
102
RTVSPost2010PropOp41
 70
     1
102
RTVSPost2010Prop42
 90
       50
102
RTVSPost2010PropOp42
 70
     1
102
RTVSPost2010Prop43
 90
        3
102
RTVSPost2010PropOp43
 70
     1
102
RTVSPost2010Prop44ColorIndex
 90
        5
102
RTVSPost2010Prop44ColorRGB
 90
      255
102
RTVSPost2010PropOp44
 70
     1
102
RTVSPost2010Prop45
280
     0
102
RTVSPost2010PropOp45
 70
     1
102
RTVSPost2010Prop46
 90
       50
102
RTVSPost2010PropOp46
 70
     1
102
RTVSPost2010Prop47
 90
       50
102
RTVSPost2010PropOp47
 70
     1
102
RTVSPost2010Prop48
 90
       50
102
RTVSPost2010PropOp48
 70
     1
102
RTVSPost2010Prop49
280
     0
102
RTVSPost2010PropOp49
 70
     1
102
RTVSPost2010Prop50
 90
       50
102
RTVSPost2010PropOp50
 70
     1
102
RTVSPost2010Prop51ColorIndex
 90
      256
102
RTVSPost2010Prop51ColorRGB
 90
-16777216
102
RTVSPost2010PropOp51
 70
     0
102
RTVSPost2010Prop52
140
1.0
102
RTVSPost2010PropOp52
 70
     0
102
RTVSPost2010Prop53
 90
        2
102
RTVSPost2010PropOp53
 70
     1
102
RTVSPost2010Prop54
  1
strokes_ogs.tif
102
RTVSPost2010PropOp54
 70
     1
102
RTVSPost2010Prop55
280
     0
102
RTVSPost2010PropOp55
 70
     1
102
RTVSPost2010Prop56
140
1.0
102
RTVSPost2010PropOp56
 70
     1
102
RTVSPost2010Prop57
140
1.0
102
RTVSPost2010PropOp57
 70
     1
102
RTVSPropertyOp0
 70
     1
102
RTVSPropertyOp1
 70
     1
102
RTVSPropertyOp2
 70
     1
102
RTVSPropertyOp3
 70
     1
102
RTVSPropertyOp4
 70
     1
102
RTVSPropertyOp5
 70
     1
102
RTVSPropertyOp6
 70
     1
102
RTVSPropertyOp7
 70
     1
102
RTVSPropertyOp8
 70
     1
102
RTVSPropertyOp9
 70
     1
102
RTVSPropertyOp10
 70
     1
102
RTVSPropertyOp11
 70
     1
102
RTVSPropertyOp12
 70
     1
102
RTVSPropertyOp13
 70
     1
102
RTVSPropertyOp14
 70
     1
102
RTVSPropertyOp15
 70
     1
102
RTVSPropertyOp16
 70
     1
102
RTVSPropertyOp17
 70
     1
102
RTVSPropertyOp18
 70
     1
102
RTVSPropertyOp19
 70
     1
102
RTVSPropertyOp20
 70
     1
102
RTVSPropertyOp21
 70
     1
102
RTVSPropertyOp22
 70
     1
102
RTVSPropertyOp23
 70
     1
102
RTVSPropertyOp24
 70
     1
102
RTVSPropertyOp25
 70
     1
102
RTVSPropertyOp26
 70
     1
102
RTVSPropertyOp27
 70
     1
102
RTVSPropertyOp28
 70
     1
102
RTVSPropertyOp29
 70
     1
102
RTVSPropertyOp30
 70
     1
102
RTVSPropertyOp31
 70
     1
102
RTVSPropertyOp32
 70
     1
102
RTVSPropertyOp33
 70
     1
102
RTVSPropertyOp34
 70
     1
102
RTVSPropertyOp35
 70
     1
102
RTVSPropertyOp36
 70
     1
102
RTVSPropertyOp37
 70
     1
102
RTVSPropertyOp38
 70
     1
102
RTVSPropertyOp39
 70
     1
102
RTVSPropertyOp40
 70
     1
102
RTVSPropertyOp41
 70
     1
102
RTVSPropertyOp42
 70
     1
102
RTVSPropertyOp43
 70
     1
102
RTVSPropertyOp44
 70
     1
102
RTVSPropertyOp45
 70
     1
102
RTVSPropertyOp46
 70
     1
102
RTVSPropertyOp47
 70
     1
102
RTVSPropertyOp48
 70
     1
102
RTVSPropertyOp49
 70
     1
102
RTVSPropertyOp50
 70
     1
102
RTVSPropertyOp51
 70
     0
102
RTVSPropertyOp52
 70
     0
102
RTVSPropertyOp53
 70
     1
102
RTVSPropertyOp54
 70
     1
102
RTVSPropertyOp55
 70
     1
102
RTVSPropertyOp56
 70
     1
102
RTVSPropertyOp57
 70
     1
102
RTVSPropertyOp58
 70
     1
102
RTVSPropertyOp59
 70
     1
102
RTVSPropertyOp60
 70
     1
102
RTVSPropertyOp61
 70
     1
102
RTVSPropertyOp62
 70
     1
  0
ENDSEC
  0
EOF
