  0
SECTION
  2
HEADER
  9
$ACADVER
  1
AC1018
  9
$ACADMAINTVER
 70
   104
  9
$DWGCODEPAGE
  3
ANSI_1250
  9
$LASTSAVEDBY
  1
EVA
  9
$INSBASE
 10
0.0
 20
0.0
 30
0.0
  9
$EXTMIN
 10
54.54129847436428
 20
90.08338141687238
 30
0.0
  9
$EXTMAX
 10
966.0299046566931
 20
1044.984906564625
 30
3.0
  9
$LIMMIN
 10
0.0
 20
0.0
  9
$LIMMAX
 10
271.6285070728513
 20
136.3429239280804
  9
$ORTHOMODE
 70
     1
  9
$REGENMODE
 70
     1
  9
$FILLMODE
 70
     1
  9
$QTEXTMODE
 70
     0
  9
$MIRRTEXT
 70
     0
  9
$LTSCALE
 40
15.0
  9
$ATTMODE
 70
     1
  9
$TEXTSIZE
 40
14.0
  9
$TRACEWID
 40
1.0
  9
$TEXTSTYLE
  7
ROMANS
  9
$CLAYER
  8
V35
  9
$CELTYPE
  6
BYLAYER
  9
$CECOLOR
 62
   256
  9
$CELTSCALE
 40
15.0
  9
$DISPSILH
 70
     0
  9
$DIMSCALE
 40
5.0
  9
$DIMASZ
 40
3.5
  9
$DIMEXO
 40
0.0
  9
$DIMDLI
 40
3.75
  9
$DIMRND
 40
0.0
  9
$DIMDLE
 40
0.0
  9
$DIMEXE
 40
1.25
  9
$DIMTP
 40
0.0
  9
$DIMTM
 40
0.0
  9
$DIMTXT
 40
3.5
  9
$DIMCEN
 40
3.5
  9
$DIMTSZ
 40
0.0
  9
$DIMTOL
 70
     0
  9
$DIMLIM
 70
     0
  9
$DIMTIH
 70
     0
  9
$DIMTOH
 70
     0
  9
$DIMSE1
 70
     0
  9
$DIMSE2
 70
     0
  9
$DIMTAD
 70
     1
  9
$DIMZIN
 70
     8
  9
$DIMBLK
  1

  9
$DIMASO
 70
     1
  9
$DIMSHO
 70
     1
  9
$DIMPOST
  1

  9
$DIMAPOST
  1

  9
$DIMALT
 70
     0
  9
$DIMALTD
 70
     4
  9
$DIMALTF
 40
0.0394
  9
$DIMLFAC
 40
1.0
  9
$DIMTOFL
 70
     0
  9
$DIMTVP
 40
0.0
  9
$DIMTIX
 70
     0
  9
$DIMSOXD
 70
     0
  9
$DIMSAH
 70
     0
  9
$DIMBLK1
  1

  9
$DIMBLK2
  1

  9
$DIMSTYLE
  2
18
  9
$DIMCLRD
 70
     0
  9
$DIMCLRE
 70
     0
  9
$DIMCLRT
 70
     2
  9
$DIMTFAC
 40
1.0
  9
$DIMGAP
 40
0.625
  9
$DIMJUST
 70
     0
  9
$DIMSD1
 70
     0
  9
$DIMSD2
 70
     0
  9
$DIMTOLJ
 70
     1
  9
$DIMTZIN
 70
     0
  9
$DIMALTZ
 70
     0
  9
$DIMALTTZ
 70
     0
  9
$DIMUPT
 70
     0
  9
$DIMDEC
 70
     0
  9
$DIMTDEC
 70
     4
  9
$DIMALTU
 70
     8
  9
$DIMALTTD
 70
     4
  9
$DIMTXSTY
  7
ROMANS
  9
$DIMAUNIT
 70
     0
  9
$DIMADEC
 70
     0
  9
$DIMALTRND
 40
0.0
  9
$DIMAZIN
 70
     0
  9
$DIMDSEP
 70
    46
  9
$DIMATFIT
 70
     3
  9
$DIMFRAC
 70
     0
  9
$DIMLDRBLK
  1

  9
$DIMLUNIT
 70
     6
  9
$DIMLWD
 70
    -2
  9
$DIMLWE
 70
    -2
  9
$DIMTMOVE
 70
     0
  9
$LUNITS
 70
     2
  9
$LUPREC
 70
     4
  9
$SKETCHINC
 40
1.0
  9
$FILLETRAD
 40
0.0
  9
$AUNITS
 70
     0
  9
$AUPREC
 70
     0
  9
$MENU
  1
.
  9
$ELEVATION
 40
0.0
  9
$PELEVATION
 40
0.0
  9
$THICKNESS
 40
0.0
  9
$LIMCHECK
 70
     0
  9
$CHAMFERA
 40
10.0
  9
$CHAMFERB
 40
10.0
  9
$CHAMFERC
 40
20.0
  9
$CHAMFERD
 40
0.0
  9
$SKPOLY
 70
     0
  9
$TDCREATE
 40
2451600.645418067
  9
$TDUCREATE
 40
2451600.562084734
  9
$TDUPDATE
 40
2457248.518678889
  9
$TDUUPDATE
 40
2457248.435345556
  9
$TDINDWG
 40
4.4684912963
  9
$TDUSRTIMER
 40
4.4684910648
  9
$USRTIMER
 70
     1
  9
$ANGBASE
 50
0.0
  9
$ANGDIR
 70
     0
  9
$PDMODE
 70
     0
  9
$PDSIZE
 40
0.0
  9
$PLINEWID
 40
0.0
  9
$SPLFRAME
 70
     0
  9
$SPLINETYPE
 70
     6
  9
$SPLINESEGS
 70
     8
  9
$HANDSEED
  5
499A
  9
$SURFTAB1
 70
     6
  9
$SURFTAB2
 70
     6
  9
$SURFTYPE
 70
     6
  9
$SURFU
 70
     6
  9
$SURFV
 70
     6
  9
$UCSBASE
  2

  9
$UCSNAME
  2

  9
$UCSORG
 10
0.0
 20
0.0
 30
0.0
  9
$UCSXDIR
 10
1.0
 20
0.0
 30
0.0
  9
$UCSYDIR
 10
0.0
 20
1.0
 30
0.0
  9
$UCSORTHOREF
  2

  9
$UCSORTHOVIEW
 70
     0
  9
$UCSORGTOP
 10
0.0
 20
0.0
 30
0.0
  9
$UCSORGBOTTOM
 10
0.0
 20
0.0
 30
0.0
  9
$UCSORGLEFT
 10
0.0
 20
0.0
 30
0.0
  9
$UCSORGRIGHT
 10
0.0
 20
0.0
 30
0.0
  9
$UCSORGFRONT
 10
0.0
 20
0.0
 30
0.0
  9
$UCSORGBACK
 10
0.0
 20
0.0
 30
0.0
  9
$PUCSBASE
  2

  9
$PUCSNAME
  2

  9
$PUCSORG
 10
0.0
 20
0.0
 30
0.0
  9
$PUCSXDIR
 10
1.0
 20
0.0
 30
0.0
  9
$PUCSYDIR
 10
0.0
 20
1.0
 30
0.0
  9
$PUCSORTHOREF
  2

  9
$PUCSORTHOVIEW
 70
     0
  9
$PUCSORGTOP
 10
0.0
 20
0.0
 30
0.0
  9
$PUCSORGBOTTOM
 10
0.0
 20
0.0
 30
0.0
  9
$PUCSORGLEFT
 10
0.0
 20
0.0
 30
0.0
  9
$PUCSORGRIGHT
 10
0.0
 20
0.0
 30
0.0
  9
$PUCSORGFRONT
 10
0.0
 20
0.0
 30
0.0
  9
$PUCSORGBACK
 10
0.0
 20
0.0
 30
0.0
  9
$USERI1
 70
     0
  9
$USERI2
 70
     0
  9
$USERI3
 70
     0
  9
$USERI4
 70
     0
  9
$USERI5
 70
     0
  9
$USERR1
 40
0.0
  9
$USERR2
 40
0.0
  9
$USERR3
 40
0.0
  9
$USERR4
 40
0.0
  9
$USERR5
 40
0.0
  9
$WORLDVIEW
 70
     1
  9
$SHADEDGE
 70
     3
  9
$SHADEDIF
 70
    70
  9
$TILEMODE
 70
     0
  9
$MAXACTVP
 70
    48
  9
$PINSBASE
 10
0.0
 20
0.0
 30
0.0
  9
$PLIMCHECK
 70
     0
  9
$PEXTMIN
 10
6.581804759543421
 20
2.642657989685733
 30
0.0
  9
$PEXTMAX
 10
196.0315659403611
 20
281.2760437736162
 30
0.0
  9
$PLIMMIN
 10
-6.043083190917968
 20
-6.762742042541503
  9
$PLIMMAX
 10
203.9302444458008
 20
290.2055807113647
  9
$UNITMODE
 70
     0
  9
$VISRETAIN
 70
     1
  9
$PLINEGEN
 70
     0
  9
$PSLTSCALE
 70
     0
  9
$TREEDEPTH
 70
  3020
  9
$CMLSTYLE
  2
STANDARD
  9
$CMLJUST
 70
     0
  9
$CMLSCALE
 40
20.0
  9
$PROXYGRAPHICS
 70
     1
  9
$MEASUREMENT
 70
     1
  9
$CELWEIGHT
370
    -1
  9
$ENDCAPS
280
     0
  9
$JOINSTYLE
280
     0
  9
$LWDISPLAY
290
     0
  9
$INSUNITS
 70
     0
  9
$HYPERLINKBASE
  1

  9
$STYLESHEET
  1
CORUS_Mono.ctb
  9
$XEDIT
290
     1
  9
$CEPSNTYPE
380
     0
  9
$PSTYLEMODE
290
     1
  9
$FINGERPRINTGUID
  2
{9E2E0D10-E48E-11D3-BEBA-006008753510}
  9
$VERSIONGUID
  2
{9B04FE49-0205-4124-94C6-D38CE65EA9AC}
  9
$EXTNAMES
290
     1
  9
$PSVPSCALE
 40
0.0
  9
$OLESTARTUP
290
     0
  9
$SORTENTS
280
    96
  9
$INDEXCTL
280
     0
  9
$HIDETEXT
280
     0
  9
$XCLIPFRAME
290
     0
  9
$HALOGAP
280
     0
  9
$OBSCOLOR
 70
   257
  9
$OBSLTYPE
280
     0
  9
$INTERSECTIONDISPLAY
280
     0
  9
$INTERSECTIONCOLOR
 70
   257
  9
$DIMASSOC
280
     1
  9
$PROJECTNAME
  1

  0
ENDSEC
  0
SECTION
  2
CLASSES
  0
CLASS
  1
ACDBDICTIONARYWDFLT
  2
AcDbDictionaryWithDefault
  3
ObjectDBX Classes
 90
        0
 91
        1
280
     0
281
     0
  0
CLASS
  1
RASTERVARIABLES
  2
AcDbRasterVariables
  3
ISM
 90
        0
 91
        1
280
     0
281
     0
  0
CLASS
  1
IMAGEDEF
  2
AcDbRasterImageDef
  3
ISM
 90
        0
 91
        1
280
     0
281
     0
  0
CLASS
  1
IMAGEDEF_REACTOR
  2
AcDbRasterImageDefReactor
  3
ISM
 90
        1
 91
        0
280
     0
281
     0
  0
CLASS
  1
IMAGE
  2
AcDbRasterImage
  3
ISM
 90
     2175
 91
        0
280
     0
281
     1
  0
CLASS
  1
DICTIONARYVAR
  2
AcDbDictionaryVar
  3
ObjectDBX Classes
 90
        0
 91
       13
280
     0
281
     0
  0
CLASS
  1
PLOTSETTINGS
  2
AcDbPlotSettings
  3
ObjectDBX Classes
 90
        0
 91
        1
280
     0
281
     0
  0
CLASS
  1
MATERIAL
  2
AcDbMaterial
  3
ObjectDBX Classes
 90
     1153
 91
        3
280
     0
281
     0
  0
CLASS
  1
VISUALSTYLE
  2
AcDbVisualStyle
  3
ObjectDBX Classes
 90
     4095
 91
       24
280
     0
281
     0
  0
CLASS
  1
TABLESTYLE
  2
AcDbTableStyle
  3
ObjectDBX Classes
 90
     4095
 91
        1
280
     0
281
     0
  0
CLASS
  1
SCALE
  2
AcDbScale
  3
ObjectDBX Classes
 90
     1153
 91
       17
280
     0
281
     0
  0
CLASS
  1
MLEADERSTYLE
  2
AcDbMLeaderStyle
  3
ACDB_MLEADERSTYLE_CLASS
 90
     4095
 91
        1
280
     0
281
     0
  0
CLASS
  1
ACDBSECTIONVIEWSTYLE
  2
AcDbSectionViewStyle
  3
ObjectDBX Classes
 90
     1025
 91
        1
280
     0
281
     0
  0
CLASS
  1
ACDBDETAILVIEWSTYLE
  2
AcDbDetailViewStyle
  3
ObjectDBX Classes
 90
     1025
 91
        1
280
     0
281
     0
  0
CLASS
  1
CELLSTYLEMAP
  2
AcDbCellStyleMap
  3
ObjectDBX Classes
 90
     1152
 91
        2
280
     0
281
     0
  0
ENDSEC
  0
SECTION
  2
TABLES
  0
TABLE
  2
VPORT
  5
8
330
0
100
AcDbSymbolTable
 70
     1
  0
VPORT
  5
4824
330
8
100
AcDbSymbolTableRecord
100
AcDbViewportTableRecord
  2
*Active
 70
     0
 10
0.0
 20
0.0
 11
1.0
 21
1.0
 12
1187.199284759395
 22
110.477717112253
 13
0.0
 23
0.0
 14
10.0
 24
10.0
 15
10.0
 25
10.0
 16
0.0
 26
0.0
 36
1.0
 17
0.0
 27
0.0
 37
0.0
 40
2533.012025016773
 41
1.581724581724581
 42
50.0
 43
0.0
 44
0.0
 50
0.0
 51
0.0
 71
     0
 72
 20000
 73
     1
 74
     0
 75
     0
 76
     0
 77
     0
 78
     0
281
     0
 65
     1
110
0.0
120
0.0
130
0.0
111
1.0
121
0.0
131
0.0
112
0.0
122
1.0
132
0.0
 79
     0
146
0.0
1001
ACAD_NAV_VCDISPLAY
1070
     3
  0
ENDTAB
  0
TABLE
  2
LTYPE
  5
5
330
0
100
AcDbSymbolTable
 70
     7
  0
LTYPE
  5
12
330
5
100
AcDbSymbolTableRecord
100
AcDbLinetypeTableRecord
  2
BYBLOCK
 70
     0
  3

 72
    65
 73
     0
 40
0.0
  0
LTYPE
  5
13
330
5
100
AcDbSymbolTableRecord
100
AcDbLinetypeTableRecord
  2
BYLAYER
 70
     0
  3

 72
    65
 73
     0
 40
0.0
  0
LTYPE
  5
14
330
5
100
AcDbSymbolTableRecord
100
AcDbLinetypeTableRecord
  2
CONTINUOUS
 70
     0
  3
Solid line
 72
    65
 73
     0
 40
0.0
  0
LTYPE
  5
113E
330
5
100
AcDbSymbolTableRecord
100
AcDbLinetypeTableRecord
  2
VERDECKTX2
 70
     0
  3
Verdeckt (2x) ____ ____ ____ ____ ____ ____ ___
 72
    65
 73
     2
 40
19.05
 49
12.7
 74
     0
 49
-6.349999999999999
 74
     0
  0
LTYPE
  5
11FB
330
5
100
AcDbSymbolTableRecord
100
AcDbLinetypeTableRecord
  2
GESTRICHELT
 70
     0
  3
__ __ __ __ __ __ __ __ __ __ __ __ __ __ __
 72
    65
 73
     2
 40
0.75
 49
0.5
 74
     0
 49
-0.25
 74
     0
  0
LTYPE
  5
11FC
330
5
100
AcDbSymbolTableRecord
100
AcDbLinetypeTableRecord
  2
STRICHPUNKT
 70
     0
  3
__ . __ . __ . __ . __ . __ . __ . __ . __ . __
 72
    65
 73
     4
 40
1.0
 49
0.5
 74
     0
 49
-0.25
 74
     0
 49
0.0
 74
     0
 49
-0.25
 74
     0
  0
LTYPE
  5
11FD
330
5
100
AcDbSymbolTableRecord
100
AcDbLinetypeTableRecord
  2
VERDECKT
 70
     0
  3
_ _ _ _ _ _ _ _ _ _ _ _ _ _ _ _ _ _ _ _ _ _ _
 72
    65
 73
     2
 40
0.375
 49
0.25
 74
     0
 49
-0.125
 74
     0
  0
LTYPE
  5
28F7
330
5
100
AcDbSymbolTableRecord
100
AcDbLinetypeTableRecord
  2
AUSGEZOGEN
 70
     0
  3
Ausgezogene Linie
 72
    65
 73
     0
 40
0.0
  0
LTYPE
  5
2F05
330
5
100
AcDbSymbolTableRecord
100
AcDbLinetypeTableRecord
  2
PUNKT
 70
     0
  3
Punkt . . . . . . . . . . . . . . . . . . . . .
 72
    65
 73
     2
 40
6.349999999999999
 49
0.0
 74
     0
 49
-6.349999999999999
 74
     0
  0
ENDTAB
  0
TABLE
  2
LAYER
  5
2
102
{ACAD_XDICTIONARY
360
489F
102
}
330
0
100
AcDbSymbolTable
 70
    14
  0
LAYER
  5
E
102
{ACAD_XDICTIONARY
360
4878
102
}
330
2
100
AcDbSymbolTableRecord
100
AcDbLayerTableRecord
  2
0
 70
     0
 62
     7
  6
CONTINUOUS
370
    -3
390
5E8
  0
LAYER
  5
28
330
2
100
AcDbSymbolTableRecord
100
AcDbLayerTableRecord
  2
DEFPOINTS
 70
     0
 62
     7
  6
CONTINUOUS
290
     0
370
    -3
390
5E8
  0
LAYER
  5
B7
102
{ACAD_XDICTIONARY
360
487A
102
}
330
2
100
AcDbSymbolTableRecord
100
AcDbLayerTableRecord
  2
V5
 70
     0
 62
     7
  6
CONTINUOUS
370
    -3
390
5E8
  0
LAYER
  5
8F4
102
{ACAD_XDICTIONARY
360
487C
102
}
330
2
100
AcDbSymbolTableRecord
100
AcDbLayerTableRecord
  2
Mansfen
 70
     1
 62
     4
  6
CONTINUOUS
370
    -3
390
5E8
  0
LAYER
  5
11FF
102
{ACAD_XDICTIONARY
360
487E
102
}
330
2
100
AcDbSymbolTableRecord
100
AcDbLayerTableRecord
  2
V35
 70
     0
 62
     3
  6
CONTINUOUS
370
    -3
390
5E8
  0
LAYER
  5
1200
102
{ACAD_XDICTIONARY
360
4880
102
}
330
2
100
AcDbSymbolTableRecord
100
AcDbLayerTableRecord
  2
V25
 70
     0
 62
     4
  6
CONTINUOUS
370
    -3
390
5E8
  0
LAYER
  5
1201
102
{ACAD_XDICTIONARY
360
4882
102
}
330
2
100
AcDbSymbolTableRecord
100
AcDbLayerTableRecord
  2
SV35
 70
     0
 62
     6
  6
VERDECKT
370
    -3
390
5E8
  0
LAYER
  5
1202
102
{ACAD_XDICTIONARY
360
4884
102
}
330
2
100
AcDbSymbolTableRecord
100
AcDbLayerTableRecord
  2
ACHS
 70
     0
 62
     4
  6
STRICHPUNKT
370
    -3
390
5E8
  0
LAYER
  5
1207
102
{ACAD_XDICTIONARY
360
4886
102
}
330
2
100
AcDbSymbolTableRecord
100
AcDbLayerTableRecord
  2
TXT-D
 70
     0
 62
     2
  6
CONTINUOUS
370
    -3
390
5E8
  0
LAYER
  5
27E3
102
{ACAD_XDICTIONARY
360
4888
102
}
330
2
100
AcDbSymbolTableRecord
100
AcDbLayerTableRecord
  2
INSULATION
 70
     0
 62
     4
  6
CONTINUOUS
370
    -3
390
5E8
  0
LAYER
  5
27E4
102
{ACAD_XDICTIONARY
360
488A
102
}
330
2
100
AcDbSymbolTableRecord
100
AcDbLayerTableRecord
  2
_INSULATION
 70
     0
 62
     4
  6
CONTINUOUS
370
    -3
390
5E8
  0
LAYER
  5
28F8
102
{ACAD_XDICTIONARY
360
488C
102
}
330
2
100
AcDbSymbolTableRecord
100
AcDbLayerTableRecord
  2
ISO10TES
 70
     0
 62
     4
  6
CONTINUOUS
370
    -3
390
5E8
  0
LAYER
  5
28F9
102
{ACAD_XDICTIONARY
360
488E
102
}
330
2
100
AcDbSymbolTableRecord
100
AcDbLayerTableRecord
  2
WD
 70
     0
 62
     3
  6
CONTINUOUS
370
    -3
390
5E8
  0
LAYER
  5
2ADA
102
{ACAD_XDICTIONARY
360
4890
102
}
330
2
100
AcDbSymbolTableRecord
100
AcDbLayerTableRecord
  2
V30
 70
     0
 62
     3
  6
CONTINUOUS
370
    -3
390
5E8
  0
ENDTAB
  0
TABLE
  2
STYLE
  5
3
330
0
100
AcDbSymbolTable
 70
     3
  0
STYLE
  5
F
330
3
100
AcDbSymbolTableRecord
100
AcDbTextStyleTableRecord
  2
STANDARD
 70
     0
 40
0.0
 41
1.0
 50
0.0
 71
     0
 42
2.5
  3
txt
  4

  0
STYLE
  5
BF
330
3
100
AcDbSymbolTableRecord
100
AcDbTextStyleTableRecord
  2
ROMANS
 70
     0
 40
14.0
 41
1.0
 50
0.0
 71
     0
 42
14.0
  3
arial.ttf
  4

1001
ACAD
1000
Arial
1071
       34
  0
STYLE
  5
91F
330
3
100
AcDbSymbolTableRecord
100
AcDbTextStyleTableRecord
  2
Stil1
 70
     0
 40
3.0
 41
1.0
 50
0.0
 71
     0
 42
3.0
  3
arial.ttf
  4

1001
ACAD
1000
Arial
1071
       34
  0
ENDTAB
  0
TABLE
  2
VIEW
  5
6
330
0
100
AcDbSymbolTable
 70
     0
  0
ENDTAB
  0
TABLE
  2
UCS
  5
7
330
0
100
AcDbSymbolTable
 70
     0
  0
ENDTAB
  0
TABLE
  2
APPID
  5
9
330
0
100
AcDbSymbolTable
 70
     6
  0
APPID
  5
10
330
9
100
AcDbSymbolTableRecord
100
AcDbRegAppTableRecord
  2
ACAD
 70
     0
  0
APPID
  5
246E
330
9
100
AcDbSymbolTableRecord
100
AcDbRegAppTableRecord
  2
CONTENTBLOCKICON
 70
     0
  0
APPID
  5
2C7F
330
9
100
AcDbSymbolTableRecord
100
AcDbRegAppTableRecord
  2
DCO15
 70
     0
  0
APPID
  5
48A4
330
9
100
AcDbSymbolTableRecord
100
AcDbRegAppTableRecord
  2
ACAD_EXEMPT_FROM_CAD_STANDARDS
 70
     0
  0
APPID
  5
48AD
330
9
100
AcDbSymbolTableRecord
100
AcDbRegAppTableRecord
  2
ACAD_NAV_VCDISPLAY
 70
     0
  0
APPID
  5
4995
330
9
100
AcDbSymbolTableRecord
100
AcDbRegAppTableRecord
  2
ACAD_MLEADERVER
 70
     0
  0
ENDTAB
  0
TABLE
  2
DIMSTYLE
  5
A
330
0
100
AcDbSymbolTable
 70
     2
100
AcDbDimStyleTable
 71
     1
340
280
  0
DIMSTYLE
105
1D
330
A
100
AcDbSymbolTableRecord
100
AcDbDimStyleTableRecord
  2
STANDARD
 70
     0
340
F
  0
DIMSTYLE
105
280
330
A
100
AcDbSymbolTableRecord
100
AcDbDimStyleTableRecord
  2
18
 70
     0
 40
5.0
 41
3.5
 42
0.0
 43
3.75
 44
1.25
 73
     0
 74
     0
 77
     1
 78
     8
140
3.5
141
3.5
143
0.0394
147
0.625
171
     4
178
     2
271
     0
273
     8
274
     4
277
     6
340
BF
  0
ENDTAB
  0
TABLE
  2
BLOCK_RECORD
  5
1
330
0
100
AcDbSymbolTable
 70
     6
  0
BLOCK_RECORD
  5
18
102
{ACAD_XDICTIONARY
360
81C
102
}
330
1
100
AcDbSymbolTableRecord
100
AcDbBlockTableRecord
  2
*MODEL_SPACE
340
5EB
  0
BLOCK_RECORD
  5
2CEE
330
1
100
AcDbSymbolTableRecord
100
AcDbBlockTableRecord
  2
*Paper_Space
340
2CED
  0
BLOCK_RECORD
  5
1987
330
1
100
AcDbSymbolTableRecord
100
AcDbBlockTableRecord
  2
OKAPPE
340
0
102
{BLKREFS
331
45D6
102
}
  0
BLOCK_RECORD
  5
19F8
330
1
100
AcDbSymbolTableRecord
100
AcDbBlockTableRecord
  2
L25
340
0
102
{BLKREFS
331
4668
102
}
  0
BLOCK_RECORD
  5
27DE
330
1
100
AcDbSymbolTableRecord
100
AcDbBlockTableRecord
  2
DAEMM
340
0
102
{BLKREFS
331
4746
331
4747
331
4748
331
4749
331
474A
331
474B
331
474C
331
474D
331
474E
331
474F
331
4750
331
4751
331
4752
331
4753
331
4754
331
4755
331
4756
331
4757
331
4758
331
4759
331
475A
331
475B
331
475C
331
475D
331
475E
331
475F
331
36EE
331
36EF
331
36F0
331
36F1
331
36F2
331
36F3
331
36F4
331
36F6
331
36F7
331
36F8
331
36F9
331
36FA
331
36FB
331
36FC
331
36FD
331
36FE
331
36FF
331
3704
331
3705
331
3707
331
3708
331
403C
331
403D
331
403E
331
403F
331
4040
331
45B0
331
45B1
331
45B2
331
45B3
331
45B4
331
45B5
331
45B6
331
45B7
102
}
  0
BLOCK_RECORD
  5
2B5C
330
1
100
AcDbSymbolTableRecord
100
AcDbBlockTableRecord
  2
wädä
340
0
310
2800000020000000200000000100080000000000000400000000000000000000000000000000000000000000000080000080000000808000800000008000800080800000C0C0C000C0DCC000F0CAA6000020400000206000002080000020A0000020C0000020E00000400000004020000040400000406000004080000040A0
310
000040C0000040E00000600000006020000060400000606000006080000060A0000060C0000060E00000800000008020000080400000806000008080000080A0000080C0000080E00000A0000000A0200000A0400000A0600000A0800000A0A00000A0C00000A0E00000C0000000C0200000C0400000C0600000C0800000C0
310
A00000C0C00000C0E00000E0000000E0200000E0400000E0600000E0800000E0A00000E0C00000E0E00040000000400020004000400040006000400080004000A0004000C0004000E00040200000402020004020400040206000402080004020A0004020C0004020E000404000004040200040404000404060004040800040
310
40A0004040C0004040E00040600000406020004060400040606000406080004060A0004060C0004060E00040800000408020004080400040806000408080004080A0004080C0004080E00040A0000040A0200040A0400040A0600040A0800040A0A00040A0C00040A0E00040C0000040C0200040C0400040C0600040C08000
310
40C0A00040C0C00040C0E00040E0000040E0200040E0400040E0600040E0800040E0A00040E0C00040E0E00080000000800020008000400080006000800080008000A0008000C0008000E00080200000802020008020400080206000802080008020A0008020C0008020E00080400000804020008040400080406000804080
310
008040A0008040C0008040E00080600000806020008060400080606000806080008060A0008060C0008060E00080800000808020008080400080806000808080008080A0008080C0008080E00080A0000080A0200080A0400080A0600080A0800080A0A00080A0C00080A0E00080C0000080C0200080C0400080C0600080C0
310
800080C0A00080C0C00080C0E00080E0000080E0200080E0400080E0600080E0800080E0A00080E0C00080E0E000C0000000C0002000C0004000C0006000C0008000C000A000C000C000C000E000C0200000C0202000C0204000C0206000C0208000C020A000C020C000C020E000C0400000C0402000C0404000C0406000C0
310
408000C040A000C040C000C040E000C0600000C0602000C0604000C0606000C0608000C060A000C060C000C060E000C0800000C0802000C0804000C0806000C0808000C080A000C080C000C080E000C0A00000C0A02000C0A04000C0A06000C0A08000C0A0A000C0A0C000C0A0E000C0C00000C0C02000C0C04000C0C06000
310
C0C08000C0C0A000F0FBFF00A4A0A000808080000000FF0000FF000000FFFF00FF000000FF00FF00FFFF0000FFFFFF0000000000000000000000000000000000000000000000000000000000000000000000000000000000000000000000000000000000000000000000000000000000000000000000000000000000000000
310
00000000000000000000000000000000000000000000000000000000000000000000000000000000000000000000000000000000000000000000000000000000000000000000000000000000000000000000000000000000000000000000000000000000000000000000000000000000000000000000000000000000000000
310
00000000000000000000000000000000000000000000000000000000000000000000000000000000000000000000000000000000000000000000000000000000000000000000000000000000000000000000000000000000000000000000000000000000000000000000000000000000000000000000000000000000000000
310
00000000000000000000FEFEFEFE0000000000000000000000000000000000000000FEFEFEFEFEFEFEFE00000000FE000000000000000000000000FEFEFEFEFEFEFE00000000000000000000000000FE00000000000000FEFEFEFE000000000000000000000000000000000000000000000000000000FE000000FEFEFEFEFE
310
FE000000000000000000000000000000FE000000000000FE000000000000000000FEFEFEFEFE00000000000000000000FE0000000000FE000000000000000000000000000000FEFEFEFEFEFE000000FE0000000000FE000000000000000000000000000000000000000000FEFEFEFE00000000000000FE0000000000000000
310
00000000FEFEFEFEFEFEFEFE000000000000000000000000FE00000000FEFEFEFEFEFEFE000000000000000000000000000000000000000000FEFEFEFE000000000000000000000000000000000000000000000000000000000000000000000000000000000000000000000000000000000000000000000000000000000000
310
00000000000000000000000000000000000000000000000000000000000000000000000000000000000000000000000000000000000000000000000000000000000000000000000000000000000000000000000000000000000000000000000000000000000000000000000000000000000000000000000000000000000000
310
00000000000000000000000000000000000000000000000000000000000000000000000000000000000000000000000000000000000000000000000000000000000000000000000000000000000000000000000000000000000000000000000000000000000000000000000000000000000000000000000000000000000000
310
0000000000000000000000000000000000000000000000000000000000000000000000000000000000000000000000000000000000000000
102
{BLKREFS
331
2BF0
331
2BFB
331
2BFC
331
2BFD
331
2BFE
331
2BFF
331
2C12
331
2C13
331
2C14
331
2C15
331
2C16
331
2C17
331
2C18
331
2C19
331
2C1A
331
2C1B
331
2C1C
331
2C1D
331
2C1E
331
2C1F
331
2C21
331
472C
331
472D
331
472E
331
2D20
331
2D21
331
2D22
331
2D23
331
2D24
102
}
  0
BLOCK_RECORD
  5
2D55
330
1
100
AcDbSymbolTableRecord
100
AcDbBlockTableRecord
  2
luft
340
0
310
2800000020000000200000000100080000000000000400000000000000000000000000000000000000000000000080000080000000808000800000008000800080800000C0C0C000C0DCC000F0CAA6000020400000206000002080000020A0000020C0000020E00000400000004020000040400000406000004080000040A0
310
000040C0000040E00000600000006020000060400000606000006080000060A0000060C0000060E00000800000008020000080400000806000008080000080A0000080C0000080E00000A0000000A0200000A0400000A0600000A0800000A0A00000A0C00000A0E00000C0000000C0200000C0400000C0600000C0800000C0
310
A00000C0C00000C0E00000E0000000E0200000E0400000E0600000E0800000E0A00000E0C00000E0E00040000000400020004000400040006000400080004000A0004000C0004000E00040200000402020004020400040206000402080004020A0004020C0004020E000404000004040200040404000404060004040800040
310
40A0004040C0004040E00040600000406020004060400040606000406080004060A0004060C0004060E00040800000408020004080400040806000408080004080A0004080C0004080E00040A0000040A0200040A0400040A0600040A0800040A0A00040A0C00040A0E00040C0000040C0200040C0400040C0600040C08000
310
40C0A00040C0C00040C0E00040E0000040E0200040E0400040E0600040E0800040E0A00040E0C00040E0E00080000000800020008000400080006000800080008000A0008000C0008000E00080200000802020008020400080206000802080008020A0008020C0008020E00080400000804020008040400080406000804080
310
008040A0008040C0008040E00080600000806020008060400080606000806080008060A0008060C0008060E00080800000808020008080400080806000808080008080A0008080C0008080E00080A0000080A0200080A0400080A0600080A0800080A0A00080A0C00080A0E00080C0000080C0200080C0400080C0600080C0
310
800080C0A00080C0C00080C0E00080E0000080E0200080E0400080E0600080E0800080E0A00080E0C00080E0E000C0000000C0002000C0004000C0006000C0008000C000A000C000C000C000E000C0200000C0202000C0204000C0206000C0208000C020A000C020C000C020E000C0400000C0402000C0404000C0406000C0
310
408000C040A000C040C000C040E000C0600000C0602000C0604000C0606000C0608000C060A000C060C000C060E000C0800000C0802000C0804000C0806000C0808000C080A000C080C000C080E000C0A00000C0A02000C0A04000C0A06000C0A08000C0A0A000C0A0C000C0A0E000C0C00000C0C02000C0C04000C0C06000
310
C0C08000C0C0A000F0FBFF00A4A0A000808080000000FF0000FF000000FFFF00FF000000FF00FF00FFFF0000FFFFFF00000000000000000000000000000000000000000000000000000000000000000000000000000000FFFF000000000000000000000000000000000000000000000000000000000000FFFFFFFF00000000
310
00000000000000000000000000000000000000000000000000FFFF00FF00000000000000000000000000000000000000000000000000000000FF00FF000000000000000000000000000000000000000000000000000000000000FF00FF0000000000000000000000000000000000000000000000000000000000000000FF00
310
00000000000000000000000000000000000000000000000000000000000000FF00000000000000000000000000000000000000000000000000000000000000FF0000000000000000000000000000000000000000000000000000000000000000FF000000000000000000000000000000000000000000000000000000000000
310
000000000000000000000000000000000000000000000000000000000000000000FF00000000000000000000000000000000000000000000000000000000000000FF00000000000000000000000000000000000000000000000000000000000000FF0000000000000000000000000000000000000000000000000000000000
310
0000FF00000000000000000000000000000000000000000000000000000000000000FF00000000000000000000000000000000000000000000000000000000000000FF00000000000000000000000000000000000000000000000000000000000000FF00000000000000000000000000000000000000000000000000000000
310
000000FF0000000000000000FF00000000000000000000000000000000000000000000FF0000000000000000FF00000000000000000000000000000000000000000000FF0000000000000000FF00000000000000000000000000000000000000000000FF0000000000000000FF000000000000000000000000000000000000
310
00000000FF0000000000000000FF00000000000000000000000000000000000000000000FF0000000000000000FF00000000000000000000000000000000000000000000FF0000000000000000FF00000000000000000000000000000000000000000000FF0000000000000000FF0000000000000000000000000000000000
310
000000000000FF000000000000FF000000000000000000000000000000000000000000000000FF000000000000FF00000000000000000000000000000000000000000000000000FFFFFFFFFFFF0000000000000000000000000000000000000000000000000000000000000000000000000000000000000000000000000000
310
0000000000000000000000000000000000000000000000000000000000000000000000000000000000000000000000000000000000000000
102
{BLKREFS
331
2F89
102
}
  0
BLOCK_RECORD
  5
3C93
330
1
100
AcDbSymbolTableRecord
100
AcDbBlockTableRecord
  2
e140
340
0
102
{BLKREFS
331
403B
102
}
  0
ENDTAB
  0
ENDSEC
  0
SECTION
  2
BLOCKS
  0
BLOCK
  5
19
330
18
100
AcDbEntity
  8
0
100
AcDbBlockBegin
  2
*MODEL_SPACE
 70
     0
 10
0.0
 20
0.0
 30
0.0
  3
*MODEL_SPACE
  1

  0
ENDBLK
  5
1A
330
18
100
AcDbEntity
  8
0
100
AcDbBlockEnd
  0
BLOCK
  5
2D0C
330
2CEE
100
AcDbEntity
 67
     1
  8
0
 48
15.0
100
AcDbBlockBegin
  2
*Paper_Space
 70
     0
 10
0.0
 20
0.0
 30
0.0
  3
*Paper_Space
  1

  0
ENDBLK
  5
2D0D
330
2CEE
100
AcDbEntity
 67
     1
  8
0
 48
15.0
100
AcDbBlockEnd
  0
BLOCK
  5
1995
330
1987
100
AcDbEntity
  8
0
100
AcDbBlockBegin
  2
OKAPPE
 70
     0
 10
0.0
 20
0.0
 30
0.0
  3
OKAPPE
  1

  0
LINE
  5
1988
330
1987
100
AcDbEntity
  8
ACHS
100
AcDbLine
 10
-0.0523408411157789
 20
0.1898566739969283
 30
0.0
 11
5.447659158884221
 21
0.1898566739969283
 31
0.0
  0
LINE
  5
1989
330
1987
100
AcDbEntity
  8
ACHS
100
AcDbLine
 10
-0.0523408411157789
 20
0.1898566739969283
 30
0.0
 11
-15.94039117203374
 21
0.1898566739969283
 31
0.0
  0
LINE
  5
198A
330
1987
100
AcDbEntity
  8
V5
  6
Continuous
100
AcDbLine
 10
-17.55234084111578
 20
75.18985667399693
 30
0.0
 11
10.94765915888422
 21
75.18985667399693
 31
0.0
  0
LINE
  5
198B
330
1987
100
AcDbEntity
  8
V5
  6
Continuous
100
AcDbLine
 10
10.94765915888422
 20
75.18985667399693
 30
0.0
 11
10.94765915888422
 21
40.18985667399692
 31
0.0
  0
LINE
  5
198C
330
1987
100
AcDbEntity
  8
V5
  6
Continuous
100
AcDbLine
 10
-17.55234084111578
 20
75.18985667399693
 30
0.0
 11
-17.55234084111578
 21
70.68985667399693
 31
0.0
  0
LINE
  5
198D
330
1987
100
AcDbEntity
  8
V5
  6
Continuous
100
AcDbLine
 10
-17.55234084111578
 20
70.68985667399693
 30
0.0
 11
6.447659158884221
 21
70.68985667399693
 31
0.0
  0
LINE
  5
198E
330
1987
100
AcDbEntity
  8
V5
  6
Continuous
100
AcDbLine
 10
6.447659158884221
 20
70.68985667399693
 30
0.0
 11
6.447659158884221
 21
40.18985667399692
 31
0.0
  0
LINE
  5
198F
330
1987
100
AcDbEntity
  8
V5
  6
Continuous
100
AcDbLine
 10
-0.0523408411157789
 20
12.18985667399693
 30
0.0
 11
10.94765915888422
 21
40.18985667399692
 31
0.0
  0
LINE
  5
1990
330
1987
100
AcDbEntity
  8
V5
  6
Continuous
100
AcDbLine
 10
-0.0523408411157789
 20
-8.810143326003071
 30
0.0
 11
-3.052340841115778
 21
-5.810143326003071
 31
0.0
  0
LINE
  5
1991
330
1987
100
AcDbEntity
  8
V5
  6
Continuous
100
AcDbLine
 10
-3.952340841115869
 20
9.489856673996996
 30
0.0
 11
-3.052340841115778
 21
-5.810143326003071
 31
0.0
  0
LINE
  5
1992
330
1987
100
AcDbEntity
  8
V5
  6
Continuous
100
AcDbLine
 10
-3.952340841115869
 20
9.489856673996996
 30
0.0
 11
6.447659158884221
 21
40.18985667399692
 31
0.0
  0
LINE
  5
1993
330
1987
100
AcDbEntity
  8
V5
  6
Continuous
100
AcDbLine
 10
-0.0523408411157789
 20
-8.810143326003071
 30
0.0
 11
-0.0523408411157789
 21
12.18985667399693
 31
0.0
  0
LWPOLYLINE
  5
1994
330
1987
100
AcDbEntity
  8
V5
  6
Continuous
100
AcDbPolyline
 90
       11
 70
     0
 43
0.0
 10
-17.55234084111578
 20
75.18985667399693
 10
10.94765915888422
 20
75.18985667399693
 10
10.94765915888422
 20
40.18985667399692
 10
-0.0523408411157789
 20
12.18985667399693
 10
-0.0523408411157789
 20
-8.810143326003071
 10
-3.052340841115778
 20
-5.810143326002958
 10
-3.952340841115869
 20
9.489856673996882
 10
6.447659158884221
 20
40.18985667399704
 10
6.447659158884221
 20
70.68985667399693
 10
-17.55234084111578
 20
70.68985667399693
 10
-17.55234084111578
 20
75.18985667399693
  0
ENDBLK
  5
1996
330
1987
100
AcDbEntity
  8
0
100
AcDbBlockEnd
  0
BLOCK
  5
1A17
330
19F8
100
AcDbEntity
  8
0
100
AcDbBlockBegin
  2
L25
 70
     0
 10
0.0
 20
0.0
 30
0.0
  3
L25
  1

  0
LINE
  5
19F9
330
19F8
100
AcDbEntity
  8
V5
 62
     7
100
AcDbLine
 10
29.79268579799634
 20
0.9181486771002482
 30
0.0
 11
29.79268579799634
 21
6.918148677100248
 31
0.0
  0
ARC
  5
19FA
330
19F8
100
AcDbEntity
  8
V5
 62
     7
100
AcDbCircle
 10
-0.2073042020036837
 20
78.91814867710002
 30
0.0
 40
3.0
100
AcDbArc
 50
0.0
 51
90.0
  0
ARC
  5
19FB
330
19F8
100
AcDbEntity
  8
V5
 62
     7
100
AcDbCircle
 10
-0.2073042020036837
 20
78.91814867710002
 30
0.0
 40
3.0
100
AcDbArc
 50
90.0
 51
180.0
  0
ARC
  5
19FC
330
19F8
100
AcDbEntity
  8
V5
 62
     7
100
AcDbCircle
 10
4.792687797996109
 20
74.50393867710011
 30
0.0
 40
1.0
100
AcDbArc
 50
359.9948
 51
43.71048
  0
ARC
  5
19FD
330
19F8
100
AcDbEntity
  8
V5
 62
     7
100
AcDbCircle
 10
4.792687797996109
 20
71.91815067710002
 30
0.0
 40
1.0
100
AcDbArc
 50
270.0
 51
0.000008651422
  0
LINE
  5
19FE
330
19F8
100
AcDbEntity
  8
V5
 62
     7
100
AcDbLine
 10
5.792691797996326
 20
71.91815067710002
 30
0.0
 11
5.792691797996326
 21
74.50393867710011
 31
0.0
  0
LINE
  5
19FF
330
19F8
100
AcDbEntity
  8
V5
 62
     7
100
AcDbLine
 10
2.042686797996225
 20
70.9181476770999
 30
0.0
 11
4.792687797996109
 21
70.9181476770999
 31
0.0
  0
ARC
  5
1A00
330
19F8
100
AcDbEntity
  8
V5
 62
     7
100
AcDbCircle
 10
2.042686797996225
 20
69.91814867710002
 30
0.0
 40
1.0
100
AcDbArc
 50
90.00002
 51
180.0
  0
ARC
  5
1A01
330
19F8
100
AcDbEntity
  8
V5
 62
     7
100
AcDbCircle
 10
4.792687797996109
 20
74.50393867710011
 30
0.0
 40
1.0
100
AcDbArc
 50
45.0
 51
45.0
  0
LINE
  5
1A02
330
19F8
100
AcDbEntity
  8
V5
 62
     7
100
AcDbLine
 10
5.499798797996277
 20
75.21103867709996
 30
0.0
 11
2.792689797996104
 21
77.91814567710014
 31
0.0
  0
ARC
  5
1A03
330
19F8
100
AcDbEntity
  8
V5
 62
     7
100
AcDbCircle
 10
-5.20731220200389
 20
74.50393867710011
 30
0.0
 40
1.0
100
AcDbArc
 50
136.2895
 51
180.0052
  0
ARC
  5
1A04
330
19F8
100
AcDbEntity
  8
V5
 62
     7
100
AcDbCircle
 10
-5.20731220200389
 20
71.91815067710002
 30
0.0
 40
1.0
100
AcDbArc
 50
180.0
 51
270.0
  0
LINE
  5
1A05
330
19F8
100
AcDbEntity
  8
V5
 62
     7
100
AcDbLine
 10
-6.207311202003779
 20
71.91815067710002
 30
0.0
 11
-6.207311202003779
 21
74.50393867710011
 31
0.0
  0
LINE
  5
1A06
330
19F8
100
AcDbEntity
  8
V5
 62
     7
100
AcDbLine
 10
-2.457311202003779
 20
70.9181476770999
 30
0.0
 11
-5.20731220200389
 21
70.9181476770999
 31
0.0
  0
ARC
  5
1A07
330
19F8
100
AcDbEntity
  8
V5
 62
     7
100
AcDbCircle
 10
-2.457311202003779
 20
69.91814867710002
 30
0.0
 40
1.0
100
AcDbArc
 50
0.000006830186
 51
89.99998000000001
  0
ARC
  5
1A08
330
19F8
100
AcDbEntity
  8
V5
 62
     7
100
AcDbCircle
 10
-5.20731220200389
 20
74.50393867710011
 30
0.0
 40
1.0
100
AcDbArc
 50
135.0
 51
135.0
  0
LINE
  5
1A09
330
19F8
100
AcDbEntity
  8
V5
 62
     7
100
AcDbLine
 10
-5.914423202003831
 20
75.21103867709996
 30
0.0
 11
-3.207309202003671
 21
77.91814567710014
 31
0.0
  0
LINE
  5
1A0A
330
19F8
100
AcDbEntity
  8
V5
 62
     7
100
AcDbLine
 10
2.792689797996104
 20
77.91814567710014
 30
0.0
 11
2.792689797996104
 21
78.91814867710002
 31
0.0
  0
LINE
  5
1A0B
330
19F8
100
AcDbEntity
  8
V5
 62
     7
100
AcDbLine
 10
-3.207309202003671
 20
77.91814567710014
 30
0.0
 11
-3.207309202003671
 21
78.91814867710002
 31
0.0
  0
ARC
  5
1A0C
330
19F8
100
AcDbEntity
  8
V5
 62
     7
100
AcDbCircle
 10
5.541646797996122
 20
9.91814867710002
 30
0.0
 40
2.999999
100
AcDbArc
 50
185.0006
 51
270.0
  0
ARC
  5
1A0D
330
19F8
100
AcDbEntity
  8
V5
 62
     7
100
AcDbCircle
 10
-5.956271202003676
 20
9.91814867710002
 30
0.0
 40
2.999999
100
AcDbArc
 50
270.0
 51
354.9994
  0
LINE
  5
1A0E
330
19F8
100
AcDbEntity
  8
V5
 62
     7
100
AcDbLine
 10
2.553069797996158
 20
9.656648677099951
 30
0.0
 11
1.042687797996109
 21
26.91814867710025
 31
0.0
  0
LINE
  5
1A0F
330
19F8
100
AcDbEntity
  8
V5
 62
     7
100
AcDbLine
 10
-2.967694202003713
 20
9.656648677099951
 30
0.0
 11
-1.45731220200389
 21
26.91814867710025
 31
0.0
  0
LINE
  5
1A10
330
19F8
100
AcDbEntity
  8
V5
 62
     7
100
AcDbLine
 10
-30.20731420200366
 20
0.9181486771002482
 30
0.0
 11
-30.20731420200366
 21
6.918148677100248
 31
0.0
  0
LINE
  5
1A11
330
19F8
100
AcDbEntity
  8
V5
 62
     7
100
AcDbLine
 10
-30.20731420200366
 20
6.918148677100248
 30
0.0
 11
-5.956271202003676
 21
6.918148677100248
 31
0.0
  0
LINE
  5
1A12
330
19F8
100
AcDbEntity
  8
V5
 62
     7
100
AcDbLine
 10
-30.20731420200366
 20
0.9181486771002482
 30
0.0
 11
-0.2073042020036837
 21
0.9181486771002482
 31
0.0
  0
LINE
  5
1A13
330
19F8
100
AcDbEntity
  8
V5
 62
     7
100
AcDbLine
 10
1.042687797996109
 20
69.91814867710002
 30
0.0
 11
1.042687797996109
 21
26.91814867710025
 31
0.0
  0
LINE
  5
1A14
330
19F8
100
AcDbEntity
  8
V5
 62
     7
100
AcDbLine
 10
-1.45731220200389
 20
69.91814867710002
 30
0.0
 11
-1.45731220200389
 21
26.91814867710025
 31
0.0
  0
LINE
  5
1A15
330
19F8
100
AcDbEntity
  8
V5
 62
     7
100
AcDbLine
 10
29.79268579799634
 20
6.918148677100248
 30
0.0
 11
5.541646797996122
 21
6.918148677100248
 31
0.0
  0
LINE
  5
1A16
330
19F8
100
AcDbEntity
  8
V5
 62
     7
100
AcDbLine
 10
29.79268579799634
 20
0.9181486771002482
 30
0.0
 11
-0.2073042020036837
 21
0.9181486771002482
 31
0.0
  0
ENDBLK
  5
1A18
330
19F8
100
AcDbEntity
  8
0
100
AcDbBlockEnd
  0
BLOCK
  5
27E0
330
27DE
100
AcDbEntity
  8
0
 48
5.0
100
AcDbBlockBegin
  2
DAEMM
 70
     0
 10
0.0
 20
0.0
 30
0.0
  3
DAEMM
  1

  0
LWPOLYLINE
  5
27DF
330
27DE
100
AcDbEntity
  8
INSULATION
100
AcDbPolyline
 90
        6
 70
     0
 43
0.0
 10
0.0
 20
0.0
 42
0.5249926553343702
 10
1.869693845669928
 20
2.710102051443413
 10
0.1303061543300714
 20
7.289897948556586
 42
-1.449489742783175
 10
3.869693845669928
 20
7.289897948556586
 10
2.130306154330071
 20
2.710102051443413
 42
0.5249926553343702
 10
4.0
 20
0.0
  0
ENDBLK
  5
27E1
330
27DE
100
AcDbEntity
  8
0
 48
5.0
100
AcDbBlockEnd
  0
BLOCK
  5
2B64
330
2B5C
100
AcDbEntity
  8
0
 48
5.0
100
AcDbBlockBegin
  2
wädä
 70
     0
 10
0.0
 20
0.0
 30
0.0
  3
wädä
  1

  0
LWPOLYLINE
  5
2B5D
330
2B5C
100
AcDbEntity
  8
ISO10TES
100
AcDbPolyline
 90
        2
 70
     0
 43
0.0
 10
-60.4800000000001
 20
-0.0000000000001137
 10
-8.6399982384115
 20
8.639999999999758
  0
LINE
  5
2B5E
330
2B5C
100
AcDbEntity
  8
ISO10TES
100
AcDbLine
 10
-8.639998238411507
 20
8.639999999999758
 30
0.0
 11
-60.48000000000016
 21
17.27999999999986
 31
0.0
  0
LINE
  5
2B5F
330
2B5C
100
AcDbEntity
  8
ISO10TES
100
AcDbLine
 10
-8.639998238411507
 20
-8.639999999999986
 30
0.0
 11
-60.48000000000016
 21
0.0000000000002274
 31
0.0
  0
ARC
  5
2B60
330
2B5C
100
AcDbEntity
  8
ISO10TES
100
AcDbCircle
 10
-60.48000000000006
 20
8.639999999999872
 30
0.0
 40
8.640000000000002
100
AcDbArc
 50
90.0
 51
180.0
  0
ARC
  5
2B61
330
2B5C
100
AcDbEntity
  8
ISO10TES
100
AcDbCircle
 10
-60.48000000000006
 20
8.639999999999872
 30
0.0
 40
8.640000000000002
100
AcDbArc
 50
180.0
 51
270.0
  0
LWPOLYLINE
  5
2B62
330
2B5C
100
AcDbEntity
  8
ISO10TES
100
AcDbPolyline
 90
        2
 70
     0
 43
0.0
 10
-8.64
 20
8.639999999999986
 42
-0.4142135623730951
 10
0.0
 20
0.0
 42
-0.4142135623730951
  0
ARC
  5
2B63
330
2B5C
100
AcDbEntity
  8
ISO10TES
100
AcDbCircle
 10
-8.639999999999801
 20
0.0000000000002274
 30
0.0
 40
8.639999999999837
100
AcDbArc
 50
269.9999999999988
 51
0.0
  0
ENDBLK
  5
2B65
330
2B5C
100
AcDbEntity
  8
0
 48
5.0
100
AcDbBlockEnd
  0
BLOCK
  5
2D56
330
2D55
100
AcDbEntity
  8
0
 48
15.0
100
AcDbBlockBegin
  2
luft
 70
     0
 10
0.0
 20
0.0
 30
0.0
  3
luft
  1

  0
LINE
  5
2F81
330
2D55
100
AcDbEntity
  8
V5
  6
PUNKT
 48
0.05
100
AcDbLine
 10
-66.92263426701265
 20
-67.85087912496965
 30
0.0
 11
-56.82242626844686
 21
-50.19159053675616
 31
0.0
  0
LINE
  5
2F82
330
2D55
100
AcDbEntity
  8
V5
  6
PUNKT
 48
0.05
100
AcDbLine
 10
-49.26334567879928
 20
-57.75067112640385
 30
0.0
 11
-66.92263426701265
 21
-67.85087912496965
 31
0.0
  0
LINE
  5
2F83
330
2D55
100
AcDbEntity
  8
V5
  6
PUNKT
 48
0.05
100
AcDbLine
 10
-66.92263426701265
 20
-67.85087912496965
 30
0.0
 11
-43.15240142293748
 21
-44.08064628089448
 31
0.0
  0
LINE
  5
2F84
330
2D55
100
AcDbEntity
  8
V5
  6
PUNKT
 48
0.05
100
AcDbLine
 10
-56.82242626844686
 20
-50.19159053675616
 30
0.0
 11
-49.26334567879928
 21
-57.75067112640385
 31
0.0
  0
ARC
  5
2F85
330
2D55
100
AcDbEntity
  8
V5
  6
PUNKT
 48
0.05
100
AcDbCircle
 10
-55.88032348429533
 20
-31.35272421953664
 30
0.0
 40
18.0
100
AcDbArc
 50
315.0
 51
0.0
  0
ARC
  5
2F86
330
2D55
100
AcDbEntity
  8
V5
  6
PUNKT
 48
0.05
100
AcDbCircle
 10
-18.94016174214766
 20
28.66130959139673
 30
0.0
 40
18.94016174214766
100
AcDbArc
 50
0.0
 51
180.0
  0
LINE
  5
2F87
330
2D55
100
AcDbEntity
  8
V5
  6
PUNKT
 48
0.05
100
AcDbLine
 10
-37.88032348429533
 20
28.66130959139673
 30
0.0
 11
-37.88032348429533
 21
-31.35272421953664
 31
0.0
  0
LINE
  5
2F88
330
2D55
100
AcDbEntity
  8
V5
  6
PUNKT
 48
0.05
100
AcDbLine
 10
0.0
 20
28.66130959139673
 30
0.0
 11
0.0
 21
0.0
 31
0.0
  0
ENDBLK
  5
2D57
330
2D55
100
AcDbEntity
  8
0
 48
15.0
100
AcDbBlockEnd
  0
BLOCK
  5
3CB6
330
3C93
100
AcDbEntity
  8
0
 62
     6
 48
10.0
100
AcDbBlockBegin
  2
e140
 70
     0
 10
0.0
 20
0.0
 30
0.0
  3
e140
  1

  0
LINE
  5
3C94
330
3C93
100
AcDbEntity
  8
0
 62
     3
100
AcDbLine
 10
1.761882177941579
 20
146.0000000000004
 30
0.0
 11
25.48733180248865
 21
11.0
 31
0.0
  0
LINE
  5
3C95
330
3C93
100
AcDbEntity
  8
0
 62
     3
100
AcDbLine
 10
-1.761882177942503
 20
146.0000000000001
 30
0.0
 11
-25.48733180248864
 21
11.0
 31
0.0
  0
LINE
  5
3C96
330
3C93
100
AcDbEntity
  8
0
 62
     3
100
AcDbLine
 10
-4.705591908087658
 20
12.70737123184409
 30
0.0
 11
-2.000000000000454
 21
29.0
 31
0.0
  0
LINE
  5
3C97
330
3C93
100
AcDbEntity
  8
0
 62
     3
100
AcDbLine
 10
4.705591908087637
 20
12.70737123184401
 30
0.0
 11
1.999999999999545
 21
29.0
 31
0.0
  0
LINE
  5
3C98
330
3C93
100
AcDbEntity
  8
0
 62
     4
100
AcDbLine
 10
-21.99999999999864
 20
18.45272980605568
 30
0.0
 11
-21.99999999999973
 21
-19.91791965098093
 31
0.0
  0
LINE
  5
3C99
330
3C93
100
AcDbEntity
  8
0
 62
     4
100
AcDbLine
 10
21.99999999999954
 20
18.45272980605341
 30
0.0
 11
21.99999999999954
 21
-19.91791965098093
 31
0.0
  0
LINE
  5
3C9A
330
3C93
100
AcDbEntity
  8
0
 62
     3
100
AcDbLine
 10
-32.50000000000046
 20
0.0
 30
0.0
 11
32.50000000000046
 21
0.0
 31
0.0
  0
LINE
  5
3C9B
330
3C93
100
AcDbEntity
  8
0
 62
     3
100
AcDbLine
 10
-6.684068191505676
 20
10.99999999999997
 30
0.0
 11
-32.00000000000045
 21
11.0
 31
0.0
  0
LINE
  5
3C9C
330
3C93
100
AcDbEntity
  8
0
 62
     3
100
AcDbLine
 10
-32.50000000000046
 20
10.5
 30
0.0
 11
-32.50000000000046
 21
0.0
 31
0.0
  0
ARC
  5
3C9D
330
3C93
100
AcDbEntity
  8
0
 62
     3
100
AcDbCircle
 10
-32.00000000000045
 20
10.5
 30
0.0
 40
0.5
100
AcDbArc
 50
90.0
 51
180.0
  0
LINE
  5
3C9E
330
3C93
100
AcDbEntity
  8
0
 62
     3
100
AcDbLine
 10
6.684068191505641
 20
10.99999999999997
 30
0.0
 11
32.00000000000045
 21
11.0
 31
0.0
  0
ARC
  5
3C9F
330
3C93
100
AcDbEntity
  8
0
 62
     3
100
AcDbCircle
 10
-6.684068191505676
 20
12.99999999999997
 30
0.0
 40
2.0
100
AcDbArc
 50
270.0
 51
351.5866003291716
  0
ARC
  5
3CA0
330
3C93
100
AcDbEntity
  8
0
 62
     3
100
AcDbCircle
 10
6.684068191505641
 20
12.99999999999997
 30
0.0
 40
2.0
100
AcDbArc
 50
188.4133996708317
 51
270.0
  0
LINE
  5
3CA1
330
3C93
100
AcDbEntity
  8
0
 62
     3
100
AcDbLine
 10
32.50000000000046
 20
10.5
 30
0.0
 11
32.50000000000046
 21
0.0
 31
0.0
  0
ARC
  5
3CA2
330
3C93
100
AcDbEntity
  8
0
 62
     3
100
AcDbCircle
 10
32.00000000000045
 20
10.5
 30
0.0
 40
0.5
100
AcDbArc
 50
0.0
 51
90.0
  0
LINE
  5
3CA3
330
3C93
100
AcDbEntity
  8
0
 62
     3
100
AcDbLine
 10
1.761882177941579
 20
146.0000000000004
 30
0.0
 11
1.999999999999545
 21
29.0
 31
0.0
  0
LINE
  5
3CA4
330
3C93
100
AcDbEntity
  8
0
 62
     3
100
AcDbLine
 10
-1.761882177942503
 20
146.0000000000001
 30
0.0
 11
-2.000000000000454
 21
29.0
 31
0.0
  0
ARC
  5
3CA5
330
3C93
100
AcDbEntity
  8
0
 62
     3
100
AcDbCircle
 10
-2.549919279120675
 20
189.2
 30
0.0
 40
0.8
100
AcDbArc
 50
359.9768564758476
 51
90.0
  0
ARC
  5
3CA6
330
3C93
100
AcDbEntity
  8
0
 62
     3
100
AcDbCircle
 10
2.54991927911977
 20
189.2
 30
0.0
 40
0.8
100
AcDbArc
 50
90.0
 51
180.0231435241524
  0
LINE
  5
3CA7
330
3C93
100
AcDbEntity
  8
0
 62
     3
100
AcDbLine
 10
1.749919344383773
 20
189.1996768554512
 30
0.0
 11
1.761882177941579
 21
146.0000000000004
 31
0.0
  0
LINE
  5
3CA8
330
3C93
100
AcDbEntity
  8
0
 62
     3
100
AcDbLine
 10
-1.749919344384679
 20
189.1996768554512
 30
0.0
 11
-1.761882177942503
 21
146.0000000000001
 31
0.0
  0
ARC
  5
3CA9
330
3C93
100
AcDbEntity
  8
0
 62
     3
100
AcDbCircle
 10
-0.0000000000004547
 20
198.0
 30
0.0
 40
3.0
100
AcDbArc
 50
0.0
 51
180.0
  0
LINE
  5
3CAA
330
3C93
100
AcDbEntity
  8
0
 62
     3
100
AcDbLine
 10
-2.549919279120675
 20
190.0
 30
0.0
 11
-6.000000000000454
 21
190.0
 31
0.0
  0
LINE
  5
3CAB
330
3C93
100
AcDbEntity
  8
0
 62
     3
100
AcDbLine
 10
-5.597271020094954
 20
193.5344394073002
 30
0.0
 11
-3.100682244976724
 21
196.847524613036
 31
0.0
  0
ARC
  5
3CAC
330
3C93
100
AcDbEntity
  8
0
 62
     3
100
AcDbCircle
 10
-4.000000000000451
 20
192.330809360996
 30
0.0
 40
2.0
100
AcDbArc
 50
142.9999999999953
 51
180.0
  0
LINE
  5
3CAD
330
3C93
100
AcDbEntity
  8
0
 62
     3
100
AcDbLine
 10
-6.000000000000454
 20
190.0
 30
0.0
 11
-6.000000000000451
 21
192.330809360996
 31
0.0
  0
LINE
  5
3CAE
330
3C93
100
AcDbEntity
  8
0
 62
     3
100
AcDbLine
 10
-3.000000000000454
 20
197.1484321246121
 30
0.0
 11
-3.000000000000454
 21
198.0
 31
0.0
  0
ARC
  5
3CAF
330
3C93
100
AcDbEntity
  8
0
 62
     3
100
AcDbCircle
 10
-3.500000000000454
 20
197.1484321246121
 30
0.0
 40
0.5
100
AcDbArc
 50
322.9999999999953
 51
0.0000000000032569
  0
ARC
  5
3CB0
330
3C93
100
AcDbEntity
  8
0
 62
     3
100
AcDbCircle
 10
3.999999999999545
 20
192.330809360996
 30
0.0
 40
2.0
100
AcDbArc
 50
0.0
 51
37.00000000000466
  0
LINE
  5
3CB1
330
3C93
100
AcDbEntity
  8
0
 62
     3
100
AcDbLine
 10
2.54991927911977
 20
190.0
 30
0.0
 11
5.999999999999545
 21
190.0
 31
0.0
  0
LINE
  5
3CB2
330
3C93
100
AcDbEntity
  8
0
 62
     3
100
AcDbLine
 10
5.597271020094048
 20
193.5344394073003
 30
0.0
 11
3.100682244975814
 21
196.847524613036
 31
0.0
  0
ARC
  5
3CB3
330
3C93
100
AcDbEntity
  8
0
 62
     3
100
AcDbCircle
 10
3.499999999999545
 20
197.1484321246121
 30
0.0
 40
0.5
100
AcDbArc
 50
179.9999999999967
 51
217.0000000000047
  0
LINE
  5
3CB4
330
3C93
100
AcDbEntity
  8
0
 62
     3
100
AcDbLine
 10
2.999999999999545
 20
197.1484321246121
 30
0.0
 11
2.999999999999545
 21
198.0
 31
0.0
  0
LINE
  5
3CB5
330
3C93
100
AcDbEntity
  8
0
 62
     3
100
AcDbLine
 10
5.999999999999545
 20
190.0
 30
0.0
 11
5.999999999999545
 21
192.330809360996
 31
0.0
  0
ENDBLK
  5
3CB7
330
3C93
100
AcDbEntity
  8
0
 62
     6
 48
10.0
100
AcDbBlockEnd
  0
ENDSEC
  0
SECTION
  2
ENTITIES
  0
LINE
  5
20B3
330
18
100
AcDbEntity
  8
V5
100
AcDbLine
 10
382.0815566658819
 20
101.4608413239081
 30
0.0
 11
382.0815566658819
 21
482.9919803154409
 31
0.0
  0
LINE
  5
20B4
330
18
100
AcDbEntity
  8
V25
100
AcDbLine
 10
591.6831471647437
 20
409.1523167614306
 30
0.0
 11
960.0612132785729
 21
409.1523167614305
 31
0.0
  0
LINE
  5
20B7
330
18
100
AcDbEntity
  8
V25
100
AcDbLine
 10
591.6831471647437
 20
269.1523167614306
 30
0.0
 11
960.0612132785729
 21
269.1523167614306
 31
0.0
  0
LINE
  5
20BD
330
18
100
AcDbEntity
  8
ACHS
 62
     3
 48
4.0
100
AcDbLine
 10
960.0612132785727
 20
653.221026902338
 30
0.0
 11
960.0612132785727
 21
258.5507630026431
 31
0.0
  0
LINE
  5
20BE
330
18
100
AcDbEntity
  8
V25
100
AcDbLine
 10
680.3859401295765
 20
287.2797313152527
 30
0.0
 11
680.3859401295765
 21
247.0464036114803
 31
0.0
  0
TEXT
  5
20C6
330
18
100
AcDbEntity
  8
TXT-D
  6
VERDECKTX2
 62
     7
 48
5.0
100
AcDbText
 10
734.0580080873969
 20
824.388964983501
 30
0.0
 40
14.0
  1
poplastovaná klipsa*
  7
ROMANS
100
AcDbText
  0
TEXT
  5
20C7
330
18
100
AcDbEntity
  8
TXT-D
  6
VERDECKTX2
 62
     7
 48
5.0
100
AcDbText
 10
845.3968896498718
 20
733.4952686067624
 30
0.0
 40
14.0
  1
OMEGA profil
  7
ROMANS
100
AcDbText
  0
TEXT
  5
20C8
330
18
100
AcDbEntity
  8
TXT-D
  6
VERDECKTX2
 62
     7
 48
5.0
100
AcDbText
 10
734.0580080873969
 20
804.5493607829637
 30
0.0
 40
14.0
  1
alternativa: Al - klipsa  
  7
ROMANS
100
AcDbText
  0
TEXT
  5
20C9
330
18
100
AcDbEntity
  8
TXT-D
  6
VERDECKTX2
 62
     7
 48
5.0
100
AcDbText
 10
734.0580080873969
 20
883.9582125008645
 30
0.0
 40
14.0
  1
Kalzip 
  7
ROMANS
100
AcDbText
  0
TEXT
  5
20CA
330
18
100
AcDbEntity
  8
TXT-D
  6
VERDECKTX2
 62
     7
 48
5.0
100
AcDbText
 10
734.0580080873969
 20
958.9739458134486
 30
0.0
 40
14.0
  1
dřevěný nosník
  7
ROMANS
100
AcDbText
  0
TEXT
  5
20CD
330
18
100
AcDbEntity
  8
TXT-D
  6
VERDECKTX2
 62
     7
 48
5.0
100
AcDbText
 10
55.12278102160411
 20
960.7217134990746
 30
0.0
 40
14.0
  1
výztužný U profil
  7
ROMANS
100
AcDbText
  0
TEXT
  5
20CE
330
18
100
AcDbEntity
  8
TXT-D
  6
VERDECKTX2
 62
     7
 48
5.0
100
AcDbText
 10
54.54129847436428
 20
924.4206516231642
 30
0.0
 40
14.0
  1
příchyt ve štítu
  7
ROMANS
100
AcDbText
  0
TEXT
  5
20CF
330
18
100
AcDbEntity
  8
TXT-D
  6
VERDECKTX2
 62
     7
 48
5.0
100
AcDbText
 10
54.98771069609239
 20
887.5691770300759
 30
0.0
 40
14.0
  1
oplechování štítu
  7
ROMANS
100
AcDbText
  0
TEXT
  5
20D0
330
18
100
AcDbEntity
  8
TXT-D
  6
VERDECKTX2
 62
     7
 48
5.0
100
AcDbText
 10
786.1823214275784
 20
127.9554093668014
 30
0.0
 40
14.0
  1
vaznice
  7
ROMANS
100
AcDbText
  0
TEXT
  5
20D1
330
18
100
AcDbEntity
  8
TXT-D
  6
VERDECKTX2
 62
     7
 48
5.0
100
AcDbText
 10
785.3888608970129
 20
94.2279926037755
 30
0.0
 40
14.0
  1
vazník
  7
ROMANS
100
AcDbText
  0
LINE
  5
20D3
330
18
100
AcDbEntity
  8
TXT-D
 62
     1
100
AcDbLine
 10
353.7996401522427
 20
929.2698682142805
 30
0.0
 11
247.7889542828916
 21
929.2698682142804
 31
0.0
  0
LINE
  5
20D4
330
18
100
AcDbEntity
  8
TXT-D
 62
     1
100
AcDbLine
 10
728.3099585624139
 20
1001.26986821428
 30
0.0
 11
542.1762055070339
 21
1001.26986821428
 31
0.0
  0
LINE
  5
20D5
330
18
100
AcDbEntity
  8
TXT-D
 62
     1
100
AcDbLine
 10
728.3099585624139
 20
965.2698682142803
 30
0.0
 11
575.5426050909262
 21
965.2698682142805
 31
0.0
  0
LINE
  5
20D6
330
18
100
AcDbEntity
  8
TXT-D
 62
     1
100
AcDbLine
 10
728.3099585624139
 20
893.2698682142802
 30
0.0
 11
687.3398416263747
 21
893.2698682142802
 31
0.0
  0
LINE
  5
20D7
330
18
100
AcDbEntity
  8
TXT-D
 62
     1
100
AcDbLine
 10
725.7004768979657
 20
833.2680063816384
 30
0.0
 11
711.7539727090083
 21
833.2680063816384
 31
0.0
  0
LINE
  5
20D8
330
18
100
AcDbEntity
  8
TXT-D
 62
     1
100
AcDbLine
 10
832.8856388138518
 20
741.3664455822477
 30
0.0
 11
783.1177312099072
 21
741.3664455822474
 31
0.0
  0
LINE
  5
20D9
330
18
100
AcDbEntity
  8
TXT-D
 62
     1
100
AcDbLine
 10
776.1847536580498
 20
136.9554711450033
 30
0.0
 11
725.902983770203
 21
136.9554711450033
 31
0.0
  0
LINE
  5
20DA
330
18
100
AcDbEntity
  8
TXT-D
 62
     1
100
AcDbLine
 10
813.0441307687304
 20
454.5957449801859
 30
0.0
 11
813.04413076873
 21
713.7608869192519
 31
0.0
  0
LINE
  5
20DB
330
18
100
AcDbEntity
  8
TXT-D
 62
     1
100
AcDbLine
 10
783.1177312099072
 20
741.3664455822474
 30
0.0
 11
783.1177312099073
 21
488.6243057138281
 31
0.0
  0
LINE
  5
20DC
330
18
100
AcDbEntity
  8
TXT-D
 62
     1
100
AcDbLine
 10
687.3398416263748
 20
513.7797987841862
 30
0.0
 11
687.3398416263747
 21
893.2698682142802
 31
0.0
  0
LINE
  5
20DD
330
18
100
AcDbEntity
  8
TXT-D
 62
     1
100
AcDbLine
 10
636.3717995715703
 20
646.00933090229
 30
0.0
 11
636.3717995715703
 21
929.26986821428
 31
0.0
  0
LINE
  5
20DE
330
18
100
AcDbEntity
  8
TXT-D
 62
     1
100
AcDbLine
 10
725.902983770203
 20
297.017376188482
 30
0.0
 11
725.902983770203
 21
136.9554711450033
 31
0.0
  0
LINE
  5
20DF
330
18
100
AcDbEntity
  8
TXT-D
 62
     1
100
AcDbLine
 10
542.176205507034
 20
546.9511542104811
 30
0.0
 11
542.1762055070339
 21
1001.26986821428
 31
0.0
  0
LWPOLYLINE
  5
20E3
330
18
100
AcDbEntity
  8
V5
100
AcDbPolyline
 90
        4
 70
     0
 43
0.0
 10
582.0815566658819
 20
101.4608413239081
 10
582.0815566658819
 20
546.9511542104811
 10
382.0815566658819
 20
546.9511542104812
 10
382.0815566658819
 20
239.2596787729587
  0
LINE
  5
20EA
330
18
100
AcDbEntity
  8
V35
100
AcDbLine
 10
591.4285714285713
 20
265.4459476170536
 30
0.0
 11
711.4285714285713
 21
265.4459476170536
 31
0.0
  0
LINE
  5
20EB
330
18
100
AcDbEntity
  8
V35
100
AcDbLine
 10
648.9285714285713
 20
245.4459476170536
 30
0.0
 11
648.9285714285713
 21
208.4459476170536
 31
0.0
  0
LINE
  5
20EC
330
18
100
AcDbEntity
  8
V35
100
AcDbLine
 10
653.9285714285713
 20
245.4459476170536
 30
0.0
 11
653.9285714285713
 21
208.4459476170536
 31
0.0
  0
LINE
  5
20ED
330
18
100
AcDbEntity
  8
V35
100
AcDbLine
 10
591.4285714285713
 20
257.4459476170536
 30
0.0
 11
636.9285714285713
 21
257.4459476170536
 31
0.0
  0
LINE
  5
20EE
330
18
100
AcDbEntity
  8
V35
100
AcDbLine
 10
591.4285714285713
 20
265.4459476170536
 30
0.0
 11
591.4285714285713
 21
257.4459476170536
 31
0.0
  0
LINE
  5
20EF
330
18
100
AcDbEntity
  8
V35
100
AcDbLine
 10
711.4285714285713
 20
257.4459476170536
 30
0.0
 11
711.4285714285713
 21
265.4459476170536
 31
0.0
  0
LINE
  5
20F0
330
18
100
AcDbEntity
  8
V35
100
AcDbLine
 10
665.9285714285713
 20
257.4459476170536
 30
0.0
 11
711.4285714285713
 21
257.4459476170536
 31
0.0
  0
ARC
  5
20F1
330
18
100
AcDbEntity
  8
V35
100
AcDbCircle
 10
665.9285714285713
 20
245.4459476170536
 30
0.0
 40
12.0
100
AcDbArc
 50
90.0
 51
180.0
  0
ARC
  5
20F2
330
18
100
AcDbEntity
  8
V35
100
AcDbCircle
 10
636.9285714285713
 20
245.4459476170536
 30
0.0
 40
12.0
100
AcDbArc
 50
0.0
 51
90.0
  0
ARC
  5
20F3
330
18
100
AcDbEntity
  8
V35
100
AcDbCircle
 10
636.9285714285713
 20
171.4459476170536
 30
0.0
 40
12.0
100
AcDbArc
 50
270.0
 51
0.0
  0
ARC
  5
20F4
330
18
100
AcDbEntity
  8
V35
100
AcDbCircle
 10
665.9285714285713
 20
171.4459476170536
 30
0.0
 40
12.0
100
AcDbArc
 50
180.0
 51
270.0
  0
LINE
  5
20F5
330
18
100
AcDbEntity
  8
V35
100
AcDbLine
 10
665.9285714285713
 20
159.4459476170536
 30
0.0
 11
711.4285714285713
 21
159.4459476170536
 31
0.0
  0
LINE
  5
20F6
330
18
100
AcDbEntity
  8
V35
100
AcDbLine
 10
711.4285714285713
 20
159.4459476170536
 30
0.0
 11
711.4285714285713
 21
151.4459476170536
 31
0.0
  0
LINE
  5
20F7
330
18
100
AcDbEntity
  8
V35
100
AcDbLine
 10
591.4285714285713
 20
151.4459476170536
 30
0.0
 11
591.4285714285713
 21
159.4459476170536
 31
0.0
  0
LINE
  5
20F8
330
18
100
AcDbEntity
  8
V35
100
AcDbLine
 10
591.4285714285713
 20
159.4459476170536
 30
0.0
 11
636.9285714285713
 21
159.4459476170536
 31
0.0
  0
LINE
  5
20F9
330
18
100
AcDbEntity
  8
V35
100
AcDbLine
 10
653.9285714285713
 20
171.4459476170536
 30
0.0
 11
653.9285714285713
 21
208.4459476170536
 31
0.0
  0
LINE
  5
20FA
330
18
100
AcDbEntity
  8
V35
100
AcDbLine
 10
648.9285714285713
 20
171.4459476170536
 30
0.0
 11
648.9285714285713
 21
208.4459476170536
 31
0.0
  0
LINE
  5
20FB
330
18
100
AcDbEntity
  8
V35
100
AcDbLine
 10
591.4285714285713
 20
151.4459476170536
 30
0.0
 11
711.4285714285713
 21
151.4459476170536
 31
0.0
  0
LWPOLYLINE
  5
20FD
330
18
100
AcDbEntity
  8
V35
100
AcDbPolyline
 90
        2
 70
     1
 43
2.9
 10
724.352983770203
 20
297.017376188482
 42
1.0
 10
727.4529837702029
 20
297.017376188482
 42
1.0
  0
LINE
  5
221B
330
18
100
AcDbEntity
  8
TXT-D
 62
     1
100
AcDbLine
 10
327.0656753056954
 20
893.2698682142804
 30
0.0
 11
247.7889542828917
 21
893.2698682142806
 31
0.0
  0
LINE
  5
221C
330
18
100
AcDbEntity
  8
TXT-D
 62
     1
100
AcDbLine
 10
353.7996401522427
 20
738.3977868986972
 30
0.0
 11
353.7996401522427
 21
929.2698682142805
 31
0.0
  0
LINE
  5
221D
330
18
100
AcDbEntity
  8
TXT-D
 62
     1
100
AcDbLine
 10
380.5336049987899
 20
782.6868415089146
 30
0.0
 11
380.5336049987899
 21
965.2698682142805
 31
0.0
  0
LINE
  5
221E
330
18
100
AcDbEntity
  8
TXT-D
 62
     1
100
AcDbLine
 10
380.5336049987899
 20
965.2698682142805
 30
0.0
 11
247.7889542828916
 21
965.2698682142807
 31
0.0
  0
LINE
  5
2224
330
18
100
AcDbEntity
  8
TXT-D
 62
     1
100
AcDbLine
 10
711.7539727090083
 20
726.9022639216673
 30
0.0
 11
711.7539727090083
 21
833.2680063816384
 31
0.0
  0
LINE
  5
2227
330
18
100
AcDbEntity
  8
TXT-D
 62
     1
100
AcDbLine
 10
420.6347280780412
 20
665.6791547295442
 30
0.0
 11
353.7996401522427
 21
738.3977868986972
 31
0.0
  0
LINE
  5
2264
330
18
100
AcDbEntity
  8
V25
100
AcDbLine
 10
591.6831471647437
 20
401.2127782446793
 30
0.0
 11
960.0612132785729
 21
401.2127782446791
 31
0.0
  0
LINE
  5
2265
330
18
100
AcDbEntity
  8
V25
100
AcDbLine
 10
591.6831471647437
 20
277.4050347837659
 30
0.0
 11
960.0612132785729
 21
277.4050347837658
 31
0.0
  0
LINE
  5
2266
330
18
100
AcDbEntity
  8
V25
100
AcDbLine
 10
618.4879797002114
 20
287.2797313152527
 30
0.0
 11
618.4879797002114
 21
247.0464036114803
 31
0.0
  0
LINE
  5
229D
330
18
100
AcDbEntity
  8
V25
100
AcDbLine
 10
661.5440687334901
 20
423.6426479907154
 30
0.0
 11
661.5440687334901
 21
390.8447738536216
 31
0.0
  0
LINE
  5
22A0
330
18
100
AcDbEntity
  8
TXT-D
 62
     1
100
AcDbLine
 10
769.480023416396
 20
228.4386115956049
 30
0.0
 11
781.8745413447324
 21
228.4386115956048
 31
0.0
  0
TEXT
  5
22A1
330
18
100
AcDbEntity
  8
TXT-D
  6
VERDECKTX2
 62
     7
 48
5.0
100
AcDbText
 10
786.1823214275784
 20
222.2524936553254
 30
0.0
 40
14.0
  1
trapézový plech
  7
ROMANS
100
AcDbText
  0
LWPOLYLINE
  5
22A4
330
18
100
AcDbEntity
  8
V5
 62
     7
100
AcDbPolyline
 90
       13
 70
     0
 43
2.5
 10
960.0612132785729
 20
414.3367621820588
 10
949.0440687334899
 20
414.3367621820588
 10
930.2940687334899
 20
444.3367621820589
 10
850.29406873349
 20
444.3367621820589
 10
831.54406873349
 20
414.3367621820588
 10
814.0440687334901
 20
414.3367621820588
 10
796.5440687334901
 20
414.3367621820588
 10
777.7940687334901
 20
444.3367621820589
 10
697.7940687334901
 20
444.3367621820589
 10
679.0440687334901
 20
414.3367621820588
 10
644.0440687334901
 20
414.3367621820588
 10
625.2940687334901
 20
444.3367621820589
 10
591.7650576353894
 20
444.3367621820589
  0
LINE
  5
22B8
330
18
100
AcDbEntity
  8
TXT-D
 62
     1
100
AcDbLine
 10
769.480023416396
 20
444.552516935865
 30
0.0
 11
769.480023416396
 21
228.4386115956049
 31
0.0
  0
TEXT
  5
2384
330
18
100
AcDbEntity
  8
TXT-D
  6
VERDECKTX2
 62
     7
 48
5.0
100
AcDbText
 10
455.6384945789395
 20
766.2552016043328
 30
0.0
 40
14.0
  1
tolerance
  7
ROMANS
100
AcDbText
  0
SOLID
  5
238B
330
18
100
AcDbEntity
  8
TXT-D
 62
     1
100
AcDbTrace
 10
458.6802180619582
 20
742.45939619833
 30
0.0
 11
458.6802180619582
 21
748.2927295316635
 31
0.0
 12
476.1802180619581
 22
745.3760628649965
 32
0.0
 13
476.1802180619581
 23
745.3760628649965
 33
0.0
  0
POINT
  5
238D
330
18
100
AcDbEntity
  8
TXT-D
 62
     1
100
AcDbPoint
 10
476.1802180619581
 20
745.3760628649965
 30
0.0
  0
SOLID
  5
2394
330
18
100
AcDbEntity
  8
TXT-D
 62
     1
100
AcDbTrace
 10
528.0927526813212
 20
742.45939619833
 30
0.0
 11
528.0927526813212
 21
748.2927295316635
 31
0.0
 12
510.5927526813212
 22
745.3760628649965
 32
0.0
 13
510.5927526813212
 23
745.3760628649965
 33
0.0
  0
LINE
  5
2395
330
18
100
AcDbEntity
  8
TXT-D
 62
     1
100
AcDbLine
 10
510.5205431079354
 20
728.8738818554702
 30
0.0
 11
510.5927526813212
 21
754.3760628649965
 31
0.0
  0
LINE
  5
239E
330
18
100
AcDbEntity
  8
ACHS
 62
     3
 48
4.0
100
AcDbLine
 10
250.1710896292871
 20
101.4608413239081
 30
0.0
 11
598.5714285714285
 21
101.4608413239081
 31
0.0
  0
LINE
  5
23A3
330
18
100
AcDbEntity
  8
TXT-D
 62
     1
100
AcDbLine
 10
476.180218061958
 20
728.8738818554702
 30
0.0
 11
476.1802180619581
 21
754.3760628649965
 31
0.0
  0
LINE
  5
23A5
330
18
100
AcDbEntity
  8
V25
100
AcDbLine
 10
591.6831471647437
 20
409.1523167614306
 30
0.0
 11
591.6831471647437
 21
269.1523167614306
 31
0.0
  0
LWPOLYLINE
  5
2A7A
102
{ACAD_REACTORS
330
2A7B
102
}
330
18
100
AcDbEntity
  8
SV35
  6
AUSGEZOGEN
 48
5.0
100
AcDbPolyline
 90
        4
 70
     1
 43
0.0
 10
519.1077586346209
 20
547.726167804297
 10
549.1077586346209
 20
547.726167804297
 10
549.1077586346209
 20
552.726167804297
 10
519.1077586346209
 20
552.726167804297
  0
HATCH
  5
2A7B
330
18
100
AcDbEntity
  8
V25
 48
5.0
100
AcDbHatch
 10
0.0
 20
0.0
 30
0.0
210
0.0
220
0.0
230
1.0
  2
ANSI37
 70
     0
 71
     1
 91
        1
 92
        7
 72
     0
 73
     1
 93
        4
 10
519.1077586346209
 20
552.726167804297
 10
519.1077586346209
 20
547.7261678042968
 10
549.1077586346209
 20
547.726167804297
 10
549.1077586346209
 20
552.7261678042968
 97
        1
330
2A7A
 75
     0
 76
     1
 52
-0.0000000000000127
 41
1.0
 77
     0
 78
     2
 53
44.99999999999999
 43
34.79173466662678
 44
-104.4565971825657
 45
-2.245064030267287
 46
2.245064030267288
 79
     0
 53
134.9999999999999
 43
34.79173466662678
 44
-104.4565971825657
 45
-2.245064030267288
 46
-2.245064030267287
 79
     0
 47
0.1149827854136383
 98
        1
 10
537.3835222889818
 20
551.0566797866822
  0
LINE
  5
2AD7
330
18
100
AcDbEntity
  8
V25
100
AcDbLine
 10
814.0440687334901
 20
423.6426479907154
 30
0.0
 11
814.0440687334901
 21
390.8447738536216
 31
0.0
  0
LINE
  5
2AF9
330
18
100
AcDbEntity
  8
V5
  6
VERDECKTX2
 48
15.0
100
AcDbLine
 10
960.0612132785727
 20
493.1821222093796
 30
0.0
 11
598.5334049427001
 21
493.1821222093797
 31
0.0
  0
LINE
  5
2AFB
330
18
100
AcDbEntity
  8
V5
  6
VERDECKTX2
 48
15.0
100
AcDbLine
 10
960.0612132785727
 20
458.1453254559701
 30
0.0
 11
598.5334049427001
 21
458.1453254559702
 31
0.0
  0
LINE
  5
2B29
330
18
100
AcDbEntity
  8
V5
  6
VERDECKTX2
 48
15.0
100
AcDbLine
 10
960.0612132785727
 20
490.1821222093796
 30
0.0
 11
598.5334049427001
 21
490.1821222093799
 31
0.0
  0
LINE
  5
2B4A
330
18
100
AcDbEntity
  8
V25
100
AcDbLine
 10
737.7940687334901
 20
465.2615758671458
 30
0.0
 11
737.7940687334901
 21
438.2040136375981
 31
0.0
  0
LINE
  5
2B4B
330
18
100
AcDbEntity
  8
V25
100
AcDbLine
 10
890.2940687334901
 20
465.2615758671458
 30
0.0
 11
890.2940687334901
 21
438.2040136375981
 31
0.0
  0
LINE
  5
2BE3
330
18
100
AcDbEntity
  8
V25
  6
VERDECKTX2
 48
5.0
100
AcDbLine
 10
264.6829333398165
 20
252.1781494118135
 30
0.0
 11
283.4814471407394
 21
252.1781494118135
 31
0.0
  0
LINE
  5
2BE4
330
18
100
AcDbEntity
  8
V25
 48
5.0
100
AcDbLine
 10
274.0815566658818
 20
689.9491200305852
 30
0.0
 11
304.0815566658819
 21
689.9491200305852
 31
0.0
  0
LINE
  5
2BE9
330
18
100
AcDbEntity
  8
V25
 48
5.0
100
AcDbLine
 10
276.0815566658818
 20
101.4608413239081
 30
0.0
 11
276.0815566658818
 21
689.9491200305852
 31
0.0
  0
LINE
  5
2BEA
330
18
100
AcDbEntity
  8
V25
 48
5.0
100
AcDbLine
 10
274.0815566658814
 20
101.4608413239081
 30
0.0
 11
274.0815566658818
 21
689.9491200305852
 31
0.0
  0
LWPOLYLINE
  5
2BEB
330
18
100
AcDbEntity
  8
V25
  6
VERDECKTX2
 48
5.0
100
AcDbPolyline
 90
        3
 70
     1
 43
0.0
 10
267.6171897796907
 20
253.5923629741866
 10
267.6171897796907
 20
250.7639358494404
 10
269.0314033420638
 20
252.1781494118135
  0
INSERT
  5
2BF0
330
18
100
AcDbEntity
  8
TXT-D
100
AcDbBlockReference
  2
wädä
 10
378.3711884716609
 20
287.7095981201429
 30
0.0
 41
1.166399999999921
 42
1.166399999999921
 43
1.166399999999921
  0
HATCH
  5
2BF1
330
18
100
AcDbEntity
  8
WD
 48
5.0
100
AcDbHatch
 10
0.0
 20
0.0
 30
0.0
210
0.0
220
0.0
230
1.0
  2
ANSI37
 70
     0
 71
     1
 91
        1
 92
        1
 93
        4
 72
     1
 10
379.081556665882
 20
469.3489386707806
 11
379.0815566658817
 21
379.3489386707806
 72
     1
 10
379.0815566658817
 20
379.3489386707806
 11
382.0815566658818
 21
379.3489386707806
 72
     1
 10
382.0815566658818
 20
379.3489386707806
 11
382.081556665882
 21
469.3489386707806
 72
     1
 10
382.081556665882
 20
469.3489386707806
 11
379.081556665882
 21
469.3489386707806
 97
        1
330
2BF2
 75
     0
 76
     1
 52
0.0
 41
0.8
 77
     0
 78
     2
 53
45.00000000000001
 43
500.8624411622882
 44
38.86461511006899
 45
-1.79605122421383
 46
1.79605122421383
 79
     0
 53
135.0
 43
500.8624411622882
 44
38.86461511006899
 45
-1.79605122421383
 46
-1.79605122421383
 79
     0
 98
        1
 10
500.8624411622882
 20
38.86461511006899
  0
LWPOLYLINE
  5
2BF2
102
{ACAD_REACTORS
330
2BF1
102
}
330
18
100
AcDbEntity
  8
V25
 48
5.0
100
AcDbPolyline
 90
        4
 70
     1
 43
0.0
 10
379.081556665882
 20
469.3489386707806
 10
379.0815566658817
 20
379.3489386707806
 10
382.0815566658818
 20
379.3489386707806
 10
382.081556665882
 20
469.3489386707806
  0
LINE
  5
2BF3
330
18
100
AcDbEntity
  8
V25
 62
     6
 48
5.0
100
AcDbLine
 10
289.2892685513785
 20
406.8489386707806
 30
0.0
 11
289.2892685513785
 21
391.8489386707806
 31
0.0
  0
LINE
  5
2BF4
330
18
100
AcDbEntity
  8
V25
 62
     6
 48
5.0
100
AcDbLine
 10
341.081556665882
 20
406.8489386707804
 30
0.0
 11
341.081556665882
 21
391.8489386707804
 31
0.0
  0
LINE
  5
2BF5
330
18
100
AcDbEntity
  8
V25
 62
     6
 48
5.0
100
AcDbLine
 10
375.081556665882
 20
469.3489386707806
 30
0.0
 11
375.081556665882
 21
379.3489386707806
 31
0.0
  0
LINE
  5
2BF6
330
18
100
AcDbEntity
  8
V25
 62
     6
 48
5.0
100
AcDbLine
 10
378.081556665882
 20
469.3489386707806
 30
0.0
 11
378.081556665882
 21
379.3489386707804
 31
0.0
  0
LINE
  5
2BF7
330
18
100
AcDbEntity
  8
V25
  6
VERDECKT
 48
4.0
100
AcDbLine
 10
304.0815566658816
 20
101.4608413239081
 30
0.0
 11
304.0815566658819
 21
689.9491200305852
 31
0.0
  0
INSERT
  5
2BFB
330
18
100
AcDbEntity
  8
TXT-D
100
AcDbBlockReference
  2
wädä
 10
378.3711884716609
 20
186.9326381201433
 30
0.0
 41
1.166399999999921
 42
1.166399999999921
 43
1.166399999999921
  0
INSERT
  5
2BFC
330
18
100
AcDbEntity
  8
TXT-D
100
AcDbBlockReference
  2
wädä
 10
378.3711884716609
 20
207.0880301201432
 30
0.0
 41
1.166399999999921
 42
1.166399999999921
 43
1.166399999999921
  0
INSERT
  5
2BFD
330
18
100
AcDbEntity
  8
TXT-D
100
AcDbBlockReference
  2
wädä
 10
378.3711884716609
 20
227.2434221201431
 30
0.0
 41
1.166399999999921
 42
1.166399999999921
 43
1.166399999999921
  0
INSERT
  5
2BFE
330
18
100
AcDbEntity
  8
TXT-D
100
AcDbBlockReference
  2
wädä
 10
378.3711884716609
 20
247.3988141201431
 30
0.0
 41
1.166399999999921
 42
1.166399999999921
 43
1.166399999999921
  0
INSERT
  5
2BFF
330
18
100
AcDbEntity
  8
TXT-D
100
AcDbBlockReference
  2
wädä
 10
378.3711884716609
 20
267.554206120143
 30
0.0
 41
1.166399999999921
 42
1.166399999999921
 43
1.166399999999921
  0
LINE
  5
2C00
330
18
100
AcDbEntity
  8
V25
 62
     6
 48
5.0
100
AcDbLine
 10
317.081556665882
 20
379.3489386707804
 30
0.0
 11
378.081556665882
 21
379.3489386707804
 31
0.0
  0
LINE
  5
2C02
330
18
100
AcDbEntity
  8
V25
 62
     6
 48
5.0
100
AcDbLine
 10
288.081556665882
 20
391.8489386707804
 30
0.0
 11
341.081556665882
 21
391.8489386707806
 31
0.0
  0
LINE
  5
2C04
330
18
100
AcDbEntity
  8
V25
  6
VERDECKT
 62
     6
 48
1.8
100
AcDbLine
 10
288.081556665882
 20
379.3489386707806
 30
0.0
 11
317.081556665882
 21
379.3489386707806
 31
0.0
  0
LINE
  5
2C05
330
18
100
AcDbEntity
  8
V25
  6
VERDECKT
 62
     6
 48
1.8
100
AcDbLine
 10
288.081556665882
 20
391.8489386707804
 30
0.0
 11
288.081556665882
 21
379.3489386707806
 31
0.0
  0
CIRCLE
  5
2C06
330
18
100
AcDbEntity
  8
V25
 62
     6
 48
5.0
100
AcDbCircle
 10
297.581556665882
 20
385.5989386707806
 30
0.0
 40
3.0
  0
INSERT
  5
2C12
330
18
100
AcDbEntity
  8
TXT-D
100
AcDbBlockReference
  2
wädä
 10
378.3711884716609
 20
307.8649901201429
 30
0.0
 41
1.166399999999921
 42
1.166399999999921
 43
1.166399999999921
  0
INSERT
  5
2C13
330
18
100
AcDbEntity
  8
TXT-D
100
AcDbBlockReference
  2
wädä
 10
378.3711884716609
 20
328.0203821201427
 30
0.0
 41
1.166399999999921
 42
1.166399999999921
 43
1.166399999999921
  0
INSERT
  5
2C14
330
18
100
AcDbEntity
  8
TXT-D
100
AcDbBlockReference
  2
wädä
 10
378.3711884716609
 20
348.1757741201427
 30
0.0
 41
1.166399999999921
 42
1.166399999999921
 43
1.166399999999921
  0
INSERT
  5
2C15
330
18
100
AcDbEntity
  8
TXT-D
100
AcDbBlockReference
  2
wädä
 10
378.3711884716609
 20
368.3311661201426
 30
0.0
 41
1.166399999999921
 42
1.166399999999921
 43
1.166399999999921
  0
INSERT
  5
2C16
330
18
100
AcDbEntity
  8
TXT-D
100
AcDbBlockReference
  2
wädä
 10
378.3711884716609
 20
388.4865581201426
 30
0.0
 41
1.166399999999921
 42
1.166399999999921
 43
1.166399999999921
  0
INSERT
  5
2C17
330
18
100
AcDbEntity
  8
TXT-D
100
AcDbBlockReference
  2
wädä
 10
378.3711884716609
 20
408.6419501201424
 30
0.0
 41
1.166399999999921
 42
1.166399999999921
 43
1.166399999999921
  0
INSERT
  5
2C18
330
18
100
AcDbEntity
  8
TXT-D
100
AcDbBlockReference
  2
wädä
 10
378.3711884716609
 20
428.7973421201423
 30
0.0
 41
1.166399999999921
 42
1.166399999999921
 43
1.166399999999921
  0
INSERT
  5
2C19
330
18
100
AcDbEntity
  8
TXT-D
100
AcDbBlockReference
  2
wädä
 10
378.3711884716609
 20
448.9527341201424
 30
0.0
 41
1.166399999999921
 42
1.166399999999921
 43
1.166399999999921
  0
INSERT
  5
2C1A
330
18
100
AcDbEntity
  8
TXT-D
100
AcDbBlockReference
  2
wädä
 10
378.3711884716609
 20
469.1081261201422
 30
0.0
 41
1.166399999999921
 42
1.166399999999921
 43
1.166399999999921
  0
INSERT
  5
2C1B
330
18
100
AcDbEntity
  8
TXT-D
100
AcDbBlockReference
  2
wädä
 10
378.3711884716609
 20
489.2635181201422
 30
0.0
 41
1.166399999999921
 42
1.166399999999921
 43
1.166399999999921
  0
INSERT
  5
2C1C
330
18
100
AcDbEntity
  8
TXT-D
100
AcDbBlockReference
  2
wädä
 10
378.3711884716609
 20
509.4189101201421
 30
0.0
 41
1.166399999999921
 42
1.166399999999921
 43
1.166399999999921
  0
INSERT
  5
2C1D
330
18
100
AcDbEntity
  8
TXT-D
100
AcDbBlockReference
  2
wädä
 10
378.3711884716609
 20
529.574302120142
 30
0.0
 41
1.166399999999921
 42
1.166399999999921
 43
1.166399999999921
  0
INSERT
  5
2C1E
330
18
100
AcDbEntity
  8
TXT-D
100
AcDbBlockReference
  2
wädä
 10
378.3711884716609
 20
549.7296941201421
 30
0.0
 41
1.166399999999921
 42
1.166399999999921
 43
1.166399999999921
  0
INSERT
  5
2C1F
330
18
100
AcDbEntity
  8
TXT-D
100
AcDbBlockReference
  2
wädä
 10
378.3711884716609
 20
569.8850861201419
 30
0.0
 41
1.166399999999921
 42
1.166399999999921
 43
1.166399999999921
  0
INSERT
  5
2C21
330
18
100
AcDbEntity
  8
TXT-D
100
AcDbBlockReference
  2
wädä
 10
378.3711884716609
 20
590.0404781201419
 30
0.0
 41
1.166399999999921
 42
1.166399999999921
 43
1.166399999999921
  0
LINE
  5
2C26
330
18
100
AcDbEntity
  8
V25
 62
     6
 48
5.0
100
AcDbLine
 10
317.081556665882
 20
469.3489386707806
 30
0.0
 11
378.081556665882
 21
469.3489386707806
 31
0.0
  0
LINE
  5
2C29
330
18
100
AcDbEntity
  8
V25
 62
     6
 48
5.0
100
AcDbLine
 10
288.081556665882
 20
441.8489386707806
 30
0.0
 11
341.081556665882
 21
441.8489386707806
 31
0.0
  0
LINE
  5
2C2A
330
18
100
AcDbEntity
  8
V25
 62
     6
 48
5.0
100
AcDbLine
 10
288.081556665882
 20
456.8489386707806
 30
0.0
 11
341.081556665882
 21
456.8489386707804
 31
0.0
  0
LINE
  5
2C2B
330
18
100
AcDbEntity
  8
V25
 62
     6
 48
5.0
100
AcDbLine
 10
288.081556665882
 20
406.8489386707806
 30
0.0
 11
341.081556665882
 21
406.8489386707804
 31
0.0
  0
LINE
  5
2C2C
330
18
100
AcDbEntity
  8
V25
  6
VERDECKT
 62
     6
 48
1.8
100
AcDbLine
 10
288.081556665882
 20
469.3489386707806
 30
0.0
 11
317.081556665882
 21
469.3489386707806
 31
0.0
  0
LINE
  5
2C2D
330
18
100
AcDbEntity
  8
V25
  6
VERDECKT
 62
     6
 48
1.8
100
AcDbLine
 10
288.081556665882
 20
441.8489386707803
 30
0.0
 11
288.081556665882
 21
406.8489386707806
 31
0.0
  0
LWPOLYLINE
  5
2C2E
330
18
100
AcDbEntity
  8
V25
 62
     6
 48
5.0
100
AcDbPolyline
 90
        4
 70
     1
 43
0.0
 10
294.581556665882
 20
429.3489386707803
 10
294.581556665882
 20
419.3489386707804
 42
0.9999999999999998
 10
300.581556665882
 20
419.3489386707804
 10
300.581556665882
 20
429.3489386707803
 42
0.9999999999999998
  0
LINE
  5
2C2F
330
18
100
AcDbEntity
  8
V25
  6
VERDECKT
 62
     6
 48
1.8
100
AcDbLine
 10
288.081556665882
 20
469.3489386707806
 30
0.0
 11
288.081556665882
 21
456.8489386707806
 31
0.0
  0
LINE
  5
2C30
330
18
100
AcDbEntity
  8
V25
 62
     6
 48
5.0
100
AcDbLine
 10
289.2892685513788
 20
456.8489386707806
 30
0.0
 11
289.2892685513788
 21
441.8489386707806
 31
0.0
  0
CIRCLE
  5
2C31
330
18
100
AcDbEntity
  8
V25
 62
     6
 48
5.0
100
AcDbCircle
 10
297.581556665882
 20
463.0989386707806
 30
0.0
 40
3.0
  0
LINE
  5
2C32
330
18
100
AcDbEntity
  8
V25
 62
     6
 48
5.0
100
AcDbLine
 10
341.081556665882
 20
456.8489386707804
 30
0.0
 11
341.081556665882
 21
441.8489386707803
 31
0.0
  0
LWPOLYLINE
  5
2C41
330
18
100
AcDbEntity
  8
V25
  6
VERDECKTX2
 62
     6
 48
5.0
100
AcDbPolyline
 90
        3
 70
     1
 43
0.0
 10
373.6673431035086
 20
425.7631522331537
 10
373.6673431035086
 20
422.9347251084075
 10
375.081556665882
 20
424.3489386707806
  0
TEXT
  5
2C58
330
18
100
AcDbEntity
  8
TXT-D
 62
     7
100
AcDbText
 10
92.84680013932414
 20
361.465226459587
 30
0.0
 40
14.0
  1
Kalzip TF 800R
  7
ROMANS
100
AcDbText
  0
LINE
  5
2C5B
330
18
100
AcDbEntity
  8
TXT-D
 62
     1
100
AcDbLine
 10
235.6773709531481
 20
369.6161764663314
 30
0.0
 11
269.630187460848
 21
369.6161764663313
 31
0.0
  0
LINE
  5
2C5D
330
18
100
AcDbEntity
  8
ISO10TES
100
AcDbLine
 10
368.2934945263781
 20
176.8549421201426
 30
0.0
 11
307.8273164716636
 21
186.9326381201423
 31
0.0
  0
ARC
  5
2C5F
330
18
100
AcDbEntity
  8
ISO10TES
100
AcDbCircle
 10
307.8273164716637
 20
176.8549421201427
 30
0.0
 40
10.07769599999959
100
AcDbArc
 50
90.0
 51
180.0
  0
LINE
  5
2C66
330
18
100
AcDbEntity
  8
V25
  6
VERDECKTX2
 48
5.0
100
AcDbLine
 10
270.6234788442994
 20
674.2831263380212
 30
0.0
 11
284.4814471407394
 21
674.2836328262933
 31
0.0
  0
LINE
  5
2C88
330
18
100
AcDbEntity
  8
V25
  6
VERDECKTX2
 48
5.0
100
AcDbLine
 10
264.6829333398165
 20
522.4654948699208
 30
0.0
 11
283.4814471407393
 21
522.4654948699208
 31
0.0
  0
LWPOLYLINE
  5
2C89
330
18
100
AcDbEntity
  8
V25
  6
VERDECKTX2
 48
5.0
100
AcDbPolyline
 90
        3
 70
     1
 43
0.0
 10
267.6171897796907
 20
523.8797084322938
 10
267.6171897796907
 20
521.0512813075476
 10
269.0314033420638
 20
522.4654948699208
  0
INSERT
  5
2D20
330
18
100
AcDbEntity
  8
TXT-D
100
AcDbBlockReference
  2
wädä
 10
378.3711864169338
 20
610.1958704625929
 30
0.0
 41
1.166399999999921
 42
1.166399999999921
 43
1.166399999999921
  0
INSERT
  5
2D21
330
18
100
AcDbEntity
  8
TXT-D
100
AcDbBlockReference
  2
wädä
 10
378.3711843622068
 20
630.3512621201385
 30
0.0
 41
1.166399999999921
 42
1.166399999999921
 43
1.166399999999921
  0
INSERT
  5
2D22
330
18
100
AcDbEntity
  8
TXT-D
100
AcDbBlockReference
  2
wädä
 10
378.3730410518584
 20
650.5066539487223
 30
0.0
 41
1.166399999999921
 42
1.166399999999921
 43
1.166399999999921
  0
INSERT
  5
2D23
330
18
100
AcDbEntity
  8
TXT-D
100
AcDbBlockReference
  2
wädä
 10
378.3711884716609
 20
670.6620459487208
 30
0.0
 41
1.166399999999921
 42
1.166399999999921
 43
1.166399999999921
  0
INSERT
  5
2D24
330
18
100
AcDbEntity
  8
TXT-D
100
AcDbBlockReference
  2
wädä
 10
378.3711884716609
 20
690.8174379487207
 30
0.0
 41
1.166399999999921
 42
1.166399999999921
 43
1.166399999999921
  0
LWPOLYLINE
  5
2D26
330
18
100
AcDbEntity
  8
ISO10TES
100
AcDbPolyline
 90
        2
 70
     0
 43
0.0
 10
307.8273164716636
 20
710.9728299487173
 10
341.3834113593126
 20
716.5655122399456
  0
LINE
  5
2D28
330
18
100
AcDbEntity
  8
ISO10TES
100
AcDbLine
 10
368.2934945263781
 20
700.8951339487177
 30
0.0
 11
307.8273164716636
 21
710.9728299487175
 31
0.0
  0
ARC
  5
2D2A
330
18
100
AcDbEntity
  8
ISO10TES
100
AcDbCircle
 10
307.8273164716637
 20
721.0505259487169
 30
0.0
 40
10.07769599999959
100
AcDbArc
 50
198.9921239060364
 51
270.0
  0
LWPOLYLINE
  5
2D2B
330
18
100
AcDbEntity
  8
ISO10TES
100
AcDbPolyline
 90
        2
 70
     0
 43
0.0
 10
375.2658111423106
 20
715.5616701443144
 42
-0.1011547680884475
 10
378.3711884716609
 20
710.9728299487175
  0
ARC
  5
2D2C
330
18
100
AcDbEntity
  8
ISO10TES
100
AcDbCircle
 10
368.2934924716615
 20
710.9728299487175
 30
0.0
 40
10.0776959999994
100
AcDbArc
 50
270.0
 51
0.0
  0
LINE
  5
2D33
330
18
100
AcDbEntity
  8
V25
  6
VERDECKTX2
 48
5.0
100
AcDbLine
 10
263.7121424618788
 20
648.3529431296865
 30
0.0
 11
282.5106562628016
 21
648.3529431296865
 31
0.0
  0
LWPOLYLINE
  5
2D34
330
18
100
AcDbEntity
  8
V25
  6
VERDECKTX2
 48
5.0
100
AcDbPolyline
 90
        3
 70
     1
 43
0.0
 10
266.6463989017529
 20
649.7671566920596
 10
266.6463989017529
 20
646.9387295673134
 10
268.060612464126
 20
648.3529431296865
  0
LINE
  5
2D62
330
18
100
AcDbEntity
  8
TXT-D
 62
     1
100
AcDbLine
 10
300.3317104591482
 20
857.2698682142799
 30
0.0
 11
247.7889542828916
 21
857.2698682142799
 31
0.0
  0
TEXT
  5
2D63
330
18
100
AcDbEntity
  8
TXT-D
  6
VERDECKTX2
 62
     7
 48
5.0
100
AcDbText
 10
54.98771069609239
 20
851.5691770300758
 30
0.0
 40
14.0
  1
výztužné oplechování
  7
ROMANS
100
AcDbText
  0
LINE
  5
2D64
330
18
100
AcDbEntity
  8
TXT-D
 62
     1
100
AcDbLine
 10
276.9652407754237
 20
821.2698682142796
 30
0.0
 11
247.7889542828916
 21
821.2698682142796
 31
0.0
  0
TEXT
  5
2D65
330
18
100
AcDbEntity
  8
TXT-D
  6
VERDECKTX2
 62
     7
 48
5.0
100
AcDbText
 10
54.98771069609239
 20
815.5691770300755
 30
0.0
 40
14.0
  1
uzavírací oplechování
  7
ROMANS
100
AcDbText
  0
LINE
  5
2D67
330
18
100
AcDbEntity
  8
TXT-D
 62
     1
100
AcDbLine
 10
327.0656753056954
 20
724.2599469919696
 30
0.0
 11
327.0656753056954
 21
893.2698682142804
 31
0.0
  0
LINE
  5
2D68
330
18
100
AcDbEntity
  8
TXT-D
 62
     1
100
AcDbLine
 10
300.3317104591482
 20
719.9758275745706
 30
0.0
 11
300.3317104591482
 21
857.2698682142799
 31
0.0
  0
LINE
  5
2D69
330
18
100
AcDbEntity
  8
TXT-D
 62
     1
100
AcDbLine
 10
276.9652407754237
 20
717.5043172095852
 30
0.0
 11
276.9652407754237
 21
821.2698682142796
 31
0.0
  0
TEXT
  5
2D70
330
18
100
AcDbEntity
  8
TXT-D
  6
VERDECKTX2
 62
     7
 48
5.0
100
AcDbText
 10
55.12278102160405
 20
996.7217134990745
 30
0.0
 40
14.0
  1
toleranční T profil
  7
ROMANS
100
AcDbText
  0
LINE
  5
2D71
330
18
100
AcDbEntity
  8
TXT-D
 62
     1
100
AcDbLine
 10
407.2675698453371
 20
1001.26986821428
 30
0.0
 11
247.2004944033652
 21
1001.26986821428
 31
0.0
  0
LINE
  5
2D74
330
18
100
AcDbEntity
  8
TXT-D
 62
     1
100
AcDbLine
 10
407.267569845337
 20
743.9580616802754
 30
0.0
 11
419.538148922887
 21
716.0400893999487
 31
0.0
  0
TEXT
  5
2E43
330
18
100
AcDbEntity
  8
TXT-D
  6
VERDECKTX2
 62
     7
 48
5.0
100
AcDbText
 10
734.1023907840402
 20
864.5512226156057
 30
0.0
 40
14.0
  1
minerální tepelná izolace
  7
ROMANS
100
AcDbText
  0
LINE
  5
2F08
330
18
100
AcDbEntity
  8
TXT-D
 62
     1
100
AcDbLine
 10
728.3099585624139
 20
929.2698682142802
 30
0.0
 11
636.3717995715703
 21
929.26986821428
 31
0.0
  0
TEXT
  5
2F09
330
18
100
AcDbEntity
  8
TXT-D
  6
VERDECKTX2
 62
     7
 48
5.0
100
AcDbText
 10
734.0580080873969
 20
922.9739458134487
 30
0.0
 40
14.0
  1
Kalzip
  7
ROMANS
100
AcDbText
  0
INSERT
  5
2F89
330
18
100
AcDbEntity
  8
V5
  6
VERDECKT
100
AcDbBlockReference
  2
luft
 10
290.9766538683707
 20
656.5516322943612
 30
0.0
  0
LWPOLYLINE
  5
2F8E
330
18
100
AcDbEntity
  8
V30
  6
VERDECKT
 48
2.0
100
AcDbPolyline
 90
        3
 70
     0
 43
1.5
 10
295.651332454057
 20
717.5043172095852
 10
272.323284918632
 20
717.5043172095852
 10
272.323284918632
 20
658.6090504396461
  0
LWPOLYLINE
  5
2FB5
330
18
100
AcDbEntity
  8
V35
100
AcDbPolyline
 90
        2
 70
     1
 43
2.9
 10
697.8490286097959
 20
156.9047941718759
 42
1.0
 10
700.9490286097958
 20
156.9047941718759
 42
1.0
  0
LWPOLYLINE
  5
2FB6
330
18
100
AcDbEntity
  8
V35
100
AcDbPolyline
 90
        2
 70
     1
 43
2.9
 10
767.930023416396
 20
444.5525169358649
 42
1.0
 10
771.0300234163959
 20
444.5525169358649
 42
1.0
  0
LWPOLYLINE
  5
2FB7
330
18
100
AcDbEntity
  8
V35
100
AcDbPolyline
 90
        2
 70
     1
 43
2.9
 10
811.4941307687304
 20
454.5957449801858
 42
1.0
 10
814.5941307687303
 20
454.5957449801858
 42
1.0
  0
LWPOLYLINE
  5
2FBA
330
18
100
AcDbEntity
  8
V35
100
AcDbPolyline
 90
        2
 70
     1
 43
2.9
 10
634.8217995715704
 20
646.00933090229
 42
1.0
 10
637.9217995715703
 20
646.00933090229
 42
1.0
  0
LWPOLYLINE
  5
2FBC
330
18
100
AcDbEntity
  8
V35
100
AcDbPolyline
 90
        2
 70
     1
 43
2.9
 10
275.4152407754237
 20
717.5043172095852
 42
1.0
 10
278.5152407754237
 20
717.5043172095852
 42
1.0
  0
LWPOLYLINE
  5
2FBD
330
18
100
AcDbEntity
  8
V35
100
AcDbPolyline
 90
        2
 70
     1
 43
2.9
 10
298.7817104591483
 20
720.3371960512388
 42
1.0
 10
301.8817104591482
 20
720.3371960512388
 42
1.0
  0
LWPOLYLINE
  5
2FBE
330
18
100
AcDbEntity
  8
V35
100
AcDbPolyline
 90
        2
 70
     1
 43
2.9
 10
325.5156753056955
 20
724.1740040629042
 42
1.0
 10
328.6156753056954
 20
724.1740040629042
 42
1.0
  0
LWPOLYLINE
  5
2FBF
330
18
100
AcDbEntity
  8
V35
100
AcDbPolyline
 90
        2
 70
     1
 43
2.9
 10
419.0847280780412
 20
664.0522624340974
 42
1.0
 10
422.1847280780411
 20
664.0522624340974
 42
1.0
  0
LWPOLYLINE
  5
2FC1
330
18
100
AcDbEntity
  8
V35
100
AcDbPolyline
 90
        2
 70
     1
 43
2.9
 10
417.9881489228871
 20
716.0400893999487
 42
1.0
 10
421.088148922887
 20
716.0400893999487
 42
1.0
  0
LWPOLYLINE
  5
2FC3
330
18
100
AcDbEntity
  8
V35
100
AcDbPolyline
 90
        2
 70
     1
 43
2.9
 10
267.3053991896131
 20
369.4019998971287
 42
1.0
 10
270.405399189613
 20
369.4019998971287
 42
1.0
  0
LWPOLYLINE
  5
2FC4
330
18
100
AcDbEntity
  8
V35
100
AcDbPolyline
 90
        2
 70
     1
 43
2.9
 10
540.6262055070341
 20
551.1020996554823
 42
1.0
 10
543.726205507034
 20
551.1020996554823
 42
1.0
  0
LWPOLYLINE
  5
300F
330
18
100
AcDbEntity
  8
V5
100
AcDbPolyline
 90
        5
 70
     0
 43
2.2
 10
219.8263847604284
 20
641.38007361564
 10
204.741072456868
 20
630.3164128954777
 10
204.741072456868
 20
727.5580251245862
 10
510.5205431079354
 20
719.3136935504736
 10
527.791608315173
 20
709.2285407699082
  0
TEXT
  5
309F
330
18
100
AcDbEntity
  8
TXT-D
  6
VERDECKTX2
 62
     7
 48
5.0
100
AcDbText
 10
845.3968896498718
 20
709.1887309827408
 30
0.0
 40
14.0
  1
parotěsná
  7
ROMANS
100
AcDbText
  0
HATCH
  5
34CA
330
18
100
AcDbEntity
  8
V35
 62
     1
 48
15.0
100
AcDbHatch
 10
0.0
 20
0.0
 30
0.0
210
0.0
220
0.0
230
1.0
  2
ANSI31
 70
     0
 71
     0
 91
        3
 92
        7
 72
     1
 73
     1
 93
       23
 10
618.4879797002114
 20
265.4459476170536
 42
0.0
 10
618.4879797002114
 20
257.4459476170536
 42
0.0
 10
636.9285714285713
 20
257.4459476170536
 42
-0.4142135623730951
 10
648.9285714285713
 20
245.4459476170536
 42
0.0
 10
648.9285714285713
 20
208.4459476170536
 42
0.0
 10
648.9285714285713
 20
171.4459476170536
 42
-0.4142135623730951
 10
636.9285714285713
 20
159.4459476170536
 42
0.0
 10
591.4285714285714
 20
159.4459476170536
 42
0.0
 10
591.4285714285714
 20
151.4459476170536
 42
0.0
 10
711.4285714285713
 20
151.4459476170536
 42
0.0
 10
711.4285714285713
 20
156.9047941718759
 42
0.0
 10
700.9490286097958
 20
156.9047941718759
 42
-1.0
 10
697.8490286097959
 20
156.9047941718759
 42
-1.0
 10
700.9490286097958
 20
156.9047941718759
 42
0.0
 10
711.4285714285713
 20
156.9047941718759
 42
0.0
 10
711.4285714285713
 20
159.4459476170536
 42
0.0
 10
665.9285714285713
 20
159.4459476170536
 42
-0.4142135623730951
 10
653.9285714285713
 20
171.4459476170536
 42
0.0
 10
653.9285714285713
 20
208.4459476170536
 42
0.0
 10
653.9285714285713
 20
245.4459476170536
 42
-0.4142135623730951
 10
665.9285714285713
 20
257.4459476170536
 42
0.0
 10
680.3859401295765
 20
257.4459476170536
 42
0.0
 10
680.3859401295763
 20
265.4459476170536
 42
0.0
 97
        0
 92
        7
 72
     0
 73
     1
 93
        4
 10
591.4285714285713
 20
265.4459476170536
 10
591.4285714285713
 20
257.4459476170536
 10
618.4879797002114
 20
257.4459476170536
 10
618.4879797002114
 20
265.4459476170536
 97
        0
 92
       22
 72
     0
 73
     1
 93
        4
 10
680.3859401295765
 20
265.4459476170536
 10
680.3859401295766
 20
257.4459476170536
 10
711.4285714285713
 20
257.4459476170536
 10
711.4285714285713
 20
265.4459476170536
 97
        0
 75
     0
 76
     1
 52
0.0
 41
5.0
 77
     0
 78
     1
 53
45.0
 43
0.0
 44
0.0
 45
-11.22532015133644
 46
11.22532015133644
 79
     0
 47
0.4220248117006056
 98
        3
 10
651.1888557820967
 20
259.7484450770226
 10
611.920734873951
 20
263.1246432024441
 10
688.345786536709
 20
263.1246432024441
  0
INSERT
  5
36EE
330
18
100
AcDbEntity
  8
_INSULATION
  6
VERDECKTX2
 48
15.0
100
AcDbBlockReference
  2
DAEMM
 10
790.5534797376168
 20
459.1453254559702
 30
0.0
 41
3.101183216521264
 42
3.048570044353879
 43
3.101183216521264
  0
INSERT
  5
36EF
330
18
100
AcDbEntity
  8
_INSULATION
  6
VERDECKTX2
 48
15.0
100
AcDbBlockReference
  2
DAEMM
 10
753.3392811393617
 20
459.1453254559702
 30
0.0
 41
3.101183216521264
 42
3.048570044353879
 43
3.101183216521264
  0
INSERT
  5
36F0
330
18
100
AcDbEntity
  8
_INSULATION
  6
VERDECKTX2
 48
15.0
100
AcDbBlockReference
  2
DAEMM
 10
778.1487468715318
 20
459.1453254559702
 30
0.0
 41
3.101183216521264
 42
3.048570044353879
 43
3.101183216521264
  0
INSERT
  5
36F1
330
18
100
AcDbEntity
  8
_INSULATION
  6
VERDECKTX2
 48
15.0
100
AcDbBlockReference
  2
DAEMM
 10
765.7440140054467
 20
459.1453254559702
 30
0.0
 41
3.101183216521264
 42
3.048570044353879
 43
3.101183216521264
  0
INSERT
  5
36F2
330
18
100
AcDbEntity
  8
_INSULATION
  6
VERDECKTX2
 48
15.0
100
AcDbBlockReference
  2
DAEMM
 10
827.7676783358719
 20
459.1453254559702
 30
0.0
 41
3.101183216521264
 42
3.048570044353879
 43
3.101183216521264
  0
INSERT
  5
36F3
330
18
100
AcDbEntity
  8
_INSULATION
  6
VERDECKTX2
 48
15.0
100
AcDbBlockReference
  2
DAEMM
 10
815.3629454697869
 20
459.1453254559702
 30
0.0
 41
3.101183216521264
 42
3.048570044353879
 43
3.101183216521264
  0
INSERT
  5
36F4
330
18
100
AcDbEntity
  8
_INSULATION
  6
VERDECKTX2
 48
15.0
100
AcDbBlockReference
  2
DAEMM
 10
802.9582126037018
 20
459.1453254559702
 30
0.0
 41
3.101183216521264
 42
3.048570044353879
 43
3.101183216521264
  0
INSERT
  5
36F6
330
18
100
AcDbEntity
  8
_INSULATION
  6
VERDECKTX2
 48
15.0
100
AcDbBlockReference
  2
DAEMM
 10
840.172411201957
 20
459.1453254559702
 30
0.0
 41
3.101183216521264
 42
3.048570044353879
 43
3.101183216521264
  0
INSERT
  5
36F7
330
18
100
AcDbEntity
  8
_INSULATION
  6
VERDECKTX2
 48
15.0
100
AcDbBlockReference
  2
DAEMM
 10
678.9108839428513
 20
459.1453254559702
 30
0.0
 41
3.101183216521264
 42
3.048570044353879
 43
3.101183216521264
  0
INSERT
  5
36F8
330
18
100
AcDbEntity
  8
_INSULATION
  6
VERDECKTX2
 48
15.0
100
AcDbBlockReference
  2
DAEMM
 10
641.6966853445962
 20
459.1453254559702
 30
0.0
 41
3.101183216521264
 42
3.048570044353879
 43
3.101183216521264
  0
INSERT
  5
36F9
330
18
100
AcDbEntity
  8
_INSULATION
  6
VERDECKTX2
 48
15.0
100
AcDbBlockReference
  2
DAEMM
 10
666.5061510767663
 20
459.1453254559702
 30
0.0
 41
3.101183216521264
 42
3.048570044353879
 43
3.101183216521264
  0
INSERT
  5
36FA
330
18
100
AcDbEntity
  8
_INSULATION
  6
VERDECKTX2
 48
15.0
100
AcDbBlockReference
  2
DAEMM
 10
654.1014182106812
 20
459.1453254559702
 30
0.0
 41
3.101183216521264
 42
3.048570044353879
 43
3.101183216521264
  0
INSERT
  5
36FB
330
18
100
AcDbEntity
  8
_INSULATION
  6
VERDECKTX2
 48
15.0
100
AcDbBlockReference
  2
DAEMM
 10
716.1250825411065
 20
459.1453254559702
 30
0.0
 41
3.101183216521264
 42
3.048570044353879
 43
3.101183216521264
  0
INSERT
  5
36FC
330
18
100
AcDbEntity
  8
_INSULATION
  6
VERDECKTX2
 48
15.0
100
AcDbBlockReference
  2
DAEMM
 10
703.7203496750215
 20
459.1453254559702
 30
0.0
 41
3.101183216521264
 42
3.048570044353879
 43
3.101183216521264
  0
INSERT
  5
36FD
330
18
100
AcDbEntity
  8
_INSULATION
  6
VERDECKTX2
 48
15.0
100
AcDbBlockReference
  2
DAEMM
 10
691.3156168089364
 20
459.1453254559702
 30
0.0
 41
3.101183216521264
 42
3.048570044353879
 43
3.101183216521264
  0
INSERT
  5
36FE
330
18
100
AcDbEntity
  8
_INSULATION
  6
VERDECKTX2
 48
15.0
100
AcDbBlockReference
  2
DAEMM
 10
740.9345482732766
 20
459.1453254559702
 30
0.0
 41
3.101183216521264
 42
3.048570044353879
 43
3.101183216521264
  0
INSERT
  5
36FF
330
18
100
AcDbEntity
  8
_INSULATION
  6
VERDECKTX2
 48
15.0
100
AcDbBlockReference
  2
DAEMM
 10
728.5298154071916
 20
459.1453254559702
 30
0.0
 41
3.101183216521264
 42
3.048570044353879
 43
3.101183216521264
  0
INSERT
  5
3704
330
18
100
AcDbEntity
  8
_INSULATION
  6
VERDECKTX2
 48
15.0
100
AcDbBlockReference
  2
DAEMM
 10
604.482486746341
 20
459.1453254559702
 30
0.0
 41
3.101183216521264
 42
3.048570044353879
 43
3.101183216521264
  0
INSERT
  5
3705
330
18
100
AcDbEntity
  8
_INSULATION
  6
VERDECKTX2
 48
15.0
100
AcDbBlockReference
  2
DAEMM
 10
592.077753880256
 20
459.1453254559702
 30
0.0
 41
3.101183216521264
 42
3.048570044353879
 43
3.101183216521264
  0
INSERT
  5
3707
330
18
100
AcDbEntity
  8
_INSULATION
  6
VERDECKTX2
 48
15.0
100
AcDbBlockReference
  2
DAEMM
 10
629.2919524785111
 20
459.1453254559702
 30
0.0
 41
3.101183216521264
 42
3.048570044353879
 43
3.101183216521264
  0
INSERT
  5
3708
330
18
100
AcDbEntity
  8
_INSULATION
  6
VERDECKTX2
 48
15.0
100
AcDbBlockReference
  2
DAEMM
 10
616.8872196124261
 20
459.1453254559702
 30
0.0
 41
3.101183216521264
 42
3.048570044353879
 43
3.101183216521264
  0
LINE
  5
373E
330
18
100
AcDbEntity
  8
V25
100
AcDbLine
 10
609.231416930769
 20
465.2615758671458
 30
0.0
 11
609.231416930769
 21
438.2040136375981
 31
0.0
  0
LINE
  5
3744
330
18
100
AcDbEntity
  8
V25
  6
VERDECKTX2
 48
5.0
100
AcDbLine
 10
376.3964969721066
 20
605.1535943406187
 30
0.0
 11
392.6509051532367
 21
605.1541008288908
 31
0.0
  0
LINE
  5
3A40
330
18
100
AcDbEntity
  8
TXT-D
 62
     1
100
AcDbLine
 10
575.5426050909263
 20
604.4348492986037
 30
0.0
 11
575.5426050909262
 21
965.2698682142805
 31
0.0
  0
LWPOLYLINE
  5
3A41
330
18
100
AcDbEntity
  8
V35
100
AcDbPolyline
 90
        2
 70
     1
 43
2.9
 10
649.7849899317055
 20
448.7483110265893
 42
1.0
 10
652.8849899317053
 20
448.7483110265893
 42
1.0
  0
TEXT
  5
3A42
330
18
100
AcDbEntity
  8
TXT-D
  6
VERDECKTX2
 62
     7
 48
5.0
100
AcDbText
 10
734.0580080873969
 20
994.9739458134487
 30
0.0
 40
14.0
  1
těsnící pásek
  7
ROMANS
100
AcDbText
  0
ELLIPSE
  5
4035
330
18
100
AcDbEntity
  8
INSULATION
  6
VERDECKT
 48
2.0
100
AcDbEllipse
 10
777.8517161022187
 20
522.9927056756261
 30
0.0
 11
-27.4132656920059
 21
0.0000000000049139
 31
0.0
210
0.0
220
0.0
230
1.0
 40
0.9928371866099659
 41
-0.3629686486054626
 42
1.570796326795071
  0
ELLIPSE
  5
4036
330
18
100
AcDbEntity
  8
INSULATION
100
AcDbEllipse
 10
750.4384504102131
 20
604.6434344319518
 30
0.0
 11
27.41326569200578
 21
0.0000000000009634
 31
0.0
210
0.0
220
0.0
230
1.0
 40
0.9928371866099661
 41
-0.362968648605676
 42
3.504561302195398
  0
ELLIPSE
  5
4037
330
18
100
AcDbEntity
  8
INSULATION
  6
VERDECKT
 48
2.0
100
AcDbEllipse
 10
723.0251847182075
 20
522.9927056756261
 30
0.0
 11
-27.41326569200593
 21
0.000000000001006
 31
0.0
210
0.0
220
0.0
230
1.0
 40
0.9928371866099645
 41
1.570796326794936
 42
3.504561302195472
  0
LWPOLYLINE
  5
4038
330
18
100
AcDbEntity
  8
V35
 62
     0
100
AcDbPolyline
 90
       33
 70
     0
 43
0.0
 10
428.5245691165023
 20
679.4286544242843
 42
-0.8518717637873237
 10
435.2524320654074
 20
699.7415771552142
 42
-0.3441842485073744
 10
438.6000354174671
 20
696.1310185899344
 10
438.6297408073232
 20
695.7756144696003
 42
0.3077507175483973
 10
441.4749027811499
 20
692.2917822120965
 42
-0.3559174951861054
 10
444.3207256334881
 20
688.1146692313347
 42
-0.2401758746392449
 10
439.1152090392497
 20
679.7605647566004
 42
0.2629884054316376
 10
437.6631085102017
 20
677.1907384535512
 10
437.6631085102319
 20
645.451354114771
 42
0.2931365125316157
 10
438.2574084789085
 20
644.5396783594848
 10
438.5216567002555
 20
644.4194178626408
 42
-0.2939859278524366
 10
441.743420904582
 20
639.4135571530482
 42
0.4142135623730951
 10
445.8434209045821
 20
635.3135571530482
 10
525.5831026403052
 20
635.3135571530481
 42
0.2446984432290329
 10
528.9416260218899
 20
637.061893764009
 10
531.6070350218899
 20
640.8684927640091
 42
-0.5205670505517518
 10
540.6177075090686
 20
640.8684940221363
 10
543.2831175090689
 20
637.0618950221362
 42
0.2446984432290355
 10
546.6416400409875
 20
635.3135587789818
 10
627.5816400409876
 20
635.3135587789818
 42
0.2446984432290357
 10
630.940162572906
 20
637.0618950221362
 10
633.605572572906
 20
640.8684940221363
 42
-0.5205670505517466
 10
642.616245060085
 20
640.868492764009
 10
645.2816540600849
 20
637.061893764009
 42
0.2446984432290353
 10
648.6401774416699
 20
635.3135571530482
 10
726.2042014037906
 20
635.3135571530482
 42
0.4142135623731031
 10
730.3041014037906
 20
639.4134571530482
 42
-0.2939817751607098
 10
733.5258656093453
 20
644.4194178626408
 10
733.7901138306924
 20
644.5396783594848
 42
0.2931365125316157
 10
734.384413799369
 20
645.451354114771
 10
734.3844137993974
 20
672.5069232969068
 42
0.2992947414849744
 10
732.5735187242535
 20
675.2611980612869
 42
-3.892127811935753
 10
746.9802747693529
 20
676.640088858694
  0
LWPOLYLINE
  5
403A
330
18
100
AcDbEntity
  8
V35
 62
     0
100
AcDbPolyline
 90
       26
 70
     0
 43
0.0
 10
733.5245691165023
 20
679.4286544242843
 42
-0.8518717637873251
 10
740.2524320654074
 20
699.7415771552142
 42
-0.3441842485073744
 10
743.600035417467
 20
696.1310185899344
 10
743.6297408073232
 20
695.7756144696003
 42
0.3077507175483973
 10
746.4749027811499
 20
692.2917822120965
 42
-0.3559174951861054
 10
749.320725633488
 20
688.1146692313347
 42
-0.2401758746392449
 10
744.1152090392497
 20
679.7605647566004
 42
0.2629884054316376
 10
742.6631085102017
 20
677.1907384535512
 10
742.6631085102319
 20
645.451354114771
 42
0.2931365125316157
 10
743.2574084789084
 20
644.5396783594848
 10
743.5216567002555
 20
644.4194178626408
 42
-0.2939859278524366
 10
746.743420904582
 20
639.4135571530482
 42
0.4142135623730951
 10
750.843420904582
 20
635.3135571530482
 10
830.5831026403051
 20
635.3135571530481
 42
0.2446984432290329
 10
833.94162602189
 20
637.061893764009
 10
836.6070350218899
 20
640.8684927640091
 42
-0.5205670505517518
 10
845.6177075090687
 20
640.8684940221363
 10
848.2831175090689
 20
637.0618950221362
 42
0.2446984432290355
 10
851.6416400409875
 20
635.3135587789818
 10
932.5816400409875
 20
635.3135587789818
 42
0.2446984432290357
 10
935.9401625729061
 20
637.0618950221362
 10
938.6055725729061
 20
640.8684940221363
 42
-0.5205670505517466
 10
947.6162450600851
 20
640.868492764009
 10
950.281654060085
 20
637.061893764009
 42
0.2446984432290353
 10
953.6401774416699
 20
635.3135571530482
 10
960.0612132785729
 20
635.3135571530482
  0
INSERT
  5
403B
330
18
100
AcDbEntity
  8
V35
  6
AUSGEZOGEN
 62
     6
 48
10.0
100
AcDbBlockReference
  2
e140
 10
738.4510919180542
 20
496.1341476285822
 30
0.0
  0
INSERT
  5
403C
330
18
100
AcDbEntity
  8
INSULATION
  6
AUSGEZOGEN
 62
     6
 48
10.0
100
AcDbBlockReference
  2
DAEMM
 10
887.5047788702405
 20
495.7757960901836
 30
0.0
 41
13.70663284600277
 42
13.60845479272109
 43
13.70663284600277
  0
INSERT
  5
403D
330
18
100
AcDbEntity
  8
INSULATION
  6
AUSGEZOGEN
 62
     6
 48
10.0
100
AcDbBlockReference
  2
DAEMM
 10
832.6782474862294
 20
495.7757960901836
 30
0.0
 41
13.70663284600277
 42
13.60845479272109
 43
13.70663284600277
  0
INSERT
  5
403E
330
18
100
AcDbEntity
  8
INSULATION
  6
AUSGEZOGEN
 62
     6
 48
10.0
100
AcDbBlockReference
  2
DAEMM
 10
777.8517161022185
 20
495.7757960901836
 30
0.0
 41
13.70663284600277
 42
13.60845479272109
 43
13.70663284600277
  0
INSERT
  5
403F
330
18
100
AcDbEntity
  8
INSULATION
  6
AUSGEZOGEN
 62
     6
 48
10.0
100
AcDbBlockReference
  2
DAEMM
 10
668.1986533341967
 20
495.7757960901836
 30
0.0
 41
13.70663284600277
 42
13.60845479272109
 43
13.70663284600277
  0
INSERT
  5
4040
330
18
100
AcDbEntity
  8
INSULATION
  6
AUSGEZOGEN
 62
     6
 48
10.0
100
AcDbBlockReference
  2
DAEMM
 10
613.3721219501858
 20
495.7757960901836
 30
0.0
 41
13.70663284600277
 42
13.60845479272109
 43
13.70663284600277
  0
LINE
  5
4042
330
18
100
AcDbEntity
  8
INSULATION
100
AcDbLine
 10
776.0656574872418
 20
594.9800427666661
 30
0.0
 11
752.22450902519
 21
532.656097340912
 31
0.0
  0
LINE
  5
4043
330
18
100
AcDbEntity
  8
INSULATION
  6
VERDECKT
 48
2.0
100
AcDbLine
 10
748.6523917952362
 20
532.656097340912
 30
0.0
 11
724.8112433331846
 21
594.9800427666661
 31
0.0
  0
ELLIPSE
  5
4051
330
18
100
AcDbEntity
  8
INSULATION
100
AcDbEllipse
 10
942.3313102542511
 20
522.9927056756261
 30
0.0
 11
27.41326569200604
 21
0.0000000000043721
 31
0.0
210
0.0
220
0.0
230
1.0
 40
0.9928371866099602
 41
4.712388980384536
 42
5.415722372770823
  0
LINE
  5
4052
330
18
100
AcDbEntity
  8
INSULATION
100
AcDbLine
 10
960.0612132785725
 20
553.3007046078372
 30
0.0
 11
944.1173688692281
 21
594.980042766666
 31
0.0
  0
ELLIPSE
  5
4053
330
18
100
AcDbEntity
  8
INSULATION
100
AcDbEllipse
 10
969.7445759462569
 20
604.6434344319517
 30
0.0
 11
-27.41326569200593
 21
0.0000000000001052
 31
0.0
210
0.0
220
0.0
230
0.9999999999999998
 40
0.992837186609956
 41
5.073417224704078
 42
6.646153955785232
  0
TEXT
  5
4056
330
18
100
AcDbEntity
  8
TXT-D
  6
VERDECKTX2
 62
     7
 48
5.0
100
AcDbText
 10
845.3968896498718
 20
685.4862353577374
 30
0.0
 40
14.0
  1
vrstva
  7
ROMANS
100
AcDbText
  0
LINE
  5
45AF
330
18
100
AcDbEntity
  8
V5
  6
VERDECKTX2
 48
15.0
100
AcDbLine
 10
598.5334049427001
 20
493.1821222093797
 30
0.0
 11
598.5334049427001
 21
458.1453254559702
 31
0.0
  0
INSERT
  5
45B0
330
18
100
AcDbEntity
  8
_INSULATION
  6
VERDECKTX2
 48
15.0
100
AcDbBlockReference
  2
DAEMM
 10
927.6173070533214
 20
459.1453254559702
 30
0.0
 41
3.101183216521264
 42
3.048570044353879
 43
3.101183216521264
  0
INSERT
  5
45B1
330
18
100
AcDbEntity
  8
_INSULATION
  6
VERDECKTX2
 48
15.0
100
AcDbBlockReference
  2
DAEMM
 10
915.2125741872364
 20
459.1453254559702
 30
0.0
 41
3.101183216521264
 42
3.048570044353879
 43
3.101183216521264
  0
INSERT
  5
45B2
330
18
100
AcDbEntity
  8
_INSULATION
  6
VERDECKTX2
 48
15.0
100
AcDbBlockReference
  2
DAEMM
 10
940.0220399194065
 20
459.1453254559702
 30
0.0
 41
3.101183216521264
 42
3.048570044353879
 43
3.101183216521264
  0
INSERT
  5
45B3
330
18
100
AcDbEntity
  8
_INSULATION
  6
VERDECKTX2
 48
15.0
100
AcDbBlockReference
  2
DAEMM
 10
877.9983755889812
 20
459.1453254559702
 30
0.0
 41
3.101183216521264
 42
3.048570044353879
 43
3.101183216521264
  0
INSERT
  5
45B4
330
18
100
AcDbEntity
  8
_INSULATION
  6
VERDECKTX2
 48
15.0
100
AcDbBlockReference
  2
DAEMM
 10
853.1889098568111
 20
459.1453254559702
 30
0.0
 41
3.101183216521264
 42
3.048570044353879
 43
3.101183216521264
  0
INSERT
  5
45B5
330
18
100
AcDbEntity
  8
_INSULATION
  6
VERDECKTX2
 48
15.0
100
AcDbBlockReference
  2
DAEMM
 10
865.5936427228962
 20
459.1453254559702
 30
0.0
 41
3.101183216521264
 42
3.048570044353879
 43
3.101183216521264
  0
INSERT
  5
45B6
330
18
100
AcDbEntity
  8
_INSULATION
  6
VERDECKTX2
 48
15.0
100
AcDbBlockReference
  2
DAEMM
 10
890.4031084550663
 20
459.1453254559702
 30
0.0
 41
3.101183216521264
 42
3.048570044353879
 43
3.101183216521264
  0
INSERT
  5
45B7
330
18
100
AcDbEntity
  8
_INSULATION
  6
VERDECKTX2
 48
15.0
100
AcDbBlockReference
  2
DAEMM
 10
902.8078413211513
 20
459.1453254559702
 30
0.0
 41
3.101183216521264
 42
3.048570044353879
 43
3.101183216521264
  0
LINE
  5
45BB
330
18
100
AcDbEntity
  8
V25
  6
Continuous
100
AcDbLine
 10
960.0612132785727
 20
454.5957449801859
 30
0.0
 11
595.1615591286808
 21
454.5957449801859
 31
0.0
  0
ARC
  5
45BC
330
18
100
AcDbEntity
  8
V25
  6
Continuous
100
AcDbCircle
 10
595.1615591286808
 20
458.5957449801858
 30
0.0
 40
8.0
100
AcDbArc
 50
180.0
 51
270.0
  0
ARC
  5
45BE
330
18
100
AcDbEntity
  8
V25
  6
Continuous
100
AcDbCircle
 10
583.0846703341121
 20
550.5436914920823
 30
0.0
 40
4.0
100
AcDbArc
 50
359.9999999999992
 51
90.00000000000003
  0
LINE
  5
45BF
330
18
100
AcDbEntity
  8
V25
  6
Continuous
100
AcDbLine
 10
583.0846703341121
 20
554.5436914920824
 30
0.0
 11
383.6161543680127
 21
554.5436914920824
 31
0.0
  0
ARC
  5
45C3
330
18
100
AcDbEntity
  8
V25
  6
Continuous
100
AcDbCircle
 10
595.1615591286808
 20
458.5957449801858
 30
0.0
 40
4.0
100
AcDbArc
 50
180.0
 51
270.0
  0
ARC
  5
45C5
330
18
100
AcDbEntity
  8
V25
  6
Continuous
100
AcDbCircle
 10
583.0846703341121
 20
550.5436914920823
 30
0.0
 40
8.0
100
AcDbArc
 50
0.0
 51
90.00000000000003
  0
LINE
  5
45C6
330
18
100
AcDbEntity
  8
V25
  6
Continuous
100
AcDbLine
 10
583.0846703341121
 20
558.5436914920824
 30
0.0
 11
383.6161543680128
 21
558.5436914920824
 31
0.0
  0
LINE
  5
45CA
330
18
100
AcDbEntity
  8
V5
  6
VERDECKTX2
 48
15.0
100
AcDbLine
 10
582.0815566658819
 20
448.2723331319739
 30
0.0
 11
582.0348339652443
 21
415.6874604116219
 31
0.0
  0
LWPOLYLINE
  5
45D4
330
18
100
AcDbEntity
  8
V5
100
AcDbPolyline
 90
        4
 70
     0
 38
1.5
 39
1.5
 10
445.9236951815028
 20
663.3896964471755
 40
1.5
 41
1.5
 10
445.9236951815028
 20
702.3896964471755
 40
2.0
 41
2.0
 10
420.4236951815028
 20
702.3896964471755
 40
1.5
 41
1.5
 10
420.4236951815028
 20
683.3896964471755
 40
1.5
 41
1.5
  0
LWPOLYLINE
  5
45D5
330
18
100
AcDbEntity
  8
V5
100
AcDbPolyline
 90
        4
 70
     0
 43
1.5
 38
1.5
 39
1.5
 10
440.2859603403089
 20
665.5568132028813
 10
446.7138364371744
 20
657.8963687716916
 42
0.7002075382097236
 10
449.8044142126227
 20
659.0212470886428
 10
449.8044142126345
 20
715.0384810067582
  0
INSERT
  5
45D6
330
18
100
AcDbEntity
  8
V5
100
AcDbBlockReference
  2
OKAPPE
 10
424.0448360348113
 20
636.0344710490164
 30
0.0
 41
-1.0
  0
LINE
  5
45D7
330
18
100
AcDbEntity
  8
V25
100
AcDbLine
 10
470.4499344482765
 20
566.7677849655876
 30
0.0
 11
474.314517640021
 21
559.0094025936507
 31
0.0
  0
LINE
  5
45D8
330
18
100
AcDbEntity
  8
V25
100
AcDbLine
 10
465.9302668485868
 20
575.0868332883303
 30
0.0
 11
474.2505640207427
 21
579.6058225006845
 31
0.0
  0
LINE
  5
45D9
330
18
100
AcDbEntity
  8
V25
100
AcDbLine
 10
465.0057893850141
 20
572.2111128804688
 30
0.0
 11
470.4499344482765
 21
566.7677849655876
 31
0.0
  0
LINE
  5
45DA
330
18
100
AcDbEntity
  8
V25
100
AcDbLine
 10
459.20212530814
 20
579.2977095998422
 30
0.0
 11
465.0057893850141
 21
572.2111128804688
 31
0.0
  0
LINE
  5
45DB
330
18
100
AcDbEntity
  8
V25
100
AcDbLine
 10
462.7459555851692
 20
574.4706074866457
 30
0.0
 11
465.9302668485868
 21
575.0868332883303
 31
0.0
  0
LINE
  5
45DC
330
18
100
AcDbEntity
  8
V25
100
AcDbLine
 10
479.6947090840051
 20
581.8139649567211
 30
0.0
 11
482.2627020383743
 21
583.0977687102309
 31
0.0
  0
LINE
  5
45DD
330
18
100
AcDbEntity
  8
V25
100
AcDbLine
 10
474.2505640207427
 20
579.6058225006845
 30
0.0
 11
479.6947090840051
 21
581.8139649567211
 31
0.0
  0
LINE
  5
45DE
330
18
100
AcDbEntity
  8
V25
100
AcDbLine
 10
482.2627020383743
 20
583.0977687102309
 30
0.0
 11
490.8911583650542
 21
586.9491799707597
 31
0.0
  0
LINE
  5
45E0
330
18
100
AcDbEntity
  8
V25
100
AcDbLine
 10
552.0607505381258
 20
592.3925078856409
 30
0.0
 11
571.5774969913306
 21
597.3582571658551
 31
0.0
  0
LINE
  5
45E1
330
18
100
AcDbEntity
  8
V5
100
AcDbLine
 10
381.0030339154942
 20
611.3092763548498
 30
0.0
 11
581.0030339154939
 21
611.3092763548498
 31
0.0
  0
LWPOLYLINE
  5
45E2
330
18
100
AcDbEntity
  8
V5
100
AcDbPolyline
 90
        4
 70
     0
 43
0.0
 10
581.0030339154943
 20
611.3092763548498
 10
581.0030339154943
 20
559.0094025936507
 10
381.0030339154942
 20
559.0094025936507
 10
381.0030339154942
 20
611.3092763548498
  0
LINE
  5
45E3
330
18
100
AcDbEntity
  8
V25
100
AcDbLine
 10
383.3436134360775
 20
593.3681987383083
 30
0.0
 11
389.4040768083885
 21
587.2572928716022
 31
0.0
  0
LINE
  5
45E4
330
18
100
AcDbEntity
  8
V25
100
AcDbLine
 10
506.2991160912688
 20
592.3925078856409
 30
0.0
 11
514.2598942498129
 21
584.3815724637404
 31
0.0
  0
LINE
  5
45E5
330
18
100
AcDbEntity
  8
V25
100
AcDbLine
 10
442.2533718093041
 20
593.5068459053261
 30
0.0
 11
450.881828135984
 21
586.9491799707597
 31
0.0
  0
LINE
  5
45E6
330
18
100
AcDbEntity
  8
V25
100
AcDbLine
 10
419.1927950790698
 20
589.5167874777792
 30
0.0
 11
424.3287809878079
 21
592.0843949847985
 31
0.0
  0
LINE
  5
45E7
330
18
100
AcDbEntity
  8
V25
100
AcDbLine
 10
381.0030339154939
 20
569.8801242889755
 30
0.0
 11
383.6517725906017
 21
570.6191962261166
 31
0.0
  0
LINE
  5
45E8
330
18
100
AcDbEntity
  8
V25
100
AcDbLine
 10
411.5401760750499
 20
565.1758683112356
 30
0.0
 11
413.9224936278756
 21
559.0094025936507
 31
0.0
  0
LINE
  5
45E9
330
18
100
AcDbEntity
  8
V25
100
AcDbLine
 10
406.7123493208359
 20
571.2867741779418
 30
0.0
 11
411.5401760750499
 21
565.1758683112356
 31
0.0
  0
LINE
  5
45EA
330
18
100
AcDbEntity
  8
V25
100
AcDbLine
 10
407.0205084753604
 20
583.0977687102309
 30
0.0
 11
416.3166429701764
 21
588.2329837242695
 31
0.0
  0
LINE
  5
45EB
330
18
100
AcDbEntity
  8
V25
100
AcDbLine
 10
396.4917373624471
 20
581.8139649567211
 30
0.0
 11
401.2682042575736
 21
576.7301020928227
 31
0.0
  0
LINE
  5
45EC
330
18
100
AcDbEntity
  8
V25
100
AcDbLine
 10
383.6517725906017
 20
570.6191962261166
 30
0.0
 11
396.1322183488355
 21
577.3463278945075
 31
0.0
  0
LINE
  5
45ED
330
18
100
AcDbEntity
  8
V25
100
AcDbLine
 10
389.4040768083885
 20
587.2572928716022
 30
0.0
 11
396.4917373624471
 21
581.8139649567211
 31
0.0
  0
LINE
  5
45EE
330
18
100
AcDbEntity
  8
V25
100
AcDbLine
 10
396.1322183488355
 20
577.3463278945075
 30
0.0
 11
402.8603598892823
 21
580.2220483023691
 31
0.0
  0
LINE
  5
45EF
330
18
100
AcDbEntity
  8
V25
100
AcDbLine
 10
402.8603598892823
 20
580.2220483023691
 30
0.0
 11
407.0205084753604
 21
583.0977687102309
 31
0.0
  0
LINE
  5
45F0
330
18
100
AcDbEntity
  8
V25
100
AcDbLine
 10
401.2682042575736
 20
576.7301020928227
 30
0.0
 11
406.7123493208359
 21
571.2867741779418
 31
0.0
  0
LINE
  5
45F1
330
18
100
AcDbEntity
  8
V25
100
AcDbLine
 10
416.3166429701764
 20
588.2329837242695
 30
0.0
 11
419.1927950790698
 21
589.5167874777792
 31
0.0
  0
LINE
  5
45F2
330
18
100
AcDbEntity
  8
V25
100
AcDbLine
 10
448.6733541952267
 20
568.4110537700801
 30
0.0
 11
462.7459555851692
 21
574.4706074866457
 31
0.0
  0
LINE
  5
45F3
330
18
100
AcDbEntity
  8
V25
100
AcDbLine
 10
450.881828135984
 20
586.9491799707597
 30
0.0
 11
459.20212530814
 21
579.2977095998422
 31
0.0
  0
LINE
  5
45F4
330
18
100
AcDbEntity
  8
V25
100
AcDbLine
 10
490.8911583650542
 20
586.9491799707597
 30
0.0
 11
490.58299921053
 21
586.6410670699176
 31
0.0
  0
LINE
  5
45F5
330
18
100
AcDbEntity
  8
V25
100
AcDbLine
 10
531.5681667622604
 20
567.6976158239394
 30
0.0
 11
534.353602705795
 21
561.2230372055121
 31
0.0
  0
LINE
  5
45F6
330
18
100
AcDbEntity
  8
V25
100
AcDbLine
 10
529.0001738078915
 20
560.1926975756007
 30
0.0
 11
542.1482977342612
 21
569.0272795717646
 31
0.0
  0
LINE
  5
45F7
330
18
100
AcDbEntity
  8
V25
100
AcDbLine
 10
520.3717174812113
 20
577.3463278945075
 30
0.0
 11
526.1240216989981
 21
571.2867741779418
 31
0.0
  0
LINE
  5
45F8
330
18
100
AcDbEntity
  8
V25
100
AcDbLine
 10
514.2598942498129
 20
584.3815724637404
 30
0.0
 11
520.3717174812113
 21
577.3463278945075
 31
0.0
  0
LINE
  5
45F9
330
18
100
AcDbEntity
  8
V25
100
AcDbLine
 10
550.7767540609411
 20
571.9029999796264
 30
0.0
 11
551.4444322290771
 21
572.2111128804688
 31
0.0
  0
LINE
  5
45FA
330
18
100
AcDbEntity
  8
V25
100
AcDbLine
 10
542.1482977342612
 20
569.0272795717646
 30
0.0
 11
546.6166054748632
 21
570.6191962261166
 31
0.0
  0
LINE
  5
45FB
330
18
100
AcDbEntity
  8
V25
100
AcDbLine
 10
546.6166054748632
 20
570.6191962261166
 30
0.0
 11
550.7767540609411
 21
571.9029999796264
 31
0.0
  0
LINE
  5
45FC
330
18
100
AcDbEntity
  8
V25
100
AcDbLine
 10
526.1240216989981
 20
571.2867741779418
 30
0.0
 11
531.5681667622604
 21
565.4839812120781
 31
0.0
  0
LINE
  5
45FD
330
18
100
AcDbEntity
  8
V25
100
AcDbLine
 10
436.8891956616858
 20
597.446606086035
 30
0.0
 11
442.2533718093041
 21
593.5068459053261
 31
0.0
  0
LINE
  5
45FE
330
18
100
AcDbEntity
  8
V25
100
AcDbLine
 10
381.0030339154939
 20
593.7013629969642
 30
0.0
 11
383.3436134360775
 21
593.3681987383083
 31
0.0
  0
LINE
  5
45FF
330
18
100
AcDbEntity
  8
V25
100
AcDbLine
 10
381.0030339154939
 20
608.8550340400784
 30
0.0
 11
383.6517725906017
 21
609.5941059772196
 31
0.0
  0
LINE
  5
4600
330
18
100
AcDbEntity
  8
V25
100
AcDbLine
 10
406.7123493208359
 20
610.2616839290447
 30
0.0
 11
411.5401760750499
 21
604.1507780623385
 31
0.0
  0
LINE
  5
4601
330
18
100
AcDbEntity
  8
V25
100
AcDbLine
 10
400.7004766241584
 20
611.3092763548498
 30
0.0
 11
401.2682042575736
 21
610.7050118439255
 31
0.0
  0
LINE
  5
4602
330
18
100
AcDbEntity
  8
V25
100
AcDbLine
 10
401.2682042575736
 20
610.7050118439255
 30
0.0
 11
406.7123493208359
 21
610.2616839290447
 31
0.0
  0
LINE
  5
4603
330
18
100
AcDbEntity
  8
V25
100
AcDbLine
 10
383.6517725906017
 20
609.5941059772196
 30
0.0
 11
396.0457847298651
 21
611.3092763548498
 31
0.0
  0
LINE
  5
4604
330
18
100
AcDbEntity
  8
V25
100
AcDbLine
 10
424.3287809878079
 20
592.0843949847985
 30
0.0
 11
426.8967739421769
 21
593.0600858374659
 31
0.0
  0
LINE
  5
4605
330
18
100
AcDbEntity
  8
V25
100
AcDbLine
 10
411.5401760750499
 20
604.1507780623385
 30
0.0
 11
414.8751913692185
 21
597.446606086035
 31
0.0
  0
LINE
  5
460D
330
18
100
AcDbEntity
  8
V25
100
AcDbLine
 10
465.0057893850141
 20
611.1860226315716
 30
0.0
 11
470.4499344482765
 21
605.7426947166905
 31
0.0
  0
LINE
  5
460E
330
18
100
AcDbEntity
  8
V25
100
AcDbLine
 10
464.6629712450789
 20
611.3092763548498
 30
0.0
 11
465.0057893850141
 21
611.1860226315716
 31
0.0
  0
LINE
  5
460F
330
18
100
AcDbEntity
  8
V25
100
AcDbLine
 10
448.6733541952267
 20
607.3859635211829
 30
0.0
 11
457.7847871849701
 21
611.3092763548498
 31
0.0
  0
LINE
  5
4610
330
18
100
AcDbEntity
  8
V25
100
AcDbLine
 10
470.4499344482765
 20
605.7426947166905
 30
0.0
 11
474.6100830343543
 21
598.537984413633
 31
0.0
  0
LINE
  5
4611
330
18
100
AcDbEntity
  8
V25
100
AcDbLine
 10
474.6100830343543
 20
598.537984413633
 30
0.0
 11
475.3523317062208
 21
597.446606086035
 31
0.0
  0
LINE
  5
461D
330
18
100
AcDbEntity
  8
V25
100
AcDbLine
 10
522.1471597925483
 20
597.446606086035
 30
0.0
 11
529.0001738078915
 21
601.5831705553191
 31
0.0
  0
LINE
  5
461E
330
18
100
AcDbEntity
  8
V25
100
AcDbLine
 10
499.5304377395322
 20
597.446606086035
 30
0.0
 11
506.2991160912688
 21
592.3925078856409
 31
0.0
  0
LINE
  5
4620
330
18
100
AcDbEntity
  8
V25
100
AcDbLine
 10
546.6166054748632
 20
609.5941059772196
 30
0.0
 11
550.7767540609411
 21
610.8779097307292
 31
0.0
  0
LINE
  5
4621
330
18
100
AcDbEntity
  8
V25
100
AcDbLine
 10
542.1482977342612
 20
608.0021893228677
 30
0.0
 11
546.6166054748632
 21
609.5941059772196
 31
0.0
  0
LINE
  5
4622
330
18
100
AcDbEntity
  8
V25
100
AcDbLine
 10
531.5681667622604
 20
604.4588909631809
 30
0.0
 11
535.3829542883954
 21
597.4466060860351
 31
0.0
  0
LINE
  5
4623
330
18
100
AcDbEntity
  8
V25
100
AcDbLine
 10
529.0001738078915
 20
601.5831705553191
 30
0.0
 11
542.1482977342612
 21
608.0021893228677
 31
0.0
  0
LINE
  5
4624
330
18
100
AcDbEntity
  8
V25
100
AcDbLine
 10
526.1240216989981
 20
610.2616839290447
 30
0.0
 11
531.5681667622604
 21
604.4588909631809
 31
0.0
  0
LINE
  5
4625
330
18
100
AcDbEntity
  8
V25
100
AcDbLine
 10
556.1612042224497
 20
597.446606086035
 30
0.0
 11
574.8131681138357
 21
581.1977391550365
 31
0.0
  0
LINE
  5
4626
330
18
100
AcDbEntity
  8
V25
100
AcDbLine
 10
574.8131681138357
 20
581.1977391550365
 30
0.0
 11
581.0030339154943
 21
573.8794344168532
 31
0.0
  0
LWPOLYLINE
  5
462C
330
18
100
AcDbEntity
  8
V35
100
AcDbPolyline
 90
        2
 70
     1
 43
2.9
 10
573.2631681138356
 20
604.0167912767429
 42
1.0
 10
576.3631681138356
 20
604.0167912767429
 42
1.0
  0
LINE
  5
462D
330
18
100
AcDbEntity
  8
V25
100
AcDbLine
 10
571.5774969913306
 20
597.3582571658551
 30
0.0
 11
571.8354575579903
 21
597.446606086035
 31
0.0
  0
LWPOLYLINE
  5
4666
330
18
100
AcDbEntity
  8
V5
100
AcDbPolyline
 90
        3
 70
     0
 43
1.5
 38
1.5
 39
1.5
 10
475.2921802218868
 20
715.0384810067582
 10
409.851914451111
 20
715.0384810067582
 10
409.851914451111
 20
707.2884810067582
  0
LINE
  5
4667
330
18
100
AcDbEntity
  8
V25
100
AcDbLine
 10
460.8488019562048
 20
728.7663245958385
 30
0.0
 11
460.8488019562046
 21
706.7430781016246
 31
0.0
  0
INSERT
  5
4668
330
18
100
AcDbEntity
  8
V35
 48
15.0
100
AcDbBlockReference
  2
L25
 10
432.9709562975312
 20
614.0542446058807
 30
0.0
  0
LINE
  5
466A
330
18
100
AcDbEntity
  8
V35
 48
15.0
100
AcDbLine
 10
454.2536852116954
 20
625.6924221264471
 30
0.0
 11
454.2536852116954
 21
585.6087628520799
 31
0.0
  0
LINE
  5
466B
330
18
100
AcDbEntity
  8
V35
 48
15.0
100
AcDbLine
 10
412.4706740110487
 20
625.6924221264471
 30
0.0
 11
412.4706740110487
 21
585.6087628520799
 31
0.0
  0
LINE
  5
4674
330
18
100
AcDbEntity
  8
V35
 48
15.0
100
AcDbLine
 10
587.0846703341121
 20
550.5436914920823
 30
0.0
 11
587.0846703341121
 21
458.5957449801859
 31
0.0
  0
LINE
  5
4676
330
18
100
AcDbEntity
  8
V35
 48
15.0
100
AcDbLine
 10
591.0846703341121
 20
550.5436914920823
 30
0.0
 11
591.1615591286808
 21
458.5957449801858
 31
0.0
  0
LWPOLYLINE
  5
4677
330
18
100
AcDbEntity
  8
V5
 62
     7
100
AcDbPolyline
 90
        3
 70
     0
 43
2.0
 10
760.7945729197508
 20
448.2723331319739
 10
584.6603318094257
 20
448.2723331319739
 10
584.6603318094257
 20
538.0799777624597
  0
LWPOLYLINE
  5
4678
330
18
100
AcDbEntity
  8
V25
  6
Continuous
100
AcDbPolyline
 90
        2
 70
     0
 43
0.0
 10
960.0612132785727
 20
450.5957449801859
 10
595.1615591286808
 20
450.5957449801859
  0
LINE
  5
4684
330
18
100
AcDbEntity
  8
0
100
AcDbLine
 10
267.8261900950716
 20
205.7925631318385
 30
0.0
 11
236.6261900654412
 21
205.7925631318385
 31
0.0
  0
ARC
  5
4685
330
18
100
AcDbEntity
  8
0
100
AcDbCircle
 10
236.6261900654412
 20
208.5925631318385
 30
0.0
 40
2.800000000000011
100
AcDbArc
 50
130.0000000000002
 51
270.0
  0
LINE
  5
4686
330
18
100
AcDbEntity
  8
0
100
AcDbLine
 10
234.8263847583189
 20
210.7374875725716
 30
0.0
 11
269.1117652869238
 21
239.5063377288968
 31
0.0
  0
ARC
  5
4687
330
18
100
AcDbEntity
  8
0
100
AcDbCircle
 10
267.8261900675508
 20
241.0384266151348
 30
0.0
 40
1.999999999999986
100
AcDbArc
 50
310.0000000000001
 51
0.0
  0
LINE
  5
4688
330
18
100
AcDbEntity
  8
0
100
AcDbLine
 10
269.8261900675508
 20
241.0384266151348
 30
0.0
 11
269.8261900675507
 21
270.4925631247068
 31
0.0
  0
ARC
  5
4689
330
18
100
AcDbEntity
  8
0
100
AcDbCircle
 10
267.8261900675507
 20
270.4925631247068
 30
0.0
 40
2.0
100
AcDbArc
 50
0.0
 51
90.0
  0
LINE
  5
468A
330
18
100
AcDbEntity
  8
0
100
AcDbLine
 10
267.8261900675507
 20
272.4925631247068
 30
0.0
 11
236.6261900675508
 21
272.4925631247068
 31
0.0
  0
ARC
  5
468B
330
18
100
AcDbEntity
  8
0
100
AcDbCircle
 10
236.6261900675508
 20
275.2925631247068
 30
0.0
 40
2.800000000000011
100
AcDbArc
 50
130.0000000000002
 51
270.0
  0
LINE
  5
468C
330
18
100
AcDbEntity
  8
0
100
AcDbLine
 10
234.8263847604285
 20
277.4374875654399
 30
0.0
 11
269.1117652890335
 21
306.2063377217652
 31
0.0
  0
ARC
  5
468D
330
18
100
AcDbEntity
  8
0
100
AcDbCircle
 10
267.8261900696605
 20
307.7384266080031
 30
0.0
 40
1.999999999999986
100
AcDbArc
 50
310.0000000000001
 51
0.0
  0
LINE
  5
468E
330
18
100
AcDbEntity
  8
0
100
AcDbLine
 10
269.8261900696605
 20
307.7384266080031
 30
0.0
 11
269.8261900696604
 21
313.492563117575
 31
0.0
  0
ARC
  5
468F
330
18
100
AcDbEntity
  8
0
100
AcDbCircle
 10
266.4261900696597
 20
313.4925631175746
 30
0.0
 40
3.400000000000716
100
AcDbArc
 50
0.0000000000067054
 51
9.804192868110682
  0
LINE
  5
4690
330
18
100
AcDbEntity
  8
0
100
AcDbLine
 10
269.7765345657414
 20
314.0715205923339
 30
0.0
 11
268.855399189613
 21
319.4019998971287
 31
0.0
  0
ARC
  5
4691
330
18
100
AcDbEntity
  8
0
100
AcDbCircle
 10
270.8261900696606
 20
319.7425631175751
 30
0.0
 40
1.999999999999849
100
AcDbArc
 50
170.1958071318963
 51
189.8041928681037
  0
LINE
  5
4692
330
18
100
AcDbEntity
  8
0
100
AcDbLine
 10
268.855399189613
 20
320.0831263380214
 30
0.0
 11
269.7765345657414
 21
325.4136056428163
 31
0.0
  0
ARC
  5
4693
330
18
100
AcDbEntity
  8
0
100
AcDbCircle
 10
266.4261900696603
 20
325.9925631175751
 30
0.0
 40
3.400000000000006
100
AcDbArc
 50
350.195807131896
 51
9.804192868103982
  0
LINE
  5
4694
330
18
100
AcDbEntity
  8
0
100
AcDbLine
 10
269.7765345657414
 20
326.5715205923339
 30
0.0
 11
268.855399189613
 21
331.9019998971287
 31
0.0
  0
ARC
  5
4695
330
18
100
AcDbEntity
  8
0
100
AcDbCircle
 10
270.8261900696606
 20
332.2425631175751
 30
0.0
 40
1.999999999999849
100
AcDbArc
 50
170.1958071318963
 51
189.8041928681037
  0
LINE
  5
4696
330
18
100
AcDbEntity
  8
0
100
AcDbLine
 10
268.855399189613
 20
332.5831263380214
 30
0.0
 11
269.7765345657414
 21
337.9136056428163
 31
0.0
  0
ARC
  5
4697
330
18
100
AcDbEntity
  8
0
100
AcDbCircle
 10
266.4261900696603
 20
338.4925631175751
 30
0.0
 40
3.400000000000006
100
AcDbArc
 50
350.195807131896
 51
9.804192868103982
  0
LINE
  5
4698
330
18
100
AcDbEntity
  8
0
100
AcDbLine
 10
269.7765345657414
 20
339.0715205923339
 30
0.0
 11
268.855399189613
 21
344.4019998971287
 31
0.0
  0
ARC
  5
4699
330
18
100
AcDbEntity
  8
0
100
AcDbCircle
 10
270.8261900696606
 20
344.7425631175751
 30
0.0
 40
1.999999999999849
100
AcDbArc
 50
170.1958071318963
 51
189.8041928681037
  0
LINE
  5
469A
330
18
100
AcDbEntity
  8
0
100
AcDbLine
 10
268.855399189613
 20
345.0831263380214
 30
0.0
 11
269.7765345657414
 21
350.4136056428163
 31
0.0
  0
ARC
  5
469B
330
18
100
AcDbEntity
  8
0
100
AcDbCircle
 10
266.4261900696603
 20
350.9925631175751
 30
0.0
 40
3.400000000000006
100
AcDbArc
 50
350.195807131896
 51
9.804192868103982
  0
LINE
  5
469C
330
18
100
AcDbEntity
  8
0
100
AcDbLine
 10
269.7765345657414
 20
351.5715205923339
 30
0.0
 11
268.855399189613
 21
356.9019998971287
 31
0.0
  0
ARC
  5
469D
330
18
100
AcDbEntity
  8
0
100
AcDbCircle
 10
270.8261900696606
 20
357.2425631175751
 30
0.0
 40
1.999999999999849
100
AcDbArc
 50
170.1958071318963
 51
189.8041928681037
  0
LINE
  5
469E
330
18
100
AcDbEntity
  8
0
100
AcDbLine
 10
268.855399189613
 20
357.5831263380214
 30
0.0
 11
269.7765345657414
 21
362.9136056428163
 31
0.0
  0
ARC
  5
469F
330
18
100
AcDbEntity
  8
0
100
AcDbCircle
 10
266.4261900696603
 20
363.4925631175751
 30
0.0
 40
3.400000000000006
100
AcDbArc
 50
350.195807131896
 51
9.804192868103982
  0
LINE
  5
46A0
330
18
100
AcDbEntity
  8
0
100
AcDbLine
 10
269.7765345657414
 20
364.0715205923339
 30
0.0
 11
268.855399189613
 21
369.4019998971287
 31
0.0
  0
ARC
  5
46A1
330
18
100
AcDbEntity
  8
0
100
AcDbCircle
 10
270.8261900696606
 20
369.7425631175751
 30
0.0
 40
1.999999999999849
100
AcDbArc
 50
170.1958071318963
 51
189.8041928681037
  0
LINE
  5
46A2
330
18
100
AcDbEntity
  8
0
100
AcDbLine
 10
268.855399189613
 20
370.0831263380214
 30
0.0
 11
269.7765345657414
 21
375.4136056428163
 31
0.0
  0
ARC
  5
46A3
330
18
100
AcDbEntity
  8
0
100
AcDbCircle
 10
266.4261900696603
 20
375.9925631175751
 30
0.0
 40
3.400000000000006
100
AcDbArc
 50
350.195807131896
 51
9.804192868103982
  0
LINE
  5
46A4
330
18
100
AcDbEntity
  8
0
100
AcDbLine
 10
269.7765345657414
 20
376.5715205923339
 30
0.0
 11
268.855399189613
 21
381.9019998971287
 31
0.0
  0
ARC
  5
46A5
330
18
100
AcDbEntity
  8
0
100
AcDbCircle
 10
270.8261900696606
 20
382.2425631175751
 30
0.0
 40
1.999999999999849
100
AcDbArc
 50
170.1958071318963
 51
189.8041928681037
  0
LINE
  5
46A6
330
18
100
AcDbEntity
  8
0
100
AcDbLine
 10
268.855399189613
 20
382.5831263380214
 30
0.0
 11
269.7765345657414
 21
387.9136056428163
 31
0.0
  0
ARC
  5
46A7
330
18
100
AcDbEntity
  8
0
100
AcDbCircle
 10
266.4261900696603
 20
388.4925631175751
 30
0.0
 40
3.400000000000006
100
AcDbArc
 50
350.195807131896
 51
9.804192868103982
  0
LINE
  5
46A8
330
18
100
AcDbEntity
  8
0
100
AcDbLine
 10
269.7765345657414
 20
389.0715205923339
 30
0.0
 11
268.855399189613
 21
394.4019998971287
 31
0.0
  0
ARC
  5
46A9
330
18
100
AcDbEntity
  8
0
100
AcDbCircle
 10
270.8261900696606
 20
394.7425631175751
 30
0.0
 40
1.999999999999849
100
AcDbArc
 50
170.1958071318963
 51
189.8041928681037
  0
LINE
  5
46AA
330
18
100
AcDbEntity
  8
0
100
AcDbLine
 10
268.855399189613
 20
395.0831263380214
 30
0.0
 11
269.7765345657414
 21
400.4136056428163
 31
0.0
  0
ARC
  5
46AB
330
18
100
AcDbEntity
  8
0
100
AcDbCircle
 10
266.4261900696603
 20
400.9925631175751
 30
0.0
 40
3.400000000000006
100
AcDbArc
 50
350.195807131896
 51
9.804192868103982
  0
LINE
  5
46AC
330
18
100
AcDbEntity
  8
0
100
AcDbLine
 10
269.7765345657414
 20
401.5715205923338
 30
0.0
 11
268.855399189613
 21
406.9019998971287
 31
0.0
  0
ARC
  5
46AD
330
18
100
AcDbEntity
  8
0
100
AcDbCircle
 10
270.8261900696606
 20
407.242563117575
 30
0.0
 40
1.999999999999849
100
AcDbArc
 50
170.1958071318963
 51
189.8041928681037
  0
LINE
  5
46AE
330
18
100
AcDbEntity
  8
0
100
AcDbLine
 10
268.855399189613
 20
407.5831263380213
 30
0.0
 11
269.7765345657414
 21
412.9136056428163
 31
0.0
  0
ARC
  5
46AF
330
18
100
AcDbEntity
  8
0
100
AcDbCircle
 10
266.4261900696603
 20
413.4925631175751
 30
0.0
 40
3.400000000000006
100
AcDbArc
 50
350.195807131896
 51
9.804192868103982
  0
LINE
  5
46B0
330
18
100
AcDbEntity
  8
0
100
AcDbLine
 10
269.7765345657414
 20
414.0715205923338
 30
0.0
 11
268.855399189613
 21
419.4019998971287
 31
0.0
  0
ARC
  5
46B1
330
18
100
AcDbEntity
  8
0
100
AcDbCircle
 10
270.8261900696607
 20
419.742563117575
 30
0.0
 40
1.999999999999961
100
AcDbArc
 50
170.1958071318952
 51
189.8041928681031
  0
LINE
  5
46B2
330
18
100
AcDbEntity
  8
0
100
AcDbLine
 10
268.855399189613
 20
420.0831263380214
 30
0.0
 11
269.7765345657414
 21
425.4136056428164
 31
0.0
  0
ARC
  5
46B3
330
18
100
AcDbEntity
  8
0
100
AcDbCircle
 10
266.4261900696603
 20
425.9925631175751
 30
0.0
 40
3.400000000000006
100
AcDbArc
 50
350.195807131896
 51
9.804192868103982
  0
LINE
  5
46B4
330
18
100
AcDbEntity
  8
0
100
AcDbLine
 10
269.7765345657414
 20
426.5715205923339
 30
0.0
 11
268.855399189613
 21
431.9019998971287
 31
0.0
  0
ARC
  5
46B5
330
18
100
AcDbEntity
  8
0
100
AcDbCircle
 10
270.8261900696606
 20
432.2425631175751
 30
0.0
 40
1.999999999999849
100
AcDbArc
 50
170.1958071318963
 51
189.8041928681037
  0
LINE
  5
46B6
330
18
100
AcDbEntity
  8
0
100
AcDbLine
 10
268.855399189613
 20
432.5831263380214
 30
0.0
 11
269.7765345657414
 21
437.9136056428164
 31
0.0
  0
ARC
  5
46B7
330
18
100
AcDbEntity
  8
0
100
AcDbCircle
 10
266.4261900696603
 20
438.4925631175751
 30
0.0
 40
3.400000000000006
100
AcDbArc
 50
350.195807131896
 51
9.804192868103982
  0
LINE
  5
46B8
330
18
100
AcDbEntity
  8
0
100
AcDbLine
 10
269.7765345657414
 20
439.0715205923339
 30
0.0
 11
268.855399189613
 21
444.4019998971287
 31
0.0
  0
ARC
  5
46B9
330
18
100
AcDbEntity
  8
0
100
AcDbCircle
 10
270.8261900696609
 20
444.7425631175751
 30
0.0
 40
2.000000000000138
100
AcDbArc
 50
170.1958071318961
 51
189.8041928681039
  0
LINE
  5
46BA
330
18
100
AcDbEntity
  8
0
100
AcDbLine
 10
268.855399189613
 20
445.0831263380215
 30
0.0
 11
269.7765345657414
 21
450.4136056428164
 31
0.0
  0
ARC
  5
46BB
330
18
100
AcDbEntity
  8
0
100
AcDbCircle
 10
266.4261900696603
 20
450.9925631175751
 30
0.0
 40
3.400000000000006
100
AcDbArc
 50
350.195807131896
 51
9.804192868103982
  0
LINE
  5
46BC
330
18
100
AcDbEntity
  8
0
100
AcDbLine
 10
269.7765345657414
 20
451.5715205923339
 30
0.0
 11
268.855399189613
 21
456.9019998971287
 31
0.0
  0
ARC
  5
46BD
330
18
100
AcDbEntity
  8
0
100
AcDbCircle
 10
270.8261900696609
 20
457.2425631175751
 30
0.0
 40
2.000000000000138
100
AcDbArc
 50
170.1958071318961
 51
189.8041928681039
  0
LINE
  5
46BE
330
18
100
AcDbEntity
  8
0
100
AcDbLine
 10
268.855399189613
 20
457.5831263380215
 30
0.0
 11
269.7765345657414
 21
462.9136056428164
 31
0.0
  0
ARC
  5
46BF
330
18
100
AcDbEntity
  8
0
100
AcDbCircle
 10
266.4261668599689
 20
463.4925661126898
 30
0.0
 40
3.400023380737215
100
AcDbArc
 50
350.1958239971521
 51
0.0167698396833302
  0
LINE
  5
46C0
330
18
100
AcDbEntity
  8
0
100
AcDbLine
 10
269.8261900950715
 20
463.4935612618384
 30
0.0
 11
269.8261900950715
 21
470.4925631318384
 31
0.0
  0
ARC
  5
46C1
330
18
100
AcDbEntity
  8
0
100
AcDbCircle
 10
267.8261900950715
 20
470.4925631318384
 30
0.0
 40
2.0
100
AcDbArc
 50
0.0
 51
90.0
  0
LINE
  5
46C2
330
18
100
AcDbEntity
  8
0
100
AcDbLine
 10
267.8261900950715
 20
472.4925631318384
 30
0.0
 11
236.6261900654411
 21
472.4925631318384
 31
0.0
  0
ARC
  5
46C3
330
18
100
AcDbEntity
  8
0
100
AcDbCircle
 10
236.6261900654411
 20
475.2925631318384
 30
0.0
 40
2.800000000000011
100
AcDbArc
 50
130.0000000000002
 51
270.0
  0
LINE
  5
46C4
330
18
100
AcDbEntity
  8
0
100
AcDbLine
 10
234.8263847583188
 20
477.4374875725715
 30
0.0
 11
269.1117652869238
 21
506.2063377288967
 31
0.0
  0
ARC
  5
46C5
330
18
100
AcDbEntity
  8
0
100
AcDbCircle
 10
267.8261900675507
 20
507.7384266151347
 30
0.0
 40
1.999999999999986
100
AcDbArc
 50
310.0000000000001
 51
0.0
  0
LINE
  5
46C6
330
18
100
AcDbEntity
  8
0
100
AcDbLine
 10
269.8261900675507
 20
507.7384266151347
 30
0.0
 11
269.8261900675507
 21
537.1925631247068
 31
0.0
  0
ARC
  5
46C7
330
18
100
AcDbEntity
  8
0
100
AcDbCircle
 10
267.8261900675507
 20
537.1925631247068
 30
0.0
 40
2.0
100
AcDbArc
 50
0.0
 51
90.0
  0
LINE
  5
46C8
330
18
100
AcDbEntity
  8
0
100
AcDbLine
 10
267.8261900675507
 20
539.1925631247068
 30
0.0
 11
236.6261900675507
 21
539.1925631247068
 31
0.0
  0
ARC
  5
46C9
330
18
100
AcDbEntity
  8
0
100
AcDbCircle
 10
236.6261900675507
 20
541.9925631247067
 30
0.0
 40
2.799999999999954
100
AcDbArc
 50
130.0000000000002
 51
270.0
  0
LINE
  5
46CA
330
18
100
AcDbEntity
  8
0
100
AcDbLine
 10
234.8263847604284
 20
544.1374875654398
 30
0.0
 11
269.1117652890335
 21
572.906337721765
 31
0.0
  0
ARC
  5
46CB
330
18
100
AcDbEntity
  8
0
100
AcDbCircle
 10
267.8261900696604
 20
574.4384266080031
 30
0.0
 40
1.999999999999986
100
AcDbArc
 50
310.0000000000001
 51
0.0
  0
LINE
  5
46CC
330
18
100
AcDbEntity
  8
0
100
AcDbLine
 10
269.8261900696604
 20
574.4384266080031
 30
0.0
 11
269.8261900696604
 21
580.1925631175749
 31
0.0
  0
ARC
  5
46CD
330
18
100
AcDbEntity
  8
0
100
AcDbCircle
 10
266.4261900696597
 20
580.1925631175745
 30
0.0
 40
3.400000000000716
100
AcDbArc
 50
0.0000000000076633
 51
9.804192868111627
  0
LINE
  5
46CE
330
18
100
AcDbEntity
  8
0
100
AcDbLine
 10
269.7765345657414
 20
580.7715205923338
 30
0.0
 11
268.855399189613
 21
586.1019998971287
 31
0.0
  0
ARC
  5
46CF
330
18
100
AcDbEntity
  8
0
100
AcDbCircle
 10
270.8261900696606
 20
586.4425631175749
 30
0.0
 40
1.999999999999839
100
AcDbArc
 50
170.1958071318947
 51
189.8041928681021
  0
LINE
  5
46D0
330
18
100
AcDbEntity
  8
0
100
AcDbLine
 10
268.855399189613
 20
586.7831263380213
 30
0.0
 11
269.7765345657414
 21
592.1136056428163
 31
0.0
  0
ARC
  5
46D1
330
18
100
AcDbEntity
  8
0
100
AcDbCircle
 10
266.4261900696603
 20
592.6925631175751
 30
0.0
 40
3.400000000000006
100
AcDbArc
 50
350.195807131896
 51
9.804192868103982
  0
LINE
  5
46D2
330
18
100
AcDbEntity
  8
0
100
AcDbLine
 10
269.7765345657414
 20
593.2715205923338
 30
0.0
 11
268.855399189613
 21
598.6019998971287
 31
0.0
  0
ARC
  5
46D3
330
18
100
AcDbEntity
  8
0
100
AcDbCircle
 10
270.8261900696606
 20
598.9425631175749
 30
0.0
 40
1.999999999999839
100
AcDbArc
 50
170.1958071318947
 51
189.8041928681021
  0
LINE
  5
46D4
330
18
100
AcDbEntity
  8
0
100
AcDbLine
 10
268.855399189613
 20
599.2831263380213
 30
0.0
 11
269.7765345657414
 21
604.6136056428163
 31
0.0
  0
ARC
  5
46D5
330
18
100
AcDbEntity
  8
0
100
AcDbCircle
 10
266.4261900696603
 20
605.1925631175751
 30
0.0
 40
3.400000000000006
100
AcDbArc
 50
350.195807131896
 51
9.804192868103982
  0
LINE
  5
46D6
330
18
100
AcDbEntity
  8
0
100
AcDbLine
 10
269.7765345657414
 20
605.7715205923338
 30
0.0
 11
268.855399189613
 21
611.1019998971287
 31
0.0
  0
ARC
  5
46D7
330
18
100
AcDbEntity
  8
0
100
AcDbCircle
 10
270.8261900696606
 20
611.4425631175749
 30
0.0
 40
1.999999999999839
100
AcDbArc
 50
170.1958071318947
 51
189.8041928681021
  0
LINE
  5
46D8
330
18
100
AcDbEntity
  8
0
100
AcDbLine
 10
268.855399189613
 20
611.7831263380213
 30
0.0
 11
269.7765345657414
 21
617.1136056428163
 31
0.0
  0
ARC
  5
46D9
330
18
100
AcDbEntity
  8
0
100
AcDbCircle
 10
266.4261900696603
 20
617.6925631175751
 30
0.0
 40
3.400000000000006
100
AcDbArc
 50
350.195807131896
 51
9.804192868103982
  0
LINE
  5
46DA
330
18
100
AcDbEntity
  8
0
100
AcDbLine
 10
269.7765345657414
 20
618.2715205923338
 30
0.0
 11
268.855399189613
 21
623.6019998971287
 31
0.0
  0
ARC
  5
46DB
330
18
100
AcDbEntity
  8
0
100
AcDbCircle
 10
270.8261900696606
 20
623.9425631175749
 30
0.0
 40
1.999999999999839
100
AcDbArc
 50
170.1958071318947
 51
189.8041928681021
  0
LINE
  5
46DC
330
18
100
AcDbEntity
  8
0
100
AcDbLine
 10
268.855399189613
 20
624.2831263380213
 30
0.0
 11
269.7765345657414
 21
629.6136056428163
 31
0.0
  0
ARC
  5
46DD
330
18
100
AcDbEntity
  8
0
100
AcDbCircle
 10
266.4261900696603
 20
630.1925631175751
 30
0.0
 40
3.400000000000006
100
AcDbArc
 50
350.195807131896
 51
9.804192868103982
  0
LINE
  5
46DE
330
18
100
AcDbEntity
  8
0
100
AcDbLine
 10
269.7765345657414
 20
630.7715205923338
 30
0.0
 11
268.855399189613
 21
636.1019998971287
 31
0.0
  0
ARC
  5
46DF
330
18
100
AcDbEntity
  8
0
100
AcDbCircle
 10
270.8261900696606
 20
636.4425631175749
 30
0.0
 40
1.999999999999839
100
AcDbArc
 50
170.1958071318947
 51
189.8041928681021
  0
LINE
  5
46E0
330
18
100
AcDbEntity
  8
0
100
AcDbLine
 10
268.855399189613
 20
636.7831263380213
 30
0.0
 11
269.7765345657414
 21
642.1136056428163
 31
0.0
  0
ARC
  5
46E1
330
18
100
AcDbEntity
  8
0
100
AcDbCircle
 10
266.4261900696603
 20
642.6925631175751
 30
0.0
 40
3.400000000000006
100
AcDbArc
 50
350.195807131896
 51
9.804192868103982
  0
LINE
  5
46E2
330
18
100
AcDbEntity
  8
0
100
AcDbLine
 10
269.7765345657414
 20
643.2715205923338
 30
0.0
 11
268.855399189613
 21
648.6019998971287
 31
0.0
  0
ARC
  5
46E3
330
18
100
AcDbEntity
  8
0
100
AcDbCircle
 10
270.8261900696606
 20
648.9425631175749
 30
0.0
 40
1.999999999999839
100
AcDbArc
 50
170.1958071318947
 51
189.8041928681021
  0
LINE
  5
46E4
330
18
100
AcDbEntity
  8
0
100
AcDbLine
 10
268.855399189613
 20
649.2831263380213
 30
0.0
 11
269.7765345657414
 21
654.6136056428163
 31
0.0
  0
ARC
  5
46E5
330
18
100
AcDbEntity
  8
0
100
AcDbCircle
 10
266.4261900696603
 20
655.1925631175751
 30
0.0
 40
3.400000000000006
100
AcDbArc
 50
350.195807131896
 51
9.804192868103982
  0
LINE
  5
46E6
330
18
100
AcDbEntity
  8
0
100
AcDbLine
 10
269.7765345657414
 20
655.7715205923338
 30
0.0
 11
268.855399189613
 21
661.1019998971287
 31
0.0
  0
ARC
  5
46E7
330
18
100
AcDbEntity
  8
0
100
AcDbCircle
 10
270.8261900696606
 20
661.4425631175749
 30
0.0
 40
1.999999999999839
100
AcDbArc
 50
170.1958071318947
 51
189.8041928681021
  0
LINE
  5
46E8
330
18
100
AcDbEntity
  8
0
100
AcDbLine
 10
268.855399189613
 20
661.7831263380213
 30
0.0
 11
269.7765345657414
 21
667.1136056428163
 31
0.0
  0
ARC
  5
46E9
330
18
100
AcDbEntity
  8
0
100
AcDbCircle
 10
266.4261900696603
 20
667.6925631175751
 30
0.0
 40
3.400000000000006
100
AcDbArc
 50
350.195807131896
 51
9.804192868103982
  0
LINE
  5
46EA
330
18
100
AcDbEntity
  8
0
100
AcDbLine
 10
269.7765345657414
 20
668.2715205923338
 30
0.0
 11
268.855399189613
 21
673.6019998971287
 31
0.0
  0
ARC
  5
46EB
330
18
100
AcDbEntity
  8
0
100
AcDbCircle
 10
270.8261900696606
 20
673.9425631175749
 30
0.0
 40
1.999999999999839
100
AcDbArc
 50
170.1958071318947
 51
189.8041928681021
  0
LINE
  5
46EC
330
18
100
AcDbEntity
  8
0
100
AcDbLine
 10
268.855399189613
 20
674.2831263380213
 30
0.0
 11
269.7765345657414
 21
679.6136056428163
 31
0.0
  0
ARC
  5
46ED
330
18
100
AcDbEntity
  8
0
100
AcDbCircle
 10
266.4261900696603
 20
680.1925631175751
 30
0.0
 40
3.400000000000006
100
AcDbArc
 50
350.195807131896
 51
9.804192868103982
  0
LINE
  5
46EE
330
18
100
AcDbEntity
  8
0
100
AcDbLine
 10
269.7765345657414
 20
680.7715205923338
 30
0.0
 11
268.855399189613
 21
686.1019998971287
 31
0.0
  0
ARC
  5
46EF
330
18
100
AcDbEntity
  8
0
100
AcDbCircle
 10
270.8261900696606
 20
686.4425631175749
 30
0.0
 40
1.999999999999839
100
AcDbArc
 50
170.1958071318947
 51
189.8041928681021
  0
LINE
  5
46F0
330
18
100
AcDbEntity
  8
0
100
AcDbLine
 10
268.855399189613
 20
686.7831263380213
 30
0.0
 11
269.4024998580645
 21
689.9491200305852
 31
0.0
  0
LINE
  5
46F1
330
18
100
AcDbEntity
  8
0
100
AcDbLine
 10
268.8553991896132
 20
153.3831263380214
 30
0.0
 11
269.7765345657415
 21
158.7136056428164
 31
0.0
  0
LINE
  5
46F8
330
18
100
AcDbEntity
  8
0
100
AcDbLine
 10
268.8553991896132
 20
103.3831263380214
 30
0.0
 11
269.7765345657415
 21
108.7136056428163
 31
0.0
  0
LINE
  5
4709
330
18
100
AcDbEntity
  8
0
100
AcDbLine
 10
268.8553991896132
 20
128.3831263380214
 30
0.0
 11
269.7765345657415
 21
133.7136056428163
 31
0.0
  0
ARC
  5
470A
330
18
100
AcDbEntity
  8
0
100
AcDbCircle
 10
270.8261900696607
 20
128.042563117575
 30
0.0
 40
1.999999999999849
100
AcDbArc
 50
170.1958071318963
 51
189.8041928681037
  0
LINE
  5
470B
330
18
100
AcDbEntity
  8
0
100
AcDbLine
 10
269.7765345657415
 20
122.3715205923339
 30
0.0
 11
268.8553991896132
 21
127.7019998971287
 31
0.0
  0
ARC
  5
470C
330
18
100
AcDbEntity
  8
0
100
AcDbCircle
 10
266.4261900696605
 20
121.7925631175751
 30
0.0
 40
3.400000000000006
100
AcDbArc
 50
350.195807131896
 51
9.804192868103982
  0
LINE
  5
470D
330
18
100
AcDbEntity
  8
0
100
AcDbLine
 10
268.8553991896132
 20
115.8831263380214
 30
0.0
 11
269.7765345657415
 21
121.2136056428163
 31
0.0
  0
ARC
  5
470E
330
18
100
AcDbEntity
  8
0
100
AcDbCircle
 10
270.8261900696607
 20
115.542563117575
 30
0.0
 40
1.999999999999849
100
AcDbArc
 50
170.1958071318963
 51
189.8041928681037
  0
LINE
  5
470F
330
18
100
AcDbEntity
  8
0
100
AcDbLine
 10
269.7765345657415
 20
109.8715205923339
 30
0.0
 11
268.8553991896132
 21
115.2019998971287
 31
0.0
  0
ARC
  5
4710
330
18
100
AcDbEntity
  8
0
100
AcDbCircle
 10
266.4261900696605
 20
109.2925631175751
 30
0.0
 40
3.400000000000006
100
AcDbArc
 50
350.195807131896
 51
9.804192868103982
  0
ARC
  5
4711
330
18
100
AcDbEntity
  8
0
100
AcDbCircle
 10
270.8261900696608
 20
153.042563117575
 30
0.0
 40
1.999999999999961
100
AcDbArc
 50
170.1958071318952
 51
189.8041928681031
  0
LINE
  5
4712
330
18
100
AcDbEntity
  8
0
100
AcDbLine
 10
269.7765345657415
 20
147.3715205923339
 30
0.0
 11
268.8553991896132
 21
152.7019998971287
 31
0.0
  0
ARC
  5
4713
330
18
100
AcDbEntity
  8
0
100
AcDbCircle
 10
266.4261900696605
 20
146.7925631175751
 30
0.0
 40
3.400000000000006
100
AcDbArc
 50
350.195807131896
 51
9.804192868103982
  0
LINE
  5
4714
330
18
100
AcDbEntity
  8
0
100
AcDbLine
 10
268.8553991896132
 20
140.8831263380213
 30
0.0
 11
269.7765345657415
 21
146.2136056428163
 31
0.0
  0
ARC
  5
4715
330
18
100
AcDbEntity
  8
0
100
AcDbCircle
 10
270.8261900696607
 20
140.542563117575
 30
0.0
 40
1.999999999999849
100
AcDbArc
 50
170.1958071318963
 51
189.8041928681037
  0
LINE
  5
4716
330
18
100
AcDbEntity
  8
0
100
AcDbLine
 10
269.7765345657415
 20
134.8715205923339
 30
0.0
 11
268.8553991896132
 21
140.2019998971287
 31
0.0
  0
ARC
  5
4717
330
18
100
AcDbEntity
  8
0
100
AcDbCircle
 10
266.4261900696605
 20
134.2925631175751
 30
0.0
 40
3.400000000000006
100
AcDbArc
 50
350.195807131896
 51
9.804192868103982
  0
LINE
  5
4718
330
18
100
AcDbEntity
  8
0
100
AcDbLine
 10
268.8553991896132
 20
178.3831263380215
 30
0.0
 11
269.7765345657415
 21
183.7136056428164
 31
0.0
  0
ARC
  5
4719
330
18
100
AcDbEntity
  8
0
100
AcDbCircle
 10
270.826190069661
 20
178.0425631175751
 30
0.0
 40
2.000000000000138
100
AcDbArc
 50
170.1958071318961
 51
189.8041928681039
  0
LINE
  5
471A
330
18
100
AcDbEntity
  8
0
100
AcDbLine
 10
269.7765345657415
 20
172.371520592334
 30
0.0
 11
268.8553991896132
 21
177.7019998971288
 31
0.0
  0
ARC
  5
471B
330
18
100
AcDbEntity
  8
0
100
AcDbCircle
 10
266.4261900696605
 20
171.7925631175751
 30
0.0
 40
3.400000000000006
100
AcDbArc
 50
350.195807131896
 51
9.804192868103982
  0
LINE
  5
471C
330
18
100
AcDbEntity
  8
0
100
AcDbLine
 10
268.8553991896132
 20
165.8831263380214
 30
0.0
 11
269.7765345657415
 21
171.2136056428164
 31
0.0
  0
ARC
  5
471D
330
18
100
AcDbEntity
  8
0
100
AcDbCircle
 10
270.8261900696607
 20
165.5425631175751
 30
0.0
 40
1.999999999999849
100
AcDbArc
 50
170.1958071318963
 51
189.8041928681037
  0
LINE
  5
471E
330
18
100
AcDbEntity
  8
0
100
AcDbLine
 10
269.7765345657415
 20
159.871520592334
 30
0.0
 11
268.8553991896132
 21
165.2019998971288
 31
0.0
  0
ARC
  5
471F
330
18
100
AcDbEntity
  8
0
100
AcDbCircle
 10
266.4261900696605
 20
159.2925631175751
 30
0.0
 40
3.400000000000006
100
AcDbArc
 50
350.195807131896
 51
9.804192868103982
  0
ARC
  5
4720
330
18
100
AcDbEntity
  8
0
100
AcDbCircle
 10
267.8261900950716
 20
203.7925631318385
 30
0.0
 40
2.0
100
AcDbArc
 50
0.0
 51
90.0
  0
LINE
  5
4721
330
18
100
AcDbEntity
  8
0
100
AcDbLine
 10
269.8261900950716
 20
196.7935612618384
 30
0.0
 11
269.8261900950716
 21
203.7925631318385
 31
0.0
  0
ARC
  5
4722
330
18
100
AcDbEntity
  8
0
100
AcDbCircle
 10
266.426166859969
 20
196.7925661126898
 30
0.0
 40
3.400023380737215
100
AcDbArc
 50
350.1958239971521
 51
0.0167698396833302
  0
LINE
  5
4723
330
18
100
AcDbEntity
  8
0
100
AcDbLine
 10
268.8553991896132
 20
190.8831263380215
 30
0.0
 11
269.7765345657415
 21
196.2136056428164
 31
0.0
  0
ARC
  5
4724
330
18
100
AcDbEntity
  8
0
100
AcDbCircle
 10
270.826190069661
 20
190.5425631175751
 30
0.0
 40
2.000000000000138
100
AcDbArc
 50
170.1958071318961
 51
189.8041928681039
  0
LINE
  5
4725
330
18
100
AcDbEntity
  8
0
100
AcDbLine
 10
269.7765345657415
 20
184.871520592334
 30
0.0
 11
268.8553991896132
 21
190.2019998971288
 31
0.0
  0
ARC
  5
4726
330
18
100
AcDbEntity
  8
0
100
AcDbCircle
 10
266.4261900696605
 20
184.2925631175751
 30
0.0
 40
3.400000000000006
100
AcDbArc
 50
350.195807131896
 51
9.804192868103982
  0
INSERT
  5
472C
330
18
100
AcDbEntity
  8
TXT-D
100
AcDbBlockReference
  2
wädä
 10
378.3711884716609
 20
126.6305844888925
 30
0.0
 41
1.166399999999921
 42
1.166399999999921
 43
1.166399999999921
  0
INSERT
  5
472D
330
18
100
AcDbEntity
  8
TXT-D
100
AcDbBlockReference
  2
wädä
 10
378.3711884716609
 20
146.7859764888924
 30
0.0
 41
1.166399999999921
 42
1.166399999999921
 43
1.166399999999921
  0
INSERT
  5
472E
330
18
100
AcDbEntity
  8
TXT-D
100
AcDbBlockReference
  2
wädä
 10
378.3711884716609
 20
166.9413684888924
 30
0.0
 41
1.166399999999921
 42
1.166399999999921
 43
1.166399999999921
  0
LINE
  5
4730
330
18
100
AcDbEntity
  8
ISO10TES
100
AcDbLine
 10
337.9134244839284
 20
101.4608413239081
 30
0.0
 11
307.8273164716636
 21
106.4751924888917
 31
0.0
  0
ARC
  5
4732
330
18
100
AcDbEntity
  8
ISO10TES
100
AcDbCircle
 10
307.8273164716637
 20
96.3974964888921
 30
0.0
 40
10.07769599999959
100
AcDbArc
 50
90.0
 51
149.8390490224304
  0
LWPOLYLINE
  5
4736
330
18
100
AcDbEntity
  8
ISO10TES
100
AcDbPolyline
 90
        2
 70
     0
 43
0.0
 10
307.8273164716636
 20
106.4751924888925
 10
368.2934945263781
 20
116.5528884888919
  0
LINE
  5
4737
330
18
100
AcDbEntity
  8
ISO10TES
100
AcDbLine
 10
368.2934945263781
 20
116.5528884888919
 30
0.0
 11
307.8273164716636
 21
126.6305844888916
 31
0.0
  0
LINE
  5
4738
330
18
100
AcDbEntity
  8
ISO10TES
100
AcDbLine
 10
337.9134244839351
 20
101.4608413239081
 30
0.0
 11
307.8273164716636
 21
106.4751924888929
 31
0.0
  0
ARC
  5
4739
330
18
100
AcDbEntity
  8
ISO10TES
100
AcDbCircle
 10
307.8273164716637
 20
116.552888488892
 30
0.0
 40
10.07769599999959
100
AcDbArc
 50
90.0
 51
180.0
  0
ARC
  5
473A
330
18
100
AcDbEntity
  8
ISO10TES
100
AcDbCircle
 10
307.8273164716637
 20
116.552888488892
 30
0.0
 40
10.07769599999959
100
AcDbArc
 50
180.0
 51
270.0
  0
LWPOLYLINE
  5
473B
330
18
100
AcDbEntity
  8
ISO10TES
100
AcDbPolyline
 90
        2
 70
     0
 43
0.0
 10
368.2934924716612
 20
116.5528884888922
 42
-0.4142135623730951
 10
378.3711884716609
 20
106.4751924888926
 42
-0.4142135623730951
  0
ARC
  5
473C
330
18
100
AcDbEntity
  8
ISO10TES
100
AcDbCircle
 10
368.2934924716615
 20
106.4751924888929
 30
0.0
 40
10.0776959999994
100
AcDbArc
 50
330.160690360897
 51
0.0
  0
LWPOLYLINE
  5
473D
330
18
100
AcDbEntity
  8
V5
  6
GESTRICHELT
 48
5.0
100
AcDbPolyline
 90
        6
 70
     0
 43
4.0
 10
960.0612132785727
 20
452.5957449801858
 10
595.1615591286808
 20
452.5957449801857
 42
-0.4142135623730951
 10
589.1615591286807
 20
458.5957449801857
 10
589.0846703341122
 20
550.5436914920823
 42
0.4142135623730951
 10
583.0846703341121
 20
556.5436914920824
 10
383.6161543680127
 20
556.5436914920828
  0
INSERT
  5
4746
330
18
100
AcDbEntity
  8
INSULATION
 48
15.0
100
AcDbBlockReference
  2
DAEMM
 10
383.9416762312176
 20
614.1140877648176
 30
0.0
 41
1.973517306815774
 42
1.947173639663651
 43
1.973517306815774
  0
INSERT
  5
4747
330
18
100
AcDbEntity
  8
INSULATION
 48
15.0
100
AcDbBlockReference
  2
DAEMM
 10
391.8357454584807
 20
614.1140877648176
 30
0.0
 41
1.973517306815774
 42
1.947173639663651
 43
1.973517306815774
  0
INSERT
  5
4748
330
18
100
AcDbEntity
  8
INSULATION
 48
15.0
100
AcDbBlockReference
  2
DAEMM
 10
399.7298146857438
 20
614.1140877648176
 30
0.0
 41
1.973517306815774
 42
1.947173639663651
 43
1.973517306815774
  0
INSERT
  5
4749
330
18
100
AcDbEntity
  8
INSULATION
 48
15.0
100
AcDbBlockReference
  2
DAEMM
 10
407.6238839130069
 20
614.1140877648176
 30
0.0
 41
1.973517306815774
 42
1.947173639663651
 43
1.973517306815774
  0
INSERT
  5
474A
330
18
100
AcDbEntity
  8
INSULATION
 48
15.0
100
AcDbBlockReference
  2
DAEMM
 10
415.51795314027
 20
614.1140877648176
 30
0.0
 41
1.973517306815774
 42
1.947173639663651
 43
1.973517306815774
  0
INSERT
  5
474B
330
18
100
AcDbEntity
  8
INSULATION
 48
15.0
100
AcDbBlockReference
  2
DAEMM
 10
423.4120223675331
 20
614.1140877648176
 30
0.0
 41
1.973517306815774
 42
1.947173639663651
 43
1.973517306815774
  0
INSERT
  5
474C
330
18
100
AcDbEntity
  8
INSULATION
 48
15.0
100
AcDbBlockReference
  2
DAEMM
 10
431.3060915947962
 20
614.1140877648176
 30
0.0
 41
1.973517306815774
 42
1.947173639663651
 43
1.973517306815774
  0
INSERT
  5
474D
330
18
100
AcDbEntity
  8
INSULATION
 48
15.0
100
AcDbBlockReference
  2
DAEMM
 10
439.2001608220594
 20
614.1140877648176
 30
0.0
 41
1.973517306815774
 42
1.947173639663651
 43
1.973517306815774
  0
INSERT
  5
474E
330
18
100
AcDbEntity
  8
INSULATION
 48
15.0
100
AcDbBlockReference
  2
DAEMM
 10
447.0942300493224
 20
614.1140877648176
 30
0.0
 41
1.973517306815774
 42
1.947173639663651
 43
1.973517306815774
  0
INSERT
  5
474F
330
18
100
AcDbEntity
  8
INSULATION
 48
15.0
100
AcDbBlockReference
  2
DAEMM
 10
454.9882992765856
 20
614.1140877648176
 30
0.0
 41
1.973517306815774
 42
1.947173639663651
 43
1.973517306815774
  0
INSERT
  5
4750
330
18
100
AcDbEntity
  8
INSULATION
 48
15.0
100
AcDbBlockReference
  2
DAEMM
 10
462.8823685038487
 20
614.1140877648176
 30
0.0
 41
1.973517306815774
 42
1.947173639663651
 43
1.973517306815774
  0
INSERT
  5
4751
330
18
100
AcDbEntity
  8
INSULATION
 48
15.0
100
AcDbBlockReference
  2
DAEMM
 10
470.7764377311118
 20
614.1140877648176
 30
0.0
 41
1.973517306815774
 42
1.947173639663651
 43
1.973517306815774
  0
INSERT
  5
4752
330
18
100
AcDbEntity
  8
INSULATION
 48
15.0
100
AcDbBlockReference
  2
DAEMM
 10
478.6705069583749
 20
614.1140877648176
 30
0.0
 41
1.973517306815774
 42
1.947173639663651
 43
1.973517306815774
  0
INSERT
  5
4753
330
18
100
AcDbEntity
  8
INSULATION
 48
15.0
100
AcDbBlockReference
  2
DAEMM
 10
486.5645761856381
 20
614.1140877648176
 30
0.0
 41
1.973517306815774
 42
1.947173639663651
 43
1.973517306815774
  0
INSERT
  5
4754
330
18
100
AcDbEntity
  8
INSULATION
 48
15.0
100
AcDbBlockReference
  2
DAEMM
 10
494.4586454129011
 20
614.1140877648176
 30
0.0
 41
1.973517306815774
 42
1.947173639663651
 43
1.973517306815774
  0
INSERT
  5
4755
330
18
100
AcDbEntity
  8
INSULATION
 48
15.0
100
AcDbBlockReference
  2
DAEMM
 10
502.3527146401643
 20
614.1140877648176
 30
0.0
 41
1.973517306815774
 42
1.947173639663651
 43
1.973517306815774
  0
INSERT
  5
4756
330
18
100
AcDbEntity
  8
INSULATION
 48
15.0
100
AcDbBlockReference
  2
DAEMM
 10
510.2467838674274
 20
614.1140877648176
 30
0.0
 41
1.973517306815774
 42
1.947173639663651
 43
1.973517306815774
  0
INSERT
  5
4757
330
18
100
AcDbEntity
  8
INSULATION
 48
15.0
100
AcDbBlockReference
  2
DAEMM
 10
518.1408530946905
 20
614.1140877648176
 30
0.0
 41
1.973517306815774
 42
1.947173639663651
 43
1.973517306815774
  0
INSERT
  5
4758
330
18
100
AcDbEntity
  8
INSULATION
 48
15.0
100
AcDbBlockReference
  2
DAEMM
 10
526.0349223219536
 20
614.1140877648176
 30
0.0
 41
1.973517306815774
 42
1.947173639663651
 43
1.973517306815774
  0
INSERT
  5
4759
330
18
100
AcDbEntity
  8
INSULATION
 48
15.0
100
AcDbBlockReference
  2
DAEMM
 10
533.9289915492168
 20
614.1140877648176
 30
0.0
 41
1.973517306815774
 42
1.947173639663651
 43
1.973517306815774
  0
INSERT
  5
475A
330
18
100
AcDbEntity
  8
INSULATION
 48
15.0
100
AcDbBlockReference
  2
DAEMM
 10
541.8230607764798
 20
614.1140877648176
 30
0.0
 41
1.973517306815774
 42
1.947173639663651
 43
1.973517306815774
  0
INSERT
  5
475B
330
18
100
AcDbEntity
  8
INSULATION
 48
15.0
100
AcDbBlockReference
  2
DAEMM
 10
549.717130003743
 20
614.1140877648176
 30
0.0
 41
1.973517306815774
 42
1.947173639663651
 43
1.973517306815774
  0
INSERT
  5
475C
330
18
100
AcDbEntity
  8
INSULATION
 48
15.0
100
AcDbBlockReference
  2
DAEMM
 10
557.6111992310061
 20
614.1140877648176
 30
0.0
 41
1.973517306815774
 42
1.947173639663651
 43
1.973517306815774
  0
INSERT
  5
475D
330
18
100
AcDbEntity
  8
INSULATION
 48
15.0
100
AcDbBlockReference
  2
DAEMM
 10
565.5052684582692
 20
614.1140877648176
 30
0.0
 41
1.973517306815774
 42
1.947173639663651
 43
1.973517306815774
  0
INSERT
  5
475E
330
18
100
AcDbEntity
  8
INSULATION
 48
15.0
100
AcDbBlockReference
  2
DAEMM
 10
573.3993376855323
 20
614.1140877648176
 30
0.0
 41
1.973517306815774
 42
1.947173639663651
 43
1.973517306815774
  0
INSERT
  5
475F
330
18
100
AcDbEntity
  8
INSULATION
 48
15.0
100
AcDbBlockReference
  2
DAEMM
 10
383.4420473913415
 20
638.5785819399716
 30
0.0
 41
8.243808377007551
 42
7.688840350063128
 43
8.243808377007551
  0
ELLIPSE
  5
4762
330
18
100
AcDbEntity
  8
INSULATION
100
AcDbEllipse
 10
585.9588562581804
 20
604.6434344319517
 30
0.0
 11
-27.41326569200593
 21
0.0000000000001052
 31
0.0
210
0.0
220
0.0
230
0.9999999999999998
 40
0.992837186609956
 41
2.778624004984155
 42
4.663426967219121
  0
LINE
  5
4763
330
18
100
AcDbEntity
  8
INSULATION
100
AcDbLine
 10
611.5860633352092
 20
594.980042766666
 30
0.0
 11
593.8727452087262
 21
548.6750640454807
 31
0.0
  0
ELLIPSE
  5
4764
330
18
100
AcDbEntity
  8
INSULATION
100
AcDbEllipse
 10
613.3721219501861
 20
522.9927056756261
 30
0.0
 11
-27.41326569200604
 21
0.0000000000042443
 31
0.0
210
0.0
220
0.0
230
1.0
 40
0.9928371866099601
 41
-0.3629686486054873
 42
0.1756331992577988
  0
ELLIPSE
  5
4766
330
18
100
AcDbEntity
  8
INSULATION
100
AcDbEllipse
 10
613.3721219501861
 20
522.9927056756261
 30
0.0
 11
-27.41326569200604
 21
0.0000000000042443
 31
0.0
210
0.0
220
0.0
230
1.0
 40
0.9928371866099601
 41
0.7529650940021908
 42
1.570796326795045
  0
ELLIPSE
  5
4767
330
18
100
AcDbEntity
  8
INSULATION
100
AcDbEllipse
 10
952.7826605481122
 20
465.2424655446781
 30
0.0
 11
-6.20236643304256
 21
0.0000000000001574
 31
0.0
210
0.0
220
0.0
230
1.0
 40
0.9830344844228967
 41
1.57079632679492
 42
3.504561302195458
  0
LINE
  5
4768
330
18
100
AcDbEntity
  8
INSULATION
100
AcDbLine
 10
958.5809237223369
 20
467.4072613871426
 30
0.0
 11
953.18676380693
 21
481.3690899683366
 31
0.0
  0
ELLIPSE
  5
4769
330
18
100
AcDbEntity
  8
INSULATION
100
AcDbEllipse
 10
958.9850269811549
 20
483.5338858108011
 30
0.0
 11
6.202366433042627
 21
0.000000000004636
 31
0.0
210
0.0
220
0.0
230
1.0
 40
0.983034484422877
 41
1.396401466675134
 42
3.504561302194675
  0
LINE
  5
476A
330
18
100
AcDbEntity
  8
INSULATION
100
AcDbLine
 10
960.0612132785727
 20
469.1468294245045
 30
0.0
 11
959.3891302399727
 21
467.4072613871426
 31
0.0
  0
ELLIPSE
  5
476B
330
18
100
AcDbEntity
  8
INSULATION
100
AcDbEllipse
 10
965.1873934141972
 20
465.2424655446781
 30
0.0
 11
6.20236643304256
 21
0.000000000000167
 31
0.0
210
0.0
220
0.0
230
1.0
 40
0.9830344844228967
 41
2.778624004984125
 42
3.739549058015535
  0
HATCH
  5
476D
330
18
100
AcDbEntity
  8
V35
 48
15.0
100
AcDbHatch
 10
0.0
 20
0.0
 30
0.0
210
0.0
220
0.0
230
1.0
  2
DOTS
 70
     0
 71
     0
 91
        1
 92
        1
 93
        4
 72
     1
 10
383.485058700895
 20
545.1024076302301
 11
581.6070063884653
 21
545.1024076302301
 72
     1
 10
581.6070063884653
 20
545.1024076302301
 11
581.6070063884653
 21
102.7989506259018
 72
     1
 10
581.6070063884653
 20
102.7989506259018
 11
383.485058700895
 21
102.7989506259018
 72
     1
 10
383.485058700895
 20
102.7989506259018
 11
383.485058700895
 21
545.1024076302301
 97
        0
 75
     0
 76
     1
 52
0.0
 41
8.0
 77
     0
 78
     1
 53
0.0
 43
0.0
 44
0.0
 45
6.349999999999999
 46
12.7
 79
     2
 49
0.0
 49
-12.7
 98
        1
 10
0.0
 20
0.0
  0
TEXT
  5
476F
330
18
100
AcDbEntity
  8
TXT-D
  6
VERDECKTX2
 62
     7
 48
5.0
100
AcDbText
 10
55.12278102160405
 20
1027.279585964352
 30
0.0
 40
14.0
  1
hliníková klipsa
  7
ROMANS
100
AcDbText
  0
LINE
  5
4770
330
18
100
AcDbEntity
  8
TXT-D
 62
     1
100
AcDbLine
 10
407.267569845337
 20
743.9580616802754
 30
0.0
 11
407.2675698453371
 21
1001.26986821428
 31
0.0
  0
LINE
  5
4771
330
18
100
AcDbEntity
  8
TXT-D
 62
     1
100
AcDbLine
 10
433.1750267505907
 20
1032.752276350738
 30
0.0
 11
247.7889542828916
 21
1032.752276350738
 31
0.0
  0
LINE
  5
4772
330
18
100
AcDbEntity
  8
TXT-D
 62
     1
100
AcDbLine
 10
433.1750267505907
 20
711.1657200702575
 30
0.0
 11
433.1750267505907
 21
1032.752276350738
 31
0.0
  0
LINE
  5
4773
330
18
100
AcDbEntity
  8
TXT-D
 62
     1
100
AcDbLine
 10
433.1750267505907
 20
691.1210909261826
 30
0.0
 11
433.1750267505907
 21
1008.940789352791
 31
0.0
  0
LWPOLYLINE
  5
4774
330
18
100
AcDbEntity
  8
V35
100
AcDbPolyline
 90
        2
 70
     1
 43
2.9
 10
432.7041419829336
 20
689.8966013243518
 42
1.0
 10
435.8041419829334
 20
689.8966013243518
 42
1.0
  0
LINE
  5
4775
330
18
100
AcDbEntity
  8
TXT-D
 62
     1
100
AcDbLine
 10
380.5336049987899
 20
782.6868415089146
 30
0.0
 11
419.538148922887
 21
693.9438596824086
 31
0.0
  0
LWPOLYLINE
  5
4776
330
18
100
AcDbEntity
  8
V35
100
AcDbPolyline
 90
        2
 70
     1
 43
2.9
 10
417.9881489228871
 20
693.9438596824086
 42
1.0
 10
421.088148922887
 20
693.9438596824086
 42
1.0
  0
LINE
  5
477D
330
18
100
AcDbEntity
  8
V35
 48
15.0
100
AcDbLine
 10
390.7146442031917
 20
681.7781160587774
 30
0.0
 11
375.4549728254897
 21
681.7781160587774
 31
0.0
  0
LINE
  5
477E
330
18
100
AcDbEntity
  8
V35
 48
15.0
100
AcDbLine
 10
375.4549728254897
 20
681.7781160587774
 30
0.0
 11
389.4938621876299
 21
681.7781160587774
 31
0.0
  0
LWPOLYLINE
  5
477F
330
18
100
AcDbEntity
  8
V5
  6
VERDECKTX2
 48
15.0
100
AcDbPolyline
 90
        4
 70
     0
 43
2.0
 10
386.5694234196216
 20
657.0748832773833
 10
386.5493151590174
 20
718.0099483140298
 10
211.5250696452839
 20
722.0007403981408
 10
211.5250696452839
 20
640.0780791019879
  0
LWPOLYLINE
  5
4780
330
18
100
AcDbEntity
  8
V5
  6
VERDECKTX2
 48
15.0
100
AcDbPolyline
 90
        3
 70
     0
 43
2.0
 10
495.5205539585216
 20
613.860578106953
 10
381.8910717555653
 20
613.860578106953
 10
381.8620169532048
 20
701.9067948495492
  0
LINE
  5
4782
330
18
100
AcDbEntity
  8
TXT-D
 62
     1
100
AcDbLine
 10
832.8856388138518
 20
713.7608869192519
 30
0.0
 11
813.04413076873
 21
713.7608869192519
 31
0.0
  0
TEXT
  5
4783
330
18
100
AcDbEntity
  8
TXT-D
  6
VERDECKTX2
 62
     7
 48
5.0
100
AcDbText
 10
765.3832329196833
 20
782.6552933421352
 30
0.0
 40
14.0
  1
s termopodložkou
  7
ROMANS
100
AcDbText
  0
TEXT
  5
4785
330
18
100
AcDbEntity
  8
TXT-D
  6
VERDECKTX2
 62
     7
 48
5.0
100
AcDbText
 10
786.1823214275784
 20
195.9553607318541
 30
0.0
 40
14.0
  1
vnitřní uzavírací
  7
ROMANS
100
AcDbText
  0
TEXT
  5
4786
330
18
100
AcDbEntity
  8
TXT-D
  6
VERDECKTX2
 62
     7
 48
5.0
100
AcDbText
 10
786.1823214275784
 20
173.575635072276
 30
0.0
 40
14.0
  1
oplechování
  7
ROMANS
100
AcDbText
  0
LINE
  5
4787
330
18
100
AcDbEntity
  8
TXT-D
 62
     1
100
AcDbLine
 10
651.8879014672457
 20
448.0117621556837
 30
0.0
 11
744.0535280687145
 21
324.0624877637583
 31
0.0
  0
LINE
  5
4788
330
18
100
AcDbEntity
  8
TXT-D
 62
     1
100
AcDbLine
 10
744.0535280687145
 20
324.0624877637583
 30
0.0
 11
744.0535280687145
 21
203.5562458122995
 31
0.0
  0
LINE
  5
4789
330
18
100
AcDbEntity
  8
TXT-D
 62
     1
100
AcDbLine
 10
744.0535280687145
 20
203.5562458122995
 30
0.0
 11
779.7408709622268
 21
203.5562458122995
 31
0.0
  0
LINE
  5
478A
330
18
100
AcDbEntity
  8
TXT-D
 62
     1
100
AcDbLine
 10
700.9854826210721
 20
156.2145068459012
 30
0.0
 11
700.9854826210721
 21
101.9866970799512
 31
0.0
  0
LINE
  5
478B
330
18
100
AcDbEntity
  8
TXT-D
 62
     1
100
AcDbLine
 10
700.9854826210721
 20
101.9866970799512
 30
0.0
 11
775.4735301972141
 21
101.9866970799512
 31
0.0
  0
LWPOLYLINE
  5
478E
330
18
100
AcDbEntity
  8
V35
100
AcDbPolyline
 90
        2
 70
     1
 43
2.9
 10
781.9221421148329
 20
489.2545631624289
 42
1.0
 10
785.0221421148328
 20
489.2545631624289
 42
1.0
  0
LWPOLYLINE
  5
478F
330
18
100
AcDbEntity
  8
V35
100
AcDbPolyline
 90
        2
 70
     1
 43
2.9
 10
737.7534585968796
 20
691.405523533856
 42
1.0
 10
740.8534585968795
 20
691.405523533856
 42
1.0
  0
LINE
  5
4791
330
18
100
AcDbEntity
  8
V35
 62
     1
 48
15.0
100
AcDbLine
 10
738.428879187797
 20
690.880283079392
 30
0.0
 11
711.7539727090083
 21
726.9022639216673
 31
0.0
  0
LINE
  5
47B6
330
18
100
AcDbEntity
  8
V35
  6
STRICHPUNKT
 48
2.0
100
AcDbLine
 10
475.2499044550404
 20
610.2118738514918
 30
0.0
 11
475.2499044550404
 21
463.8919545091816
 31
0.0
  0
VIEWPORT
  5
2CEF
330
2CEE
100
AcDbEntity
 67
     1
  8
0
100
AcDbViewport
 10
387.7526533778699
 20
108.5684917271777
 30
0.0
 40
951.954914051187
 41
369.7554608245151
 68
     1
 69
     1
 12
387.7526533778699
 22
108.5684917271777
 13
0.0
 23
0.0
 14
10.0
 24
10.0
 15
10.0
 25
10.0
 16
0.0
 26
0.0
 36
1.0
 17
0.0
 27
0.0
 37
0.0
 42
50.0
 43
0.0
 44
0.0
 45
369.7554608245151
 50
0.0
 51
0.0
 72
   100
 90
    32800
  1

281
     0
 71
     1
 74
     0
110
0.0
120
0.0
130
0.0
111
1.0
121
0.0
131
0.0
112
0.0
122
1.0
132
0.0
 79
     0
146
0.0
170
     0
  0
LINE
  5
2CF0
330
2CEE
100
AcDbEntity
 67
     1
  8
V5
 62
     1
100
AcDbLine
 10
7.378457057812568
 20
270.0663649349316
 30
0.0
 11
196.0315659403611
 21
270.0663649349316
 31
0.0
  0
LINE
  5
2CF1
330
2CEE
100
AcDbEntity
 67
     1
  8
V5
 62
     1
100
AcDbLine
 10
7.378457057812568
 20
20.03769334085069
 30
0.0
 11
196.031565940361
 21
20.03769334085069
 31
0.0
  0
TEXT
  5
2CF3
330
2CEE
100
AcDbEntity
 67
     1
  8
0
 62
     7
100
AcDbText
 10
7.378457057812568
 20
273.0276699878348
 30
0.0
 40
2.585627078393893
  1
Štít
  7
Stil1
100
AcDbText
  0
TEXT
  5
2CF4
330
2CEE
100
AcDbEntity
 67
     1
  8
0
 62
     7
100
AcDbText
 10
7.378457057812568
 20
277.6427615215756
 30
0.0
 40
2.456345724474199
  1
Detail - Vaznicová střecha
  7
Stil1
100
AcDbText
  0
LWPOLYLINE
  5
2CF5
102
{ACAD_REACTORS
330
2CF6
102
}
330
2CEE
100
AcDbEntity
 67
     1
  8
0
 62
     1
100
AcDbPolyline
 90
        7
 70
     1
 43
0.0
 10
171.1422090408042
 20
12.63776080342012
 10
170.2050257024468
 20
12.63776080342012
 10
170.2050257024468
 20
6.734358271736043
 42
0.3265321329225733
 10
171.3488330778545
 20
5.70730316541911
 10
172.0238877247735
 20
5.707308068730622
 10
172.0238877247735
 20
6.444913155378106
 42
-0.4142135623730951
 10
171.1422090408042
 20
7.326591839347472
  0
HATCH
  5
2CF6
330
2CEE
100
AcDbEntity
 67
     1
  8
0
 62
     1
100
AcDbHatch
 10
0.0
 20
0.0
 30
0.0
210
0.0
220
0.0
230
1.0
  2
SOLID
 70
     1
 71
     1
 91
        5
 92
        7
 72
     1
 73
     1
 93
       12
 10
171.8796336498064
 20
2.642657989685744
 42
0.0
 10
171.8796336498064
 20
3.097657989685743
 42
0.0
 10
157.5146336498063
 20
3.097657989685743
 42
-0.4142135623730816
 10
156.9946336498063
 20
3.617657989685748
 42
0.0
 10
156.9946336498063
 20
14.05618615838461
 42
-0.2659775848638894
 10
157.2513254801551
 20
14.50459312509557
 42
-0.2516648824931138
 10
171.7804130818904
 20
15.05508074642154
 42
0.0
 10
171.9804581211609
 20
15.46374562411875
 42
0.2516648824931142
 10
157.0209308317102
 20
14.89694922096762
 42
0.2659775848638745
 10
156.5396336498063
 20
14.0561861583846
 42
0.0
 10
156.5396336498064
 20
3.617657989685739
 42
0.4142135623731021
 10
157.5146336498064
 20
2.642657989685744
 42
0.0
 97
        1
330
2CF7
 92
       23
 72
     0
 73
     1
 93
       12
 10
160.709003277192
 20
12.41897150711669
 10
159.6804467456753
 20
12.41897150711669
 10
159.6804467456753
 20
5.707406646944892
 10
160.7090032771921
 20
5.707406646944893
 10
160.709003277192
 20
7.607080171612842
 10
161.5130431441546
 20
8.678332632823781
 10
163.4601919451483
 20
5.707406646944897
 10
164.5976752693911
 20
5.707406646944889
 10
162.1455188436231
 20
9.521003721101157
 10
164.3206192214516
 20
12.41897150711669
 10
163.1711954901292
 20
12.41897150711669
 10
160.709003277192
 20
8.991742055666072
 97
        1
330
2CF8
 92
       23
 72
     1
 73
     1
 93
       18
 10
165.1445005508302
 20
10.23961706042952
 42
0.0
 10
165.5281195918805
 20
9.541100142545243
 42
-0.125089082906134
 10
166.8508947376822
 20
9.896315450135563
 42
-0.2678367822511334
 10
167.6514983513533
 20
9.489295003113456
 42
-0.1602289575784415
 10
167.7751725929877
 20
8.957038322130811
 42
-0.4569276421982519
 10
167.6737361473992
 20
8.87707596321626
 42
0.0541248642832566
 10
166.8545842281447
 20
8.87465310032838
 42
0.1876748474912706
 10
165.2217741497835
 20
8.053594607004125
 42
0.1827818212654542
 10
164.9299426038108
 20
6.861926575029807
 42
0.3920539506815877
 10
166.0924338422075
 20
5.710316639618223
 42
0.0
 10
166.8156929190153
 20
5.710316639618223
 42
0.1547524270167677
 10
167.769549789679
 20
6.015676490084731
 42
-0.4453775332544872
 10
168.0864651616882
 20
6.01770787569677
 42
0.2086188919813744
 10
169.1484662592782
 20
5.700801680734331
 42
0.6162695522450458
 10
169.236042116871
 20
5.988683940491176
 42
-0.2171983840452063
 10
168.78703703196
 20
7.007375237320971
 42
0.0
 10
168.78703703196
 20
9.072944898722395
 42
0.2771818233459465
 10
167.7954665706382
 20
10.60509243797142
 42
0.2393084470231861
 97
        1
330
2CFA
 92
       22
 72
     1
 73
     1
 93
        8
 10
166.878374397114
 20
8.181566853410675
 42
0.0
 10
167.6403751356195
 20
8.181566853410675
 42
-0.4387538430829223
 10
167.8564356003741
 20
7.951713556446768
 42
0.0
 10
167.8564356003743
 20
7.203942434941795
 42
-0.2315738025864622
 10
167.598567576182
 20
6.646133798496991
 42
-0.2231591289144174
 10
166.4019447442666
 20
6.32785133319538
 42
-0.245125819360461
 10
165.8679663364297
 20
6.72949961092434
 42
-0.1420187448230589
 10
165.8819046685782
 20
7.550617961830791
 42
-0.2899718709828802
 97
        1
330
2CF9
 92
        7
 72
     1
 73
     1
 93
        7
 10
171.1422090408042
 20
12.63776080342012
 42
0.0
 10
170.2050257024468
 20
12.63776080342012
 42
0.0
 10
170.2050257024468
 20
6.734358271736073
 42
0.3265321329225785
 10
171.3488330778545
 20
5.70730316541911
 42
0.0
 10
172.0238877247735
 20
5.707308068730623
 42
0.0
 10
172.0238877247735
 20
6.444913155378106
 42
-0.4142135623730958
 10
171.1422090408042
 20
7.326591839347473
 42
0.0
 97
        1
330
2CF5
 75
     0
 76
     1
 47
0.2105755737740495
 98
        5
 10
169.2860972871858
 20
16.30532310860333
 10
160.2456532181561
 20
11.21360576732915
 10
166.8205216882655
 20
10.33761137006547
 10
166.8205216882655
 20
10.33761137006547
 10
170.7928380169379
 20
8.339249177091296
450
        0
451
        0
460
0.0
461
0.0
452
        0
462
0.0
453
        0
470

  0
LWPOLYLINE
  5
2CF7
102
{ACAD_REACTORS
330
2CF6
102
}
330
2CEE
100
AcDbEntity
 67
     1
  8
0
 62
     1
100
AcDbPolyline
 90
       12
 70
     1
 43
0.0
 10
157.5146336498064
 20
2.642657989685744
 42
-0.4142135623730951
 10
156.5396336498064
 20
3.617657989685744
 10
156.5396336498063
 20
14.05618615838464
 42
-0.2659775848638765
 10
157.0209308317103
 20
14.89694922096765
 42
-0.2516648824931137
 10
171.9804581211609
 20
15.46374562411874
 10
171.7804130818904
 20
15.05508074642154
 42
0.2516648824931138
 10
157.2513254801551
 20
14.50459312509557
 42
0.2659775848638775
 10
156.9946336498063
 20
14.05618615838464
 10
156.9946336498063
 20
3.617657989685744
 42
0.4142135623730951
 10
157.5146336498064
 20
3.097657989685743
 10
171.8796336498064
 20
3.097657989685743
 10
171.8796336498064
 20
2.642657989685744
  0
LWPOLYLINE
  5
2CF8
102
{ACAD_REACTORS
330
2CF6
102
}
330
2CEE
100
AcDbEntity
 67
     1
  8
0
 62
     1
100
AcDbPolyline
 90
       13
 70
     0
 43
0.0
 10
160.709003277192
 20
8.991742055666069
 10
160.709003277192
 20
12.41897150711669
 10
159.6804467456753
 20
12.41897150711669
 10
159.6804467456753
 20
5.707406646944892
 10
160.709003277192
 20
5.707406646944892
 10
160.709003277192
 20
7.6070801716128
 10
161.5130431441546
 20
8.678332632823778
 10
163.4601919451483
 20
5.707406646944896
 10
164.5976752693911
 20
5.707406646944889
 10
162.1455188436231
 20
9.521003721101163
 10
164.3206192214516
 20
12.41897150711669
 10
163.1711954901292
 20
12.41897150711668
 10
160.6977260448776
 20
8.976044799165943
  0
LWPOLYLINE
  5
2CF9
102
{ACAD_REACTORS
330
2CF6
102
}
330
2CEE
100
AcDbEntity
 67
     1
  8
0
 62
     1
100
AcDbPolyline
 90
        8
 70
     1
 43
0.0
 10
166.401944744267
 20
6.327851333195315
 42
-0.2451258193606399
 10
165.8679663364297
 20
6.729499610924428
 42
-0.1420187448230164
 10
165.8819046685781
 20
7.550617961830644
 42
-0.2899718709829171
 10
166.878374397114
 20
8.181566853410675
 10
167.6449213242718
 20
8.181566853410675
 42
-0.3900918559591556
 10
167.8564356003741
 20
7.982744937864822
 10
167.8564356003743
 20
7.173048935136726
 42
-0.2034436104283782
 10
167.6319582523418
 20
6.675082406628096
 42
-0.2311376311759479
  0
LWPOLYLINE
  5
2CFA
102
{ACAD_REACTORS
330
2CF6
102
}
330
2CEE
100
AcDbEntity
 67
     1
  8
0
 62
     1
100
AcDbPolyline
 90
       18
 70
     1
 43
0.0
 10
167.7751725929877
 20
8.957038322131019
 42
0.1602289575782981
 10
167.6514983513534
 20
9.48929500311322
 42
0.2678367822512051
 10
166.8508947376822
 20
9.896315450135563
 42
0.1250890829061368
 10
165.5281195918805
 20
9.541100142545236
 10
165.1445005508302
 20
10.23961706042952
 42
-0.2393084470231862
 10
167.7954665706382
 20
10.60509243797143
 42
-0.2771818233458632
 10
168.78703703196
 20
9.072944898722962
 10
168.78703703196
 20
6.97355132321682
 42
0.2106080285028759
 10
169.2360421168713
 20
5.988683940490972
 42
-0.655875337136226
 10
169.1296033642075
 20
5.698632480071225
 42
-0.2140955845208337
 10
168.0503005494262
 20
6.049341431860447
 42
0.3793030021024653
 10
167.769549789679
 20
6.015676490084718
 42
-0.1547524270167758
 10
166.8156929190153
 20
5.710316639618223
 10
166.0924338422075
 20
5.710316639618223
 42
-0.3920539506815679
 10
164.9299426038108
 20
6.86192657502975
 42
-0.1827818212654531
 10
165.2217741497834
 20
8.053594607004075
 42
-0.1876748474912757
 10
166.8545842281447
 20
8.874653100328377
 42
-0.0541248642832585
 10
167.6737361473992
 20
8.87707596321626
 42
0.4569276421989473
  0
HATCH
  5
2CFB
330
2CEE
100
AcDbEntity
 67
     1
  8
0
 62
     1
100
AcDbHatch
 10
0.0
 20
0.0
 30
0.0
210
0.0
220
0.0
230
1.0
  2
SOLID
 70
     1
 71
     1
 91
        9
 92
       23
 72
     1
 73
     1
 93
       12
 10
172.5653492253768
 20
10.77490737173337
 42
0.0
 10
172.5653492253769
 20
9.815300931198191
 42
0.0
 10
175.0872837779416
 20
9.815300931198191
 42
-0.7299518516212804
 10
175.1617893235822
 20
9.676068307280827
 42
0.0
 10
172.4914556324585
 20
6.020268981102183
 42
0.50718022741599
 10
172.644211845655
 20
5.707312574502982
 42
0.0
 10
176.8000291350547
 20
5.707342760602259
 42
0.0
 10
176.8000291350547
 20
6.670566757922292
 42
0.0
 10
174.218227789512
 20
6.670566757922292
 42
-0.6989832493953289
 10
174.1827769958388
 20
6.747219420546859
 42
0.0
 10
176.7537482928729
 20
10.30088496212113
 42
0.0
 10
176.753748292873
 20
10.77490737173337
 42
0.0
 97
        1
330
2CFD
 92
       23
 72
     0
 73
     1
 93
        6
 10
178.9666074401292
 20
10.76669905952824
 10
177.2426526430076
 20
10.76669905952825
 10
177.2426526430076
 20
9.838115706771706
 10
177.8903677725763
 20
9.838115706771713
 10
177.8903677725763
 20
5.707350680361073
 10
178.9666074401292
 20
5.707358497710934
 97
        1
330
2CFE
 92
       23
 72
     1
 73
     1
 93
       11
 10
180.1922008356549
 20
3.799755387185153
 42
0.0
 10
181.349217316878
 20
3.799755387185154
 42
0.0
 10
181.3492173168779
 20
5.717742550126925
 42
-0.5640200146066899
 10
181.4641258853013
 20
5.804282531762956
 42
0.1631429899295819
 10
183.1864652238147
 20
5.705950674351199
 42
0.2143211476369445
 10
184.5317686669931
 20
7.118160369269403
 42
0.1454787830754844
 10
184.5671690122602
 20
9.452852759694209
 42
0.2090289610022575
 10
183.4179929142678
 20
10.71591071200417
 42
0.2509780114725508
 10
181.3269206730922
 20
10.56621036557223
 42
0.0
 10
181.3269206730922
 20
10.77826047763267
 42
0.0
 10
180.1922008356549
 20
10.77826047763267
 42
0.0
 97
        1
330
2D01
 92
       22
 72
     1
 73
     1
 93
        7
 10
181.3269206730922
 20
9.649303832430231
 42
-0.2989352106795097
 10
183.0383857367719
 20
9.813694992411338
 42
-0.1898212309736138
 10
183.6122246189639
 20
8.933127238281548
 42
-0.0659282931228529
 10
183.6127328290073
 20
7.566155516116743
 42
-0.1241286129051029
 10
183.2657642838722
 20
6.9662939946905
 42
-0.0600684322457551
 10
182.8753349192135
 20
6.666462805026003
 42
-0.2741033349168765
 10
181.3269206730922
 20
6.737411717605815
 42
0.0
 97
        1
330
2D00
 92
        7
 72
     1
 73
     1
 93
       14
 10
184.0996336498053
 20
13.30265798968572
 42
-0.0829624126767283
 10
172.6060630259369
 20
15.15561449868119
 42
0.0
 10
172.4606106007267
 20
14.72448970004339
 42
0.0829624126767251
 10
184.1022290769075
 20
12.84766539220951
 42
0.0
 10
186.7646336498064
 20
12.84766539220951
 42
-0.414213562373081
 10
187.2846336498064
 20
12.32766539220951
 42
0.0
 10
187.2846336498064
 20
3.617657989685748
 42
-0.4142135623730816
 10
186.7646336498064
 20
3.097657989685743
 42
0.0
 10
172.5296336498063
 20
3.097657989685743
 42
0.0
 10
172.5296336498063
 20
2.642657989685744
 42
0.0
 10
186.7646336498063
 20
2.642657989685744
 42
0.4142135623730996
 10
187.7396336498064
 20
3.617657989685759
 42
0.0
 10
187.7396336498063
 20
12.32766539220952
 42
0.4130726898721487
 10
186.7684329742931
 20
13.30265798968574
 42
0.0
 97
        1
330
2CFC
 92
        7
 72
     1
 73
     1
 93
        2
 10
189.230709588015
 20
14.48202895398631
 42
1.0
 10
187.5667493853671
 20
14.48202895398631
 42
1.0
 97
        1
330
2D02
 92
       22
 72
     1
 73
     1
 93
        2
 10
189.0917517292717
 20
14.48202895398631
 42
1.0
 10
187.7057072441104
 20
14.48202895398631
 42
1.0
 97
        1
330
2D03
 92
        6
 72
     1
 73
     1
 93
       17
 10
188.0891795167577
 20
14.04344269414814
 42
0.0
 10
188.0891795167577
 20
14.87685082043882
 42
-0.430292598095628
 10
188.1602238038721
 20
14.95062377538656
 42
0.0
 10
188.4261557316127
 20
14.95062377538655
 42
-0.1568897140508004
 10
188.7006785950414
 20
14.8834518751411
 42
-0.315341775502797
 10
188.7752715668388
 20
14.73776382093931
 42
0.0
 10
188.7752715668388
 20
14.6714272046255
 42
-0.214053362091937
 10
188.7212103793381
 20
14.42411548719076
 42
-0.1964805591713776
 10
188.7752715668388
 20
14.11867514764511
 42
0.0
 10
188.7752715668388
 20
14.043442694148
 42
0.0
 10
188.5773064487483
 20
14.04344269414801
 42
0.1689517444768469
 10
188.6343570292176
 20
14.13848483333379
 42
0.0
 10
188.6343570292176
 20
14.20746020516914
 42
0.3344300509710908
 10
188.4816798184333
 20
14.34121969975355
 42
0.0
 10
188.3510013364867
 20
14.34121969975355
 42
0.33200365023858
 10
188.2485746924039
 20
14.2209106453635
 42
0.0
 10
188.2485746924039
 20
14.04344269414801
 42
0.0
 97
        1
330
2D06
 92
        6
 72
     1
 73
     1
 93
        2
 10
188.5931590162751
 20
14.66258826751255
 42
0.0283389187032986
 10
188.5931590162751
 20
14.67490823679968
 42
0.0
 97
        1
330
2D04
 75
     0
 76
     1
 47
0.2105755736759934
 98
        9
 10
175.6453618172754
 20
10.2800670495476
 10
178.4944714567078
 20
9.705195731500037
 10
180.7682801127427
 20
9.842069878418275
 10
180.7682801127427
 20
9.842069878418275
 10
187.4253344155173
 20
12.79855093480507
 10
188.0554259540249
 20
13.78404458359732
 10
188.0554259540249
 20
13.78404458359732
 10
188.0554259540249
 20
13.78404458359732
 10
188.0554259540249
 20
13.78404458359732
450
        0
451
        0
460
0.0
461
0.0
452
        0
462
0.0
453
        0
470

  0
LWPOLYLINE
  5
2CFC
102
{ACAD_REACTORS
330
2CFB
102
}
330
2CEE
100
AcDbEntity
 67
     1
  8
0
 62
     1
100
AcDbPolyline
 90
       15
 70
     0
 43
0.0
 10
186.7646336498063
 20
13.30266539220951
 42
-0.4142135623730951
 10
187.7396336498063
 20
12.32766539220951
 10
187.7396336498064
 20
3.617657989685744
 42
-0.4142135623730951
 10
186.7646336498063
 20
2.642657989685744
 10
172.5296336498063
 20
2.642657989685744
 10
172.5296336498063
 20
3.097657989685743
 10
186.7646336498063
 20
3.097657989685743
 42
0.4142135623730951
 10
187.2846336498064
 20
3.617657989685744
 10
187.2846336498064
 20
12.32766539220951
 42
0.4142135623730951
 10
186.7646336498063
 20
12.84766539220951
 10
184.1022290769089
 20
12.84766539220951
 42
-0.0829624126767354
 10
172.4606106007267
 20
14.72448970004339
 10
172.6060630259369
 20
15.15561449868119
 42
0.0829624126767356
 10
184.0996336498063
 20
13.30265798968572
 10
186.768432974293
 20
13.30265798968574
  0
LWPOLYLINE
  5
2CFD
102
{ACAD_REACTORS
330
2CFB
102
}
330
2CEE
100
AcDbEntity
 67
     1
  8
0
 62
     1
100
AcDbPolyline
 90
       13
 70
     0
 43
0.0
 10
174.2108190769815
 20
6.670566757922292
 10
176.8000291350547
 20
6.670566757922292
 10
176.8000291350547
 20
5.707342760602259
 10
172.644211845655
 20
5.707312574502982
 42
-0.5071802274160878
 10
172.4914556324586
 20
6.020268981102255
 10
175.1753283020242
 20
9.694603739174606
 42
0.5083225216873333
 10
175.1172347781356
 20
9.815300931198191
 10
172.5653492253769
 20
9.815300931198191
 10
172.5653492253769
 20
10.77490737173337
 10
176.753748292873
 20
10.77490737173337
 10
176.753748292873
 20
10.30088496212111
 10
174.1743482512912
 20
6.735568983573102
 42
0.5855768765223777
 10
174.218227789512
 20
6.670566757922292
  0
LWPOLYLINE
  5
2CFE
102
{ACAD_REACTORS
330
2CFB
102
}
330
2CEE
100
AcDbEntity
 67
     1
  8
0
 62
     1
100
AcDbPolyline
 90
        6
 70
     1
 43
0.0
 10
177.2426526430076
 20
9.838115706771706
 10
177.2426526430076
 20
10.76669905952824
 10
178.9666074401292
 20
10.76669905952824
 10
178.9666074401292
 20
5.707358497710934
 10
177.8903677725763
 20
5.707350680361074
 10
177.8903677725763
 20
9.838115706771713
  0
LWPOLYLINE
  5
2CFF
330
2CEE
100
AcDbEntity
 67
     1
  8
0
 62
     1
100
AcDbPolyline
 90
        2
 70
     1
 43
0.5199938194713205
 10
178.1684970925114
 20
12.09962512678654
 42
1.0
 10
178.6884909119828
 20
12.09962512678654
 42
1.0
  0
LWPOLYLINE
  5
2D00
102
{ACAD_REACTORS
330
2CFB
102
}
330
2CEE
100
AcDbEntity
 67
     1
  8
0
 62
     1
100
AcDbPolyline
 90
        7
 70
     1
 43
0.0
 10
183.6122246189638
 20
8.933127238281983
 42
0.1898212309735227
 10
183.038385736772
 20
9.813694992411306
 42
0.2989352106795207
 10
181.3269206730922
 20
9.649303832430234
 10
181.3269206730922
 20
6.737411717605818
 42
0.2741033349168594
 10
182.8753349192135
 20
6.666462805025961
 42
0.0600684322456349
 10
183.2657642838714
 20
6.96629399468974
 42
0.1241286129052769
 10
183.6127328290073
 20
7.566155516116644
 42
0.0659282931228788
  0
LWPOLYLINE
  5
2D01
102
{ACAD_REACTORS
330
2CFB
102
}
330
2CEE
100
AcDbEntity
 67
     1
  8
0
 62
     1
100
AcDbPolyline
 90
       12
 70
     1
 43
0.0
 10
181.3269206730922
 20
10.64075346765235
 10
181.3269206730922
 20
10.77826047763267
 10
180.1922008356549
 20
10.77826047763267
 10
180.1922008356549
 20
3.799755387185154
 10
181.3492173168779
 20
3.799755387185154
 10
181.3492173168779
 20
5.734822214632103
 42
-0.4980732597277929
 10
181.4639555954105
 20
5.80435064655672
 42
0.1631603344019285
 10
183.1864652238147
 20
5.70595067435121
 42
0.2143211476370474
 10
184.5317686669934
 20
7.118160369270324
 42
0.1454787830754339
 10
184.5671690122602
 20
9.452852759694359
 42
0.209028960994081
 10
183.4179929143287
 20
10.71591071197696
 42
0.2333951007146881
 10
181.4541309634565
 20
10.64075346765236
  0
CIRCLE
  5
2D02
102
{ACAD_REACTORS
330
2CFB
102
}
330
2CEE
100
AcDbEntity
 67
     1
  8
0
 62
     1
100
AcDbCircle
 10
188.398729486691
 20
14.48202895398631
 30
0.0
 40
0.8319801013239141
  0
CIRCLE
  5
2D03
102
{ACAD_REACTORS
330
2CFB
102
}
330
2CEE
100
AcDbEntity
 67
     1
  8
0
 62
     1
100
AcDbCircle
 10
188.398729486691
 20
14.48202895398631
 30
0.0
 40
0.6930222425806165
  0
LWPOLYLINE
  5
2D04
102
{ACAD_REACTORS
330
2CFB
102
}
330
2CEE
100
AcDbEntity
 67
     1
  8
0
 62
     1
100
AcDbPolyline
 90
       10
 70
     1
 43
0.0
 10
188.5749871489375
 20
14.72920109052687
 42
0.2024912017590097
 10
188.4928765106515
 20
14.78863575978702
 10
188.3412479398487
 20
14.78863575978702
 42
0.3605152320615398
 10
188.2730582352929
 20
14.72412753393324
 10
188.2730582352929
 20
14.5952765909802
 42
0.3656960469701174
 10
188.3460633056111
 20
14.51927846821619
 10
188.4969397317304
 20
14.51927846821619
 42
0.143350963341212
 10
188.5775063805282
 20
14.54442567510559
 42
0.2365834905846161
 10
188.5931590162751
 20
14.57619629999332
 10
188.5931590162751
 20
14.67490823679983
 42
0.133951748517549
  0
HATCH
  5
2D05
330
2CEE
100
AcDbEntity
 67
     1
  8
0
 62
     1
100
AcDbHatch
 10
0.0
 20
0.0
 30
0.0
210
0.0
220
0.0
230
1.0
  2
SOLID
 70
     1
 71
     0
 91
        2
 92
        7
 72
     1
 73
     1
 93
       16
 10
188.6343570292176
 20
14.20746020516914
 42
0.0
 10
188.6343570292176
 20
14.04344269414801
 42
0.0
 10
188.7752715668388
 20
14.043442694148
 42
0.0
 10
188.7752715668388
 20
14.29185258888377
 42
0.0878146924641936
 10
188.7212103793381
 20
14.42411548719076
 42
0.1080222927165532
 10
188.7752715668388
 20
14.54460919492257
 42
0.0
 10
188.7752715668388
 20
14.77693979931692
 42
0.192215680109946
 10
188.7229380317306
 20
14.86886648353821
 42
0.171699417140815
 10
188.4261557316127
 20
14.95062377538655
 42
0.0
 10
188.1590317123538
 20
14.95062377538656
 42
0.3983152836439984
 10
188.0891795167577
 20
14.88335522903354
 42
0.0
 10
188.0891795167577
 20
14.043442694148
 42
0.0
 10
188.2485746924039
 20
14.043442694148
 42
0.0
 10
188.2485746924039
 20
14.20396741150131
 42
-0.3680258038893664
 10
188.3510013364867
 20
14.34121969975355
 42
0.0
 10
188.4567423536045
 20
14.34121969975355
 42
-0.3760883100637826
 97
        0
 92
       22
 72
     1
 73
     1
 93
       10
 10
188.4915967925483
 20
14.51927846821619
 42
0.0
 10
188.3630709943212
 20
14.51927846821619
 42
-0.4644547038390189
 10
188.2730582352929
 20
14.60574623298982
 42
0.0
 10
188.2730582352929
 20
14.70635490265327
 42
-0.4700313181861818
 10
188.3508968496409
 20
14.78863575978702
 42
0.0
 10
188.4928765106515
 20
14.78863575978702
 42
-0.2024912017596684
 10
188.5749871489377
 20
14.72920109052658
 42
-0.1629090778538176
 10
188.5931590162751
 20
14.66258826751202
 42
0.0
 10
188.5931590162751
 20
14.57619629999126
 42
-0.2807969913979313
 10
188.5719823350275
 20
14.54091967679401
 42
-0.1413133624004751
 97
        0
 75
     0
 76
     1
 47
0.025620434889365
 98
        2
 10
188.5750173726398
 20
14.44298061465923
 10
188.5750173726398
 20
14.44298061465923
450
        0
451
        0
460
0.0
461
0.0
452
        0
462
0.0
453
        0
470

  0
LWPOLYLINE
  5
2D06
102
{ACAD_REACTORS
330
2CFB
102
}
330
2CEE
100
AcDbEntity
 67
     1
  8
0
 62
     1
100
AcDbPolyline
 90
       17
 70
     0
 43
0.0
 10
188.0891795167577
 20
14.88335522903302
 10
188.0891795167577
 20
14.043442694148
 10
188.2485746924039
 20
14.04344269414801
 10
188.2485746924039
 20
14.22091064536369
 42
-0.3320036502381971
 10
188.3510013364867
 20
14.34121969975355
 10
188.4816798184333
 20
14.34121969975355
 42
-0.3344300509710546
 10
188.6343570292176
 20
14.20746020516917
 10
188.6343570292176
 20
14.04344269414801
 10
188.7752715668388
 20
14.043442694148
 10
188.7752715668388
 20
14.29185258888386
 42
0.0878146924641325
 10
188.7212103793381
 20
14.42411548719077
 42
0.1080222927165679
 10
188.7752715668388
 20
14.54460919492261
 10
188.7752715668388
 20
14.77693979931685
 42
0.2411188226969047
 10
188.7006785950415
 20
14.88345187514104
 42
0.1568897140508559
 10
188.4261557316127
 20
14.95062377538655
 10
188.1590317123538
 20
14.95062377538656
 42
0.4252932903388871
 10
188.0891795167577
 20
14.87685082043922
  0
TEXT
  5
2D07
330
2CEE
100
AcDbEntity
 67
     1
  8
0
 62
     7
100
AcDbText
 10
109.8439966605646
 20
277.6427615215756
 30
0.0
 40
2.872918975993215
  1
01.02.04
  7
Stil1
100
AcDbText
  0
TEXT
  5
2D08
330
2CEE
100
AcDbEntity
 67
     1
  8
0
 62
     7
100
AcDbText
 10
109.8439966605646
 20
273.0276699878348
 30
0.0
 40
2.872918975993215
  1
M 1:5
  7
Stil1
100
AcDbText
  0
TEXT
  5
2D09
330
2CEE
100
AcDbEntity
 67
     1
  8
0
 62
     7
100
AcDbText
 10
179.0798811531471
 20
277.6427615215756
 30
0.0
 40
2.872918975993215
  1
střecha
  7
Stil1
100
AcDbText
  0
TEXT
  5
2D0A
330
2CEE
100
AcDbEntity
 67
     1
  8
0
 62
     7
100
AcDbText
 10
185.5805356958195
 20
273.0276699878348
 30
0.0
 40
2.872918975993215
  1
161
  7
Stil1
100
AcDbText
  0
VIEWPORT
  5
2D0B
330
2CEE
100
AcDbEntity
 67
     1
  8
Mansfen
100
AcDbViewport
 10
101.7050114990868
 20
144.0520291378911
 30
0.0
 40
188.6531088825485
 41
248.0286715940809
 68
     2
 69
     2
 12
518.4361148084904
 22
581.6544465543429
 13
0.0
 23
0.0
 14
10.0
 24
10.0
 15
10.0
 25
10.0
 16
0.0
 26
0.0
 36
1.0
 17
0.0
 27
0.0
 37
0.0
 42
50.0
 43
0.0
 44
0.0
 45
1240.143356638359
 50
0.0
 51
0.0
 72
 20000
 90
    32768
  1

281
     0
 71
     1
 74
     0
110
0.0
120
0.0
130
0.0
111
1.0
121
0.0
131
0.0
112
0.0
122
1.0
132
0.0
 79
     0
146
0.0
170
     0
  0
MTEXT
  5
48CC
102
{ACAD_XDICTIONARY
360
4998
102
}
330
2CEE
100
AcDbEntity
 67
     1
  8
TXT-D
100
AcDbMText
 10
6.704042140170979
 20
17.1838046695787
 30
0.0
 40
2.8
 41
106.1716
 71
     1
 72
     5
  1
{\C7;* Poplastovan\U+00E9 klipsy nejsou vyr\U+00E1b\U+011Bny ve v\U+0161ech rozm\U+011Brech}
  7
ROMANS
 73
     1
 44
1.0
  0
ENDSEC
  0
SECTION
  2
OBJECTS
  0
DICTIONARY
  5
C
330
0
100
AcDbDictionary
281
     1
  3
ACAD_CIP_PREVIOUS_PRODUCT_INFO
350
4877
  3
ACAD_COLOR
350
4858
  3
ACAD_DETAILVIEWSTYLE
350
4871
  3
ACAD_GROUP
350
D
  3
ACAD_IMAGE_DICT
350
6C4
  3
ACAD_IMAGE_VARS
350
6C5
  3
ACAD_LAYOUT
350
5E9
  3
ACAD_MATERIAL
350
4826
  3
ACAD_MLEADERSTYLE
350
486D
  3
ACAD_MLINESTYLE
350
1B
  3
ACAD_PLOTSETTINGS
350
5EA
  3
ACAD_PLOTSTYLENAME
350
5E7
  3
ACAD_SCALELIST
350
485B
  3
ACAD_SECTIONVIEWSTYLE
350
486F
  3
ACAD_TABLESTYLE
350
4859
  3
ACAD_VISUALSTYLE
350
483F
  3
ACDB_RECOMPOSE_DATA
350
4958
  3
AcDbVariableDictionary
350
7F0
  3
AcDsDecomposeData
350
495E
  0
DICTIONARY
  5
489F
330
2
100
AcDbDictionary
280
     1
281
     1
  3
ACAD_LAYERSTATES
360
48A0
  0
DICTIONARY
  5
4878
330
E
100
AcDbDictionary
280
     1
281
     1
  3
ADSK_XREC_LAYER_RECONCILED
360
4879
  0
DICTIONARY
  5
487A
330
B7
100
AcDbDictionary
280
     1
281
     1
  3
ADSK_XREC_LAYER_RECONCILED
360
487B
  0
DICTIONARY
  5
487C
330
8F4
100
AcDbDictionary
280
     1
281
     1
  3
ADSK_XREC_LAYER_RECONCILED
360
487D
  0
DICTIONARY
  5
487E
330
11FF
100
AcDbDictionary
280
     1
281
     1
  3
ADSK_XREC_LAYER_RECONCILED
360
487F
  0
DICTIONARY
  5
4880
330
1200
100
AcDbDictionary
280
     1
281
     1
  3
ADSK_XREC_LAYER_RECONCILED
360
4881
  0
DICTIONARY
  5
4882
330
1201
100
AcDbDictionary
280
     1
281
     1
  3
ADSK_XREC_LAYER_RECONCILED
360
4883
  0
DICTIONARY
  5
4884
330
1202
100
AcDbDictionary
280
     1
281
     1
  3
ADSK_XREC_LAYER_RECONCILED
360
4885
  0
DICTIONARY
  5
4886
330
1207
100
AcDbDictionary
280
     1
281
     1
  3
ADSK_XREC_LAYER_RECONCILED
360
4887
  0
DICTIONARY
  5
4888
330
27E3
100
AcDbDictionary
280
     1
281
     1
  3
ADSK_XREC_LAYER_RECONCILED
360
4889
  0
DICTIONARY
  5
488A
330
27E4
100
AcDbDictionary
280
     1
281
     1
  3
ADSK_XREC_LAYER_RECONCILED
360
488B
  0
DICTIONARY
  5
488C
330
28F8
100
AcDbDictionary
280
     1
281
     1
  3
ADSK_XREC_LAYER_RECONCILED
360
488D
  0
DICTIONARY
  5
488E
330
28F9
100
AcDbDictionary
280
     1
281
     1
  3
ADSK_XREC_LAYER_RECONCILED
360
488F
  0
DICTIONARY
  5
4890
330
2ADA
100
AcDbDictionary
280
     1
281
     1
  3
ADSK_XREC_LAYER_RECONCILED
360
4891
  0
DICTIONARY
  5
81C
330
18
100
AcDbDictionary
280
     1
281
     1
  3
ACAD_LAYOUTSELFREF
360
2461
  0
DICTIONARY
  5
4998
330
48CC
100
AcDbDictionary
280
     1
281
     1
  3
ACAD_MTEXT_2008_RT
360
4999
  0
XRECORD
  5
4877
102
{ACAD_REACTORS
330
C
102
}
330
C
100
AcDbXrecord
280
     1
300
ACD
300
2013
300
ACD_F_S
  0
DICTIONARY
  5
4858
102
{ACAD_REACTORS
330
C
102
}
330
C
100
AcDbDictionary
281
     1
  0
DICTIONARY
  5
4871
102
{ACAD_REACTORS
330
C
102
}
330
C
100
AcDbDictionary
281
     1
  3
Metric50
350
4872
  0
DICTIONARY
  5
D
102
{ACAD_REACTORS
330
C
102
}
330
C
100
AcDbDictionary
281
     1
  0
DICTIONARY
  5
6C4
102
{ACAD_REACTORS
330
C
102
}
330
C
100
AcDbDictionary
281
     1
  3
Kalzip
350
6C6
  0
RASTERVARIABLES
  5
6C5
102
{ACAD_REACTORS
330
C
102
}
330
C
100
AcDbRasterVariables
 90
        0
 70
     1
 71
     1
 72
     0
  0
DICTIONARY
  5
5E9
102
{ACAD_REACTORS
330
C
102
}
330
C
100
AcDbDictionary
281
     1
  3
A4
350
2CED
  3
Model
350
5EB
  0
DICTIONARY
  5
4826
102
{ACAD_REACTORS
330
C
102
}
330
C
100
AcDbDictionary
281
     1
  3
ByBlock
350
482F
  3
ByLayer
350
4827
  3
Global
350
4837
  0
DICTIONARY
  5
486D
102
{ACAD_REACTORS
330
C
102
}
330
C
100
AcDbDictionary
281
     1
  3
Standard
350
486E
  0
DICTIONARY
  5
1B
102
{ACAD_REACTORS
330
C
102
}
330
C
100
AcDbDictionary
281
     1
  3
STANDARD
350
1C
  0
DICTIONARY
  5
5EA
102
{ACAD_REACTORS
330
C
102
}
330
C
100
AcDbDictionary
281
     1
  3
kzform
350
2C80
  0
ACDBDICTIONARYWDFLT
  5
5E7
102
{ACAD_REACTORS
330
C
102
}
330
C
100
AcDbDictionary
281
     1
  3
Normal
350
5E8
100
AcDbDictionaryWithDefault
340
5E8
  0
DICTIONARY
  5
485B
102
{ACAD_REACTORS
330
C
102
}
330
C
100
AcDbDictionary
281
     1
  3
A0
350
485C
  3
A1
350
485D
  3
A2
350
485E
  3
A3
350
485F
  3
A4
350
4860
  3
A5
350
4861
  3
A6
350
4862
  3
A7
350
4863
  3
A8
350
4864
  3
A9
350
4865
  3
B0
350
4866
  3
B1
350
4867
  3
B2
350
4868
  3
B3
350
4869
  3
B4
350
486A
  3
B5
350
486B
  3
B6
350
486C
  0
DICTIONARY
  5
486F
102
{ACAD_REACTORS
330
C
102
}
330
C
100
AcDbDictionary
281
     1
  3
Metric50
350
4870
  0
DICTIONARY
  5
4859
102
{ACAD_REACTORS
330
C
102
}
330
C
100
AcDbDictionary
281
     1
  3
Standard
350
485A
  0
DICTIONARY
  5
483F
102
{ACAD_REACTORS
330
C
102
}
330
C
100
AcDbDictionary
281
     1
  3
2dWireframe
350
4845
  3
Basic
350
4844
  3
Brighten
350
484B
  3
ColorChange
350
484F
  3
Conceptual
350
4848
  3
Dim
350
484A
  3
EdgeColorOff
350
4857
  3
Facepattern
350
484E
  3
Flat
350
4840
  3
FlatWithEdges
350
4841
  3
Gouraud
350
4842
  3
GouraudWithEdges
350
4843
  3
Hidden
350
4847
  3
JitterOff
350
4855
  3
Linepattern
350
484D
  3
OverhangOff
350
4856
  3
Realistic
350
4849
  3
Shaded
350
4854
  3
Shaded with edges
350
4853
  3
Shades of Gray
350
4850
  3
Sketchy
350
4851
  3
Thicken
350
484C
  3
Wireframe
350
4846
  3
X-Ray
350
4852
  0
XRECORD
  5
4958
102
{ACAD_REACTORS
330
C
102
}
330
C
100
AcDbXrecord
280
     1
 90
        1
330
485A
  0
DICTIONARY
  5
7F0
102
{ACAD_REACTORS
330
C
102
}
330
C
100
AcDbDictionary
281
     1
  3
CANNOSCALE
350
48E9
  3
CMLEADERSTYLE
350
48E5
  3
CTABLESTYLE
350
48E4
  3
CVIEWDETAILSTYLE
350
48E6
  3
CVIEWSECTIONSTYLE
350
48E7
  3
DIMASSOC
350
2AD6
  3
LAYEREVAL
350
48EB
  3
LAYERNOTIFY
350
48EC
  3
LIGHTINGUNITS
350
48EA
  3
MSLTSCALE
350
48E8
  3
SORTENTS
350
7F1
  3
XCLIPFRAME
350
4955
  0
DICTIONARY
  5
495E
102
{ACAD_REACTORS
330
C
102
}
330
C
100
AcDbDictionary
281
     1
  3
AcDsRecords
350
4960
  3
AcDsSchemas
350
495F
1001
ACAD
1070
     2
  0
DICTIONARY
  5
48A0
102
{ACAD_REACTORS
330
489F
102
}
330
489F
100
AcDbDictionary
281
     1
  0
XRECORD
  5
4879
102
{ACAD_REACTORS
330
4878
102
}
330
4878
100
AcDbXrecord
280
     1
290
     1
  0
XRECORD
  5
487B
102
{ACAD_REACTORS
330
487A
102
}
330
487A
100
AcDbXrecord
280
     1
290
     1
  0
XRECORD
  5
487D
102
{ACAD_REACTORS
330
487C
102
}
330
487C
100
AcDbXrecord
280
     1
290
     1
  0
XRECORD
  5
487F
102
{ACAD_REACTORS
330
487E
102
}
330
487E
100
AcDbXrecord
280
     1
290
     1
  0
XRECORD
  5
4881
102
{ACAD_REACTORS
330
4880
102
}
330
4880
100
AcDbXrecord
280
     1
290
     1
  0
XRECORD
  5
4883
102
{ACAD_REACTORS
330
4882
102
}
330
4882
100
AcDbXrecord
280
     1
290
     1
  0
XRECORD
  5
4885
102
{ACAD_REACTORS
330
4884
102
}
330
4884
100
AcDbXrecord
280
     1
290
     1
  0
XRECORD
  5
4887
102
{ACAD_REACTORS
330
4886
102
}
330
4886
100
AcDbXrecord
280
     1
290
     1
  0
XRECORD
  5
4889
102
{ACAD_REACTORS
330
4888
102
}
330
4888
100
AcDbXrecord
280
     1
290
     1
  0
XRECORD
  5
488B
102
{ACAD_REACTORS
330
488A
102
}
330
488A
100
AcDbXrecord
280
     1
290
     1
  0
XRECORD
  5
488D
102
{ACAD_REACTORS
330
488C
102
}
330
488C
100
AcDbXrecord
280
     1
290
     1
  0
XRECORD
  5
488F
102
{ACAD_REACTORS
330
488E
102
}
330
488E
100
AcDbXrecord
280
     1
290
     1
  0
XRECORD
  5
4891
102
{ACAD_REACTORS
330
4890
102
}
330
4890
100
AcDbXrecord
280
     1
290
     1
  0
XRECORD
  5
2461
102
{ACAD_REACTORS
330
81C
102
}
330
81C
100
AcDbXrecord
280
     1
340
18
  0
XRECORD
  5
4999
102
{ACAD_REACTORS
330
4998
102
}
330
4998
100
AcDbXrecord
280
     1
 40
350889.0
  1
{\C7;* Poplastované klipsy nejsou vyráběny ve všech rozměrech}
  0
ACDBDETAILVIEWSTYLE
  5
4872
102
{ACAD_REACTORS
330
4871
102
}
330
4871
100
AcDbModelDocViewStyle
 70
     0
  3
Metric50
290
     0
100
AcDbDetailViewStyle
 70
     0
 71
     0
 90
        3
 71
     1
340
F
 62
   256
 40
5.0
340
0
 62
   256
 40
5.0
300

 40
0.0
280
     1
 71
     2
340
14
 90
       25
 62
   256
 71
     3
340
F
 62
   256
 40
5.0
 90
        0
 40
15.0
 90
        1
300
%<\AcVar ViewDetailId>% (%<\AcVar ViewScale \f "%sn">%)
 71
     4
340
14
 90
       25
 62
   256
340
14
 90
       25
 62
   256
280
     0
  0
IMAGEDEF
  5
6C6
102
{ACAD_REACTORS
330
6C4
102
}
330
6C4
100
AcDbRasterImageDef
 90
        0
  1
C:\Kalzip.pcx
 10
944.0
 20
1927.0
 11
0.0010593220338983
 21
0.0010593220338983
280
     1
281
     0
  0
LAYOUT
  5
2CED
102
{ACAD_REACTORS
330
5E9
102
}
330
5E9
100
AcDbPlotSettings
  1

  2
Brother HL-760
  4
A4
  6

 40
6.043083190917968
 41
6.762742042541503
 42
7.736419677734375
 43
5.027069091796875
 44
209.9733276367187
 45
296.9683227539062
 46
0.0
 47
0.0
 48
0.473259
 49
58.191861
140
193.769503
141
275.404803
142
1.0
143
1.0
 70
   688
 72
     1
 73
     0
 74
     5
  7
CORUS_Mono.ctb
 75
    16
147
1.0
 76
     0
 77
     2
 78
   300
148
0.0
149
0.0
100
AcDbLayout
  1
A4
 70
     0
 71
     1
 10
-6.043083190917968
 20
-6.762742042541503
 11
203.9302444458008
 21
290.2055807113647
 12
0.0
 22
0.0
 32
0.0
 14
6.581804759543421
 24
2.642657989685733
 34
0.0
 15
196.0315659403611
 25
281.2760437736162
 35
0.0
146
0.0
 13
0.0
 23
0.0
 33
0.0
 16
1.0
 26
0.0
 36
0.0
 17
0.0
 27
1.0
 37
0.0
 76
     0
330
2CEE
331
2CEF
  0
LAYOUT
  5
5EB
102
{ACAD_REACTORS
330
5E9
102
}
330
5E9
100
AcDbPlotSettings
  1

  2
Brother HL-760
  4
A4
  6

 40
6.043083
 41
6.762742
 42
7.736419999999999
 43
5.027069
 44
209.973328
 45
296.968323
 46
0.0
 47
0.0
 48
-700.6503376600335
 49
1018.750009851962
140
278.8888686253531
141
1710.422455908591
142
1.0
143
4.992711703772463
 70
 11952
 72
     1
 73
     0
 74
     4
  7
CORUS_Mono.ctb
 75
     0
147
0.2002919574235392
 76
     0
 77
     2
 78
   300
148
700.6503376600335
149
-1018.750009851962
100
AcDbLayout
  1
Model
 70
     1
 71
     0
 10
0.0
 20
0.0
 11
12.0
 21
9.0
 12
0.0
 22
0.0
 32
0.0
 14
0.0
 24
0.0
 34
0.0
 15
0.0
 25
0.0
 35
0.0
146
0.0
 13
0.0
 23
0.0
 33
0.0
 16
1.0
 26
0.0
 36
0.0
 17
0.0
 27
1.0
 37
0.0
 76
     0
330
18
331
4824
  0
MATERIAL
  5
482F
102
{ACAD_XDICTIONARY
360
4830
102
}
102
{ACAD_REACTORS
330
4826
102
}
330
4826
100
AcDbMaterial
  1
ByBlock
 72
     0
 43
0.0208333333333333
 43
0.0
 43
0.0
 43
0.0
 43
0.0
 43
0.0208333333333333
 43
0.0
 43
0.0
 43
0.0
 43
0.0
 43
1.0
 43
0.0
 43
0.0
 43
0.0
 43
0.0
 43
1.0
 77
     0
 47
0.0208333333333333
 47
0.0
 47
0.0
 47
0.0
 47
0.0
 47
0.0208333333333333
 47
0.0
 47
0.0
 47
0.0
 47
0.0
 47
1.0
 47
0.0
 47
0.0
 47
0.0
 47
0.0
 47
1.0
171
     0
 49
0.0208333333333333
 49
0.0
 49
0.0
 49
0.0
 49
0.0
 49
0.0208333333333333
 49
0.0
 49
0.0
 49
0.0
 49
0.0
 49
1.0
 49
0.0
 49
0.0
 49
0.0
 49
0.0
 49
1.0
175
     0
142
0.0208333333333333
142
0.0
142
0.0
142
0.0
142
0.0
142
0.0208333333333333
142
0.0
142
0.0
142
0.0
142
0.0
142
1.0
142
0.0
142
0.0
142
0.0
142
0.0
142
1.0
179
     0
144
0.0208333333333333
144
0.0
144
0.0
144
0.0
144
0.0
144
0.0208333333333333
144
0.0
144
0.0
144
0.0
144
0.0
144
1.0
144
0.0
144
0.0
144
0.0
144
0.0
144
1.0
147
0.0208333333333333
147
0.0
147
0.0
147
0.0
147
0.0
147
0.0208333333333333
147
0.0
147
0.0
147
0.0
147
0.0
147
1.0
147
0.0
147
0.0
147
0.0
147
0.0
147
1.0
  0
MATERIAL
  5
4827
102
{ACAD_XDICTIONARY
360
4828
102
}
102
{ACAD_REACTORS
330
4826
102
}
330
4826
100
AcDbMaterial
  1
ByLayer
 72
     0
 43
0.0208333333333333
 43
0.0
 43
0.0
 43
0.0
 43
0.0
 43
0.0208333333333333
 43
0.0
 43
0.0
 43
0.0
 43
0.0
 43
1.0
 43
0.0
 43
0.0
 43
0.0
 43
0.0
 43
1.0
 77
     0
 47
0.0208333333333333
 47
0.0
 47
0.0
 47
0.0
 47
0.0
 47
0.0208333333333333
 47
0.0
 47
0.0
 47
0.0
 47
0.0
 47
1.0
 47
0.0
 47
0.0
 47
0.0
 47
0.0
 47
1.0
171
     0
 49
0.0208333333333333
 49
0.0
 49
0.0
 49
0.0
 49
0.0
 49
0.0208333333333333
 49
0.0
 49
0.0
 49
0.0
 49
0.0
 49
1.0
 49
0.0
 49
0.0
 49
0.0
 49
0.0
 49
1.0
175
     0
142
0.0208333333333333
142
0.0
142
0.0
142
0.0
142
0.0
142
0.0208333333333333
142
0.0
142
0.0
142
0.0
142
0.0
142
1.0
142
0.0
142
0.0
142
0.0
142
0.0
142
1.0
179
     0
144
0.0208333333333333
144
0.0
144
0.0
144
0.0
144
0.0
144
0.0208333333333333
144
0.0
144
0.0
144
0.0
144
0.0
144
1.0
144
0.0
144
0.0
144
0.0
144
0.0
144
1.0
147
0.0208333333333333
147
0.0
147
0.0
147
0.0
147
0.0
147
0.0208333333333333
147
0.0
147
0.0
147
0.0
147
0.0
147
1.0
147
0.0
147
0.0
147
0.0
147
0.0
147
1.0
  0
MATERIAL
  5
4837
102
{ACAD_XDICTIONARY
360
4838
102
}
102
{ACAD_REACTORS
330
4826
102
}
330
4826
100
AcDbMaterial
  1
Global
 72
     0
 43
0.0208333333333333
 43
0.0
 43
0.0
 43
0.0
 43
0.0
 43
0.0208333333333333
 43
0.0
 43
0.0
 43
0.0
 43
0.0
 43
1.0
 43
0.0
 43
0.0
 43
0.0
 43
0.0
 43
1.0
 77
     0
 47
0.0208333333333333
 47
0.0
 47
0.0
 47
0.0
 47
0.0
 47
0.0208333333333333
 47
0.0
 47
0.0
 47
0.0
 47
0.0
 47
1.0
 47
0.0
 47
0.0
 47
0.0
 47
0.0
 47
1.0
171
     0
 49
0.0208333333333333
 49
0.0
 49
0.0
 49
0.0
 49
0.0
 49
0.0208333333333333
 49
0.0
 49
0.0
 49
0.0
 49
0.0
 49
1.0
 49
0.0
 49
0.0
 49
0.0
 49
0.0
 49
1.0
175
     0
142
0.0208333333333333
142
0.0
142
0.0
142
0.0
142
0.0
142
0.0208333333333333
142
0.0
142
0.0
142
0.0
142
0.0
142
1.0
142
0.0
142
0.0
142
0.0
142
0.0
142
1.0
179
     0
144
0.0208333333333333
144
0.0
144
0.0
144
0.0
144
0.0
144
0.0208333333333333
144
0.0
144
0.0
144
0.0
144
0.0
144
1.0
144
0.0
144
0.0
144
0.0
144
0.0
144
1.0
147
0.0208333333333333
147
0.0
147
0.0
147
0.0
147
0.0
147
0.0208333333333333
147
0.0
147
0.0
147
0.0
147
0.0
147
1.0
147
0.0
147
0.0
147
0.0
147
0.0
147
1.0
  0
MLEADERSTYLE
  5
486E
102
{ACAD_XDICTIONARY
360
4996
102
}
102
{ACAD_REACTORS
330
486D
102
}
330
486D
100
AcDbMLeaderStyle
170
     2
171
     1
172
     0
 90
        2
 40
0.0
 41
0.0
173
     1
 91
-1056964608
340
12
 92
       -2
290
     1
 42
2.0
291
     1
 43
0.36
  3
Standard
 44
4.0
300

342
F
174
     1
178
     6
175
     1
176
     0
 93
-1056964608
 45
4.0
292
     0
297
     0
 46
4.0
 94
-1056964608
 47
1.0
 49
1.0
140
1.0
293
     1
141
0.0
294
     1
177
     0
142
1.0
295
     0
296
     0
143
0.125
1001
ACAD_MLEADERVER
1070
     2
  0
MLINESTYLE
  5
1C
102
{ACAD_REACTORS
330
1B
102
}
330
1B
100
AcDbMlineStyle
  2
STANDARD
 70
     0
  3

 62
   256
 51
90.0
 52
90.0
 71
     2
 49
0.5
 62
   256
  6
BYLAYER
 49
-0.5
 62
   256
  6
BYLAYER
  0
PLOTSETTINGS
  5
2C80
102
{ACAD_REACTORS
330
5EA
102
}
330
5EA
100
AcDbPlotSettings
  1
kzform
  2
Brother HL-1250 series
  4
A4
  6

 40
6.720416545867919
 41
5.027085304260253
 42
6.889755249023437
 43
5.027069091796875
 44
209.9733276367187
 45
296.9259948730469
 46
0.0
 47
0.0
 48
0.0
 49
22.0
140
199.0
141
309.0
142
1.0
143
1.013428405888407
 70
  1712
 72
     1
 73
     0
 74
     4
  7
CORUS_Mono.ctb
 75
     0
147
0.9867495268433536
 76
     0
 77
     2
 78
   300
148
0.0
149
-22.0
  0
ACDBPLACEHOLDER
  5
5E8
102
{ACAD_REACTORS
330
5E7
102
}
330
5E7
  0
SCALE
  5
485C
102
{ACAD_REACTORS
330
485B
102
}
330
485B
100
AcDbScale
 70
     0
300
1:1
140
1.0
141
1.0
290
     1
  0
SCALE
  5
485D
102
{ACAD_REACTORS
330
485B
102
}
330
485B
100
AcDbScale
 70
     0
300
1:2
140
1.0
141
2.0
290
     0
  0
SCALE
  5
485E
102
{ACAD_REACTORS
330
485B
102
}
330
485B
100
AcDbScale
 70
     0
300
1:4
140
1.0
141
4.0
290
     0
  0
SCALE
  5
485F
102
{ACAD_REACTORS
330
485B
102
}
330
485B
100
AcDbScale
 70
     0
300
1:5
140
1.0
141
5.0
290
     0
  0
SCALE
  5
4860
102
{ACAD_REACTORS
330
485B
102
}
330
485B
100
AcDbScale
 70
     0
300
1:8
140
1.0
141
8.0
290
     0
  0
SCALE
  5
4861
102
{ACAD_REACTORS
330
485B
102
}
330
485B
100
AcDbScale
 70
     0
300
1:10
140
1.0
141
10.0
290
     0
  0
SCALE
  5
4862
102
{ACAD_REACTORS
330
485B
102
}
330
485B
100
AcDbScale
 70
     0
300
1:16
140
1.0
141
16.0
290
     0
  0
SCALE
  5
4863
102
{ACAD_REACTORS
330
485B
102
}
330
485B
100
AcDbScale
 70
     0
300
1:20
140
1.0
141
20.0
290
     0
  0
SCALE
  5
4864
102
{ACAD_REACTORS
330
485B
102
}
330
485B
100
AcDbScale
 70
     0
300
1:30
140
1.0
141
30.0
290
     0
  0
SCALE
  5
4865
102
{ACAD_REACTORS
330
485B
102
}
330
485B
100
AcDbScale
 70
     0
300
1:40
140
1.0
141
40.0
290
     0
  0
SCALE
  5
4866
102
{ACAD_REACTORS
330
485B
102
}
330
485B
100
AcDbScale
 70
     0
300
1:50
140
1.0
141
50.0
290
     0
  0
SCALE
  5
4867
102
{ACAD_REACTORS
330
485B
102
}
330
485B
100
AcDbScale
 70
     0
300
1:100
140
1.0
141
100.0
290
     0
  0
SCALE
  5
4868
102
{ACAD_REACTORS
330
485B
102
}
330
485B
100
AcDbScale
 70
     0
300
2:1
140
2.0
141
1.0
290
     0
  0
SCALE
  5
4869
102
{ACAD_REACTORS
330
485B
102
}
330
485B
100
AcDbScale
 70
     0
300
4:1
140
4.0
141
1.0
290
     0
  0
SCALE
  5
486A
102
{ACAD_REACTORS
330
485B
102
}
330
485B
100
AcDbScale
 70
     0
300
8:1
140
8.0
141
1.0
290
     0
  0
SCALE
  5
486B
102
{ACAD_REACTORS
330
485B
102
}
330
485B
100
AcDbScale
 70
     0
300
10:1
140
10.0
141
1.0
290
     0
  0
SCALE
  5
486C
102
{ACAD_REACTORS
330
485B
102
}
330
485B
100
AcDbScale
 70
     0
300
100:1
140
100.0
141
1.0
290
     0
  0
ACDBSECTIONVIEWSTYLE
  5
4870
102
{ACAD_REACTORS
330
486F
102
}
330
486F
100
AcDbModelDocViewStyle
 70
     0
  3
Metric50
290
     0
100
AcDbSectionViewStyle
 70
     0
 71
     0
 90
      102
 71
     1
340
F
 62
   256
 40
5.0
340
0
340
0
 62
   256
 40
5.0
300
I, O, Q, S, X, Z
 40
10.0
 90
        0
 40
2.5
 90
        0
 71
     2
340
14
 90
       25
 62
   256
340
14
 90
       50
 62
   256
 40
5.0
 40
2.5
 40
5.0
 71
     3
340
F
 62
   256
 40
5.0
 90
        0
 40
15.0
 90
        1
300
%<\AcVar ViewSectionStartId>%-%<\AcVar ViewSectionEndId>% (%<\AcVar ViewScale \f "%sn">%)
 71
     4
 62
   256
 62
   257
300
ANSI31
 40
1.0
 90
        0
290
     0
290
     0
 90
        6
 40
0.0
 40
1.570796326794896
 40
0.2617993877991494
 40
1.308996938995747
 40
-0.2617993877991494
 40
1.832595714594046
  0
TABLESTYLE
  5
485A
102
{ACAD_XDICTIONARY
360
4956
102
}
102
{ACAD_REACTORS
330
4859
102
}
330
4859
100
AcDbTableStyle
  3
Standard
 70
     0
 71
     0
 40
1.5
 41
1.5
280
     0
281
     0
  7
STANDARD
140
4.5
170
     2
 62
     0
 63
     7
283
     0
274
    -2
284
     1
 64
     0
275
    -2
285
     1
 65
     0
276
    -2
286
     1
 66
     0
277
    -2
287
     1
 67
     0
278
    -2
288
     1
 68
     0
279
    -2
289
     1
 69
     0
  7
STANDARD
140
6.0
170
     5
 62
     0
 63
     7
283
     0
274
    -2
284
     1
 64
     0
275
    -2
285
     1
 65
     0
276
    -2
286
     1
 66
     0
277
    -2
287
     1
 67
     0
278
    -2
288
     1
 68
     0
279
    -2
289
     1
 69
     0
  7
STANDARD
140
4.5
170
     5
 62
     0
 63
     7
283
     0
274
    -2
284
     1
 64
     0
275
    -2
285
     1
 65
     0
276
    -2
286
     1
 66
     0
277
    -2
287
     1
 67
     0
278
    -2
288
     1
 68
     0
279
    -2
289
     1
 69
     0
  0
VISUALSTYLE
  5
4845
102
{ACAD_XDICTIONARY
360
496E
102
}
102
{ACAD_REACTORS
330
483F
102
}
330
483F
100
AcDbVisualStyle
  2
2dWireframe
 70
     4
 71
     0
 72
     2
 73
     0
 90
        0
 40
-0.6
 41
-30.0
 62
     5
 63
     7
421
 16777215
 74
     1
 91
        4
 64
     7
 65
   257
 75
     1
175
     1
 42
1.0
 92
        0
 66
   257
 43
1.0
 76
     1
 77
     6
 78
     2
 67
     7
 79
     5
170
     0
171
     0
290
     0
174
     0
 93
        1
 44
0.0
173
     0
291
     0
 45
0.0
1001
ACAD
1000
AcDbSavedByObjectVersion
1070
     0
  0
VISUALSTYLE
  5
4844
102
{ACAD_XDICTIONARY
360
496C
102
}
102
{ACAD_REACTORS
330
483F
102
}
330
483F
100
AcDbVisualStyle
  2
Basic
 70
     7
 71
     1
 72
     0
 73
     1
 90
        0
 40
-0.6
 41
-30.0
 62
     5
 63
     7
421
 16777215
 74
     0
 91
        4
 64
     7
 65
   257
 75
     1
175
     1
 42
1.0
 92
        8
 66
     7
 43
1.0
 76
     1
 77
     6
 78
     2
 67
     7
 79
     5
170
     0
171
     0
290
     0
174
     0
 93
        1
 44
0.0
173
     0
291
     1
 45
0.0
1001
ACAD
1000
AcDbSavedByObjectVersion
1070
     0
  0
VISUALSTYLE
  5
484B
102
{ACAD_XDICTIONARY
360
497A
102
}
102
{ACAD_REACTORS
330
483F
102
}
330
483F
100
AcDbVisualStyle
  2
Brighten
 70
    12
 71
     2
 72
     2
 73
     0
 90
        0
 40
-0.6
 41
-30.0
 62
     5
 63
     7
421
 16777215
 74
     1
 91
        4
 64
     7
 65
   257
 75
     1
175
     1
 42
1.0
 92
        8
 66
     7
 43
1.0
 76
     1
 77
     6
 78
     2
 67
     7
 79
     5
170
     0
171
     0
290
     0
174
     0
 93
        1
 44
50.0
173
     0
291
     1
 45
0.0
1001
ACAD
1000
AcDbSavedByObjectVersion
1070
     0
  0
VISUALSTYLE
  5
484F
102
{ACAD_XDICTIONARY
360
4982
102
}
102
{ACAD_REACTORS
330
483F
102
}
330
483F
100
AcDbVisualStyle
  2
ColorChange
 70
    16
 71
     2
 72
     2
 73
     3
 90
        0
 40
-0.6
 41
-30.0
 62
     5
 63
     8
421
  8421504
 74
     1
 91
        4
 64
     7
 65
   257
 75
     1
175
     1
 42
1.0
 92
        8
 66
     8
424
  8421504
 43
1.0
 76
     1
 77
     6
 78
     2
 67
     7
 79
     5
170
     0
171
     0
290
     0
174
     0
 93
        1
 44
0.0
173
     0
291
     1
 45
0.0
1001
ACAD
1000
AcDbSavedByObjectVersion
1070
     0
  0
VISUALSTYLE
  5
4848
102
{ACAD_XDICTIONARY
360
4974
102
}
102
{ACAD_REACTORS
330
483F
102
}
330
483F
100
AcDbVisualStyle
  2
Conceptual
 70
     9
 71
     3
 72
     2
 73
     0
 90
        0
 40
-0.6
 41
-30.0
 62
     5
 63
     7
421
 16777215
 74
     2
 91
        2
 64
     7
 65
   257
 75
     1
175
     1
 42
179.0
 92
        8
 66
     7
 43
1.0
 76
     1
 77
     6
 78
     2
 67
     7
 79
     3
170
     0
171
     0
290
     0
174
     0
 93
        1
 44
0.0
173
     0
291
     0
 45
0.0
1001
ACAD
1000
AcDbSavedByObjectVersion
1070
     0
  0
VISUALSTYLE
  5
484A
102
{ACAD_XDICTIONARY
360
4978
102
}
102
{ACAD_REACTORS
330
483F
102
}
330
483F
100
AcDbVisualStyle
  2
Dim
 70
    11
 71
     2
 72
     2
 73
     0
 90
        0
 40
-0.6
 41
-30.0
 62
     5
 63
     7
421
 16777215
 74
     1
 91
        4
 64
     7
 65
   257
 75
     1
175
     1
 42
1.0
 92
        8
 66
     7
 43
1.0
 76
     1
 77
     6
 78
     2
 67
     7
 79
     5
170
     0
171
     0
290
     0
174
     0
 93
        1
 44
-50.0
173
     0
291
     1
 45
0.0
1001
ACAD
1000
AcDbSavedByObjectVersion
1070
     0
  0
VISUALSTYLE
  5
4857
102
{ACAD_XDICTIONARY
360
4992
102
}
102
{ACAD_REACTORS
330
483F
102
}
330
483F
100
AcDbVisualStyle
  2
EdgeColorOff
 70
    22
 71
     2
 72
     2
 73
     0
 90
        0
 40
-0.6
 41
-30.0
 62
     5
 63
     7
421
 16777215
 74
     1
 91
        4
 64
     7
 65
   257
 75
     1
175
     1
 42
1.0
 92
        8
 66
     7
 43
1.0
 76
     1
 77
     6
 78
     2
 67
     7
 79
     5
170
     0
171
     0
290
     0
174
     0
 93
        1
 44
0.0
173
     0
291
     1
 45
0.0
1001
ACAD
1000
AcDbSavedByObjectVersion
1070
     0
  0
VISUALSTYLE
  5
484E
102
{ACAD_XDICTIONARY
360
4980
102
}
102
{ACAD_REACTORS
330
483F
102
}
330
483F
100
AcDbVisualStyle
  2
Facepattern
 70
    15
 71
     2
 72
     2
 73
     0
 90
        0
 40
-0.6
 41
-30.0
 62
     5
 63
     7
421
 16777215
 74
     1
 91
        4
 64
     7
 65
   257
 75
     1
175
     1
 42
1.0
 92
        8
 66
     7
 43
1.0
 76
     1
 77
     6
 78
     2
 67
     7
 79
     5
170
     0
171
     0
290
     0
174
     0
 93
        1
 44
0.0
173
     0
291
     1
 45
0.0
1001
ACAD
1000
AcDbSavedByObjectVersion
1070
     0
  0
VISUALSTYLE
  5
4840
102
{ACAD_XDICTIONARY
360
4964
102
}
102
{ACAD_REACTORS
330
483F
102
}
330
483F
100
AcDbVisualStyle
  2
Flat
 70
     0
 71
     2
 72
     1
 73
     1
 90
        2
 40
-0.6
 41
30.0
 62
     5
 63
     7
421
 16777215
 74
     0
 91
        0
 64
     7
 65
   257
 75
     1
175
     1
 42
1.0
 92
        8
 66
     7
 43
1.0
 76
     1
 77
     6
 78
     2
 67
     7
 79
     5
170
     0
171
     0
290
     0
174
     0
 93
       13
 44
0.0
173
     0
291
     1
 45
0.0
1001
ACAD
1000
AcDbSavedByObjectVersion
1070
     0
  0
VISUALSTYLE
  5
4841
102
{ACAD_XDICTIONARY
360
4966
102
}
102
{ACAD_REACTORS
330
483F
102
}
330
483F
100
AcDbVisualStyle
  2
FlatWithEdges
 70
     1
 71
     2
 72
     1
 73
     1
 90
        2
 40
-0.6
 41
30.0
 62
     5
 63
     7
421
 16777215
 74
     1
 91
        0
 64
     7
 65
   257
 75
     1
175
     1
 42
1.0
 92
        0
 66
   257
 43
1.0
 76
     1
 77
     6
 78
     2
 67
     7
 79
     5
170
     0
171
     0
290
     0
174
     0
 93
       13
 44
0.0
173
     0
291
     1
 45
0.0
1001
ACAD
1000
AcDbSavedByObjectVersion
1070
     0
  0
VISUALSTYLE
  5
4842
102
{ACAD_XDICTIONARY
360
4968
102
}
102
{ACAD_REACTORS
330
483F
102
}
330
483F
100
AcDbVisualStyle
  2
Gouraud
 70
     2
 71
     2
 72
     2
 73
     1
 90
        2
 40
-0.6
 41
30.0
 62
     5
 63
     7
421
 16777215
 74
     0
 91
        0
 64
     7
 65
   257
 75
     1
175
     1
 42
1.0
 92
        0
 66
     7
 43
1.0
 76
     1
 77
     6
 78
     2
 67
     7
 79
     5
170
     0
171
     0
290
     0
174
     0
 93
       13
 44
0.0
173
     0
291
     1
 45
0.0
1001
ACAD
1000
AcDbSavedByObjectVersion
1070
     0
  0
VISUALSTYLE
  5
4843
102
{ACAD_XDICTIONARY
360
496A
102
}
102
{ACAD_REACTORS
330
483F
102
}
330
483F
100
AcDbVisualStyle
  2
GouraudWithEdges
 70
     3
 71
     2
 72
     2
 73
     1
 90
        2
 40
-0.6
 41
30.0
 62
     5
 63
     7
421
 16777215
 74
     1
 91
        0
 64
     7
 65
   257
 75
     1
175
     1
 42
1.0
 92
        0
 66
   257
 43
1.0
 76
     1
 77
     6
 78
     2
 67
     7
 79
     5
170
     0
171
     0
290
     0
174
     0
 93
       13
 44
0.0
173
     0
291
     1
 45
0.0
1001
ACAD
1000
AcDbSavedByObjectVersion
1070
     0
  0
VISUALSTYLE
  5
4847
102
{ACAD_XDICTIONARY
360
4972
102
}
102
{ACAD_REACTORS
330
483F
102
}
330
483F
100
AcDbVisualStyle
  2
Hidden
 70
     6
 71
     1
 72
     2
 73
     2
 90
        0
 40
-0.6
 41
-30.0
 62
     5
 63
     7
421
 16777215
 74
     2
 91
        2
 64
     7
 65
   257
 75
     2
175
     1
 42
40.0
 92
        0
 66
   257
 43
1.0
 76
     1
 77
     6
 78
     2
 67
     7
 79
     3
170
     0
171
     0
290
     0
174
     0
 93
        1
 44
0.0
173
     0
291
     0
 45
0.0
1001
ACAD
1000
AcDbSavedByObjectVersion
1070
     0
  0
VISUALSTYLE
  5
4855
102
{ACAD_XDICTIONARY
360
498E
102
}
102
{ACAD_REACTORS
330
483F
102
}
330
483F
100
AcDbVisualStyle
  2
JitterOff
 70
    20
 71
     2
 72
     2
 73
     0
 90
        0
 40
-0.6
 41
-30.0
 62
     5
 63
     7
421
 16777215
 74
     1
 91
        4
 64
     7
 65
   257
 75
     1
175
     1
 42
1.0
 92
       10
 66
     7
 43
1.0
 76
     1
 77
     6
 78
     2
 67
     7
 79
     5
170
     0
171
     0
290
     0
174
     0
 93
        1
 44
0.0
173
     0
291
     1
 45
0.0
1001
ACAD
1000
AcDbSavedByObjectVersion
1070
     0
  0
VISUALSTYLE
  5
484D
102
{ACAD_XDICTIONARY
360
497E
102
}
102
{ACAD_REACTORS
330
483F
102
}
330
483F
100
AcDbVisualStyle
  2
Linepattern
 70
    14
 71
     2
 72
     2
 73
     0
 90
        0
 40
-0.6
 41
-30.0
 62
     5
 63
     7
421
 16777215
 74
     1
 91
        4
 64
     7
 65
   257
 75
     7
175
     7
 42
1.0
 92
        8
 66
     7
 43
1.0
 76
     1
 77
     6
 78
     2
 67
     7
 79
     5
170
     0
171
     0
290
     0
174
     0
 93
        1
 44
0.0
173
     0
291
     1
 45
0.0
1001
ACAD
1000
AcDbSavedByObjectVersion
1070
     0
  0
VISUALSTYLE
  5
4856
102
{ACAD_XDICTIONARY
360
4990
102
}
102
{ACAD_REACTORS
330
483F
102
}
330
483F
100
AcDbVisualStyle
  2
OverhangOff
 70
    21
 71
     2
 72
     2
 73
     0
 90
        0
 40
-0.6
 41
-30.0
 62
     5
 63
     7
421
 16777215
 74
     1
 91
        4
 64
     7
 65
   257
 75
     1
175
     1
 42
1.0
 92
        9
 66
     7
 43
1.0
 76
     1
 77
     6
 78
     2
 67
     7
 79
     5
170
     0
171
     0
290
     0
174
     0
 93
        1
 44
0.0
173
     0
291
     1
 45
0.0
1001
ACAD
1000
AcDbSavedByObjectVersion
1070
     0
  0
VISUALSTYLE
  5
4849
102
{ACAD_XDICTIONARY
360
4976
102
}
102
{ACAD_REACTORS
330
483F
102
}
330
483F
100
AcDbVisualStyle
  2
Realistic
 70
     8
 71
     2
 72
     3
 73
     0
 90
        2
 40
-0.6
 41
30.0
 62
     5
 63
     7
421
 16777215
 74
     0
 91
        0
 64
     7
 65
   257
 75
     1
175
     1
 42
1.0
 92
        8
 66
   257
 43
1.0
 76
     1
 77
     6
 78
     2
 67
     7
 79
     3
170
     0
171
     0
290
     0
174
     0
 93
       13
 44
0.0
173
     0
291
     0
 45
0.0
1001
ACAD
1000
AcDbSavedByObjectVersion
1070
     0
  0
VISUALSTYLE
  5
4854
102
{ACAD_XDICTIONARY
360
498C
102
}
102
{ACAD_REACTORS
330
483F
102
}
330
483F
100
AcDbVisualStyle
  2
Shaded
 70
    27
 71
     2
 72
     2
 73
     1
 90
        2
 40
-0.6
 41
30.0
 62
     5
 63
     7
421
 16777215
 74
     0
 91
        4
 64
     7
 65
   257
 75
     1
175
     1
 42
1.0
 92
        8
 66
   257
 43
1.0
 76
     1
 77
     6
 78
     2
 67
     8
425
  7895160
 79
     3
170
     0
171
     0
290
     0
174
     0
 93
        5
 44
0.0
173
     0
291
     0
 45
0.0
1001
ACAD
1000
AcDbSavedByObjectVersion
1070
     0
  0
VISUALSTYLE
  5
4853
102
{ACAD_XDICTIONARY
360
498A
102
}
102
{ACAD_REACTORS
330
483F
102
}
330
483F
100
AcDbVisualStyle
  2
Shaded with edges
 70
    26
 71
     2
 72
     2
 73
     1
 90
        2
 40
-0.6
 41
30.0
 62
     5
 63
     7
421
 16777215
 74
     1
 91
       10
 64
     7
 65
   257
 75
     2
175
     1
 42
1.0
 92
        8
 66
   257
 43
1.0
 76
     1
 77
     6
 78
     2
 67
     7
 79
     3
170
     0
171
     0
290
     0
174
     0
 93
        5
 44
0.0
173
     0
291
     0
 45
0.0
1001
ACAD
1000
AcDbSavedByObjectVersion
1070
     0
  0
VISUALSTYLE
  5
4850
102
{ACAD_XDICTIONARY
360
4984
102
}
102
{ACAD_REACTORS
330
483F
102
}
330
483F
100
AcDbVisualStyle
  2
Shades of Gray
 70
    23
 71
     2
 72
     2
 73
     3
 90
        0
 40
-0.6
 41
-30.0
 62
     5
 63
     7
421
 16777215
 74
     2
 91
        2
 64
     7
 65
     7
 75
     1
175
     1
 42
40.0
 92
        8
 66
     7
 43
1.0
 76
     1
 77
     6
 78
     2
 67
     7
 79
     3
170
     0
171
     0
290
     0
174
     0
 93
        1
 44
0.0
173
     0
291
     0
 45
0.0
1001
ACAD
1000
AcDbSavedByObjectVersion
1070
     0
  0
VISUALSTYLE
  5
4851
102
{ACAD_XDICTIONARY
360
4986
102
}
102
{ACAD_REACTORS
330
483F
102
}
330
483F
100
AcDbVisualStyle
  2
Sketchy
 70
    24
 71
     1
 72
     2
 73
     2
 90
        0
 40
-0.6
 41
-30.0
 62
     5
 63
     7
421
 16777215
 74
     2
 91
        2
 64
     7
 65
     7
 75
     1
175
     1
 42
40.0
 92
       11
 66
     7
 43
1.0
 76
     1
 77
     6
 78
     2
 67
     7
 79
     6
170
     0
171
     0
290
     0
174
     0
 93
        1
 44
0.0
173
     0
291
     0
 45
0.0
1001
ACAD
1000
AcDbSavedByObjectVersion
1070
     0
  0
VISUALSTYLE
  5
484C
102
{ACAD_XDICTIONARY
360
497C
102
}
102
{ACAD_REACTORS
330
483F
102
}
330
483F
100
AcDbVisualStyle
  2
Thicken
 70
    13
 71
     2
 72
     2
 73
     0
 90
        0
 40
-0.6
 41
-30.0
 62
     5
 63
     7
421
 16777215
 74
     1
 91
        4
 64
     7
 65
   257
 75
     1
175
     1
 42
1.0
 92
       12
 66
     7
 43
1.0
 76
     1
 77
     6
 78
     2
 67
     7
 79
     5
170
     0
171
     0
290
     0
174
     0
 93
        1
 44
0.0
173
     0
291
     1
 45
0.0
1001
ACAD
1000
AcDbSavedByObjectVersion
1070
     0
  0
VISUALSTYLE
  5
4846
102
{ACAD_XDICTIONARY
360
4970
102
}
102
{ACAD_REACTORS
330
483F
102
}
330
483F
100
AcDbVisualStyle
  2
Wireframe
 70
     5
 71
     0
 72
     2
 73
     0
 90
        0
 40
-0.6
 41
-30.0
 62
     5
 63
     7
421
 16777215
 74
     1
 91
        4
 64
     7
 65
   257
 75
     1
175
     1
 42
1.0
 92
        0
 66
   257
 43
1.0
 76
     1
 77
     6
 78
     2
 67
     7
 79
     3
170
     0
171
     0
290
     0
174
     0
 93
        1
 44
0.0
173
     0
291
     0
 45
0.0
1001
ACAD
1000
AcDbSavedByObjectVersion
1070
     0
  0
VISUALSTYLE
  5
4852
102
{ACAD_XDICTIONARY
360
4988
102
}
102
{ACAD_REACTORS
330
483F
102
}
330
483F
100
AcDbVisualStyle
  2
X-Ray
 70
    25
 71
     2
 72
     2
 73
     1
 90
        1
 40
0.5
 41
-30.0
 62
     5
 63
     7
421
 16777215
 74
     1
 91
        0
 64
     7
 65
   257
 75
     1
175
     1
 42
1.0
 92
        8
 66
     7
 43
1.0
 76
     1
 77
     6
 78
     2
 67
     7
 79
     3
170
     0
171
     0
290
     0
174
     0
 93
       13
 44
0.0
173
     0
291
     0
 45
0.0
1001
ACAD
1000
AcDbSavedByObjectVersion
1070
     0
  0
DICTIONARYVAR
  5
48E9
102
{ACAD_REACTORS
330
7F0
102
}
330
7F0
100
DictionaryVariables
280
     0
  1
1:1
  0
DICTIONARYVAR
  5
48E5
102
{ACAD_REACTORS
330
7F0
102
}
330
7F0
100
DictionaryVariables
280
     0
  1
STANDARD
  0
DICTIONARYVAR
  5
48E4
102
{ACAD_REACTORS
330
7F0
102
}
330
7F0
100
DictionaryVariables
280
     0
  1
STANDARD
  0
DICTIONARYVAR
  5
48E6
102
{ACAD_REACTORS
330
7F0
102
}
330
7F0
100
DictionaryVariables
280
     0
  1
Metric50
  0
DICTIONARYVAR
  5
48E7
102
{ACAD_REACTORS
330
7F0
102
}
330
7F0
100
DictionaryVariables
280
     0
  1
Metric50
  0
DICTIONARYVAR
  5
2AD6
102
{ACAD_REACTORS
330
7F0
102
}
330
7F0
100
DictionaryVariables
280
     0
  1
1
  0
DICTIONARYVAR
  5
48EB
102
{ACAD_REACTORS
330
7F0
102
}
330
7F0
100
DictionaryVariables
280
     0
  1
1
  0
DICTIONARYVAR
  5
48EC
102
{ACAD_REACTORS
330
7F0
102
}
330
7F0
100
DictionaryVariables
280
     0
  1
15
  0
DICTIONARYVAR
  5
48EA
102
{ACAD_REACTORS
330
7F0
102
}
330
7F0
100
DictionaryVariables
280
     0
  1
0
  0
DICTIONARYVAR
  5
48E8
102
{ACAD_REACTORS
330
7F0
102
}
330
7F0
100
DictionaryVariables
280
     0
  1
0
  0
DICTIONARYVAR
  5
7F1
102
{ACAD_REACTORS
330
7F0
102
}
330
7F0
100
DictionaryVariables
280
     0
  1
96
  0
DICTIONARYVAR
  5
4955
102
{ACAD_REACTORS
330
7F0
102
}
330
7F0
100
DictionaryVariables
280
     0
  1
2
  0
DICTIONARY
  5
4960
102
{ACAD_REACTORS
330
495E
102
}
330
495E
100
AcDbDictionary
281
     1
  0
DICTIONARY
  5
495F
102
{ACAD_REACTORS
330
495E
102
}
330
495E
100
AcDbDictionary
281
     1
  3
140695674157072
350
4959
  3
140695674157088
350
495A
  3
140695674157104
350
495B
  3
140695674157120
350
495C
  3
140695674157136
350
495D
  0
DICTIONARY
  5
4830
330
482F
100
AcDbDictionary
280
     1
281
     1
  3
ACAD_XREC_ROUNDTRIP
360
4962
  3
BUMPTILE
360
4832
  3
DIFFUSETILE
360
4831
  3
OPACITYTILE
360
4835
  3
REFLECTIONTILE
360
4834
  3
REFRACTIONTILE
360
4836
  3
SPECULARTILE
360
4833
  0
DICTIONARY
  5
4828
330
4827
100
AcDbDictionary
280
     1
281
     1
  3
ACAD_XREC_ROUNDTRIP
360
4961
  3
BUMPTILE
360
482A
  3
DIFFUSETILE
360
4829
  3
OPACITYTILE
360
482D
  3
REFLECTIONTILE
360
482C
  3
REFRACTIONTILE
360
482E
  3
SPECULARTILE
360
482B
  0
DICTIONARY
  5
4838
330
4837
100
AcDbDictionary
280
     1
281
     1
  3
ACAD_XREC_ROUNDTRIP
360
4963
  3
BUMPTILE
360
483A
  3
DIFFUSETILE
360
4839
  3
OPACITYTILE
360
483D
  3
REFLECTIONTILE
360
483C
  3
REFRACTIONTILE
360
483E
  3
SPECULARTILE
360
483B
  0
DICTIONARY
  5
4996
330
486E
100
AcDbDictionary
280
     1
281
     1
  3
ACAD_XREC_ROUNDTRIP
360
4997
  0
DICTIONARY
  5
4956
330
485A
100
AcDbDictionary
280
     1
281
     1
  3
ACAD_ROUNDTRIP_2008_TABLESTYLE_CELLSTYLEMAP
360
4957
  3
ACAD_XREC_ROUNDTRIP
360
4994
  0
DICTIONARY
  5
496E
330
4845
100
AcDbDictionary
280
     1
281
     1
  3
ACAD_XREC_ROUNDTRIP
360
496F
  0
DICTIONARY
  5
496C
330
4844
100
AcDbDictionary
280
     1
281
     1
  3
ACAD_XREC_ROUNDTRIP
360
496D
  0
DICTIONARY
  5
497A
330
484B
100
AcDbDictionary
280
     1
281
     1
  3
ACAD_XREC_ROUNDTRIP
360
497B
  0
DICTIONARY
  5
4982
330
484F
100
AcDbDictionary
280
     1
281
     1
  3
ACAD_XREC_ROUNDTRIP
360
4983
  0
DICTIONARY
  5
4974
330
4848
100
AcDbDictionary
280
     1
281
     1
  3
ACAD_XREC_ROUNDTRIP
360
4975
  0
DICTIONARY
  5
4978
330
484A
100
AcDbDictionary
280
     1
281
     1
  3
ACAD_XREC_ROUNDTRIP
360
4979
  0
DICTIONARY
  5
4992
330
4857
100
AcDbDictionary
280
     1
281
     1
  3
ACAD_XREC_ROUNDTRIP
360
4993
  0
DICTIONARY
  5
4980
330
484E
100
AcDbDictionary
280
     1
281
     1
  3
ACAD_XREC_ROUNDTRIP
360
4981
  0
DICTIONARY
  5
4964
330
4840
100
AcDbDictionary
280
     1
281
     1
  3
ACAD_XREC_ROUNDTRIP
360
4965
  0
DICTIONARY
  5
4966
330
4841
100
AcDbDictionary
280
     1
281
     1
  3
ACAD_XREC_ROUNDTRIP
360
4967
  0
DICTIONARY
  5
4968
330
4842
100
AcDbDictionary
280
     1
281
     1
  3
ACAD_XREC_ROUNDTRIP
360
4969
  0
DICTIONARY
  5
496A
330
4843
100
AcDbDictionary
280
     1
281
     1
  3
ACAD_XREC_ROUNDTRIP
360
496B
  0
DICTIONARY
  5
4972
330
4847
100
AcDbDictionary
280
     1
281
     1
  3
ACAD_XREC_ROUNDTRIP
360
4973
  0
DICTIONARY
  5
498E
330
4855
100
AcDbDictionary
280
     1
281
     1
  3
ACAD_XREC_ROUNDTRIP
360
498F
  0
DICTIONARY
  5
497E
330
484D
100
AcDbDictionary
280
     1
281
     1
  3
ACAD_XREC_ROUNDTRIP
360
497F
  0
DICTIONARY
  5
4990
330
4856
100
AcDbDictionary
280
     1
281
     1
  3
ACAD_XREC_ROUNDTRIP
360
4991
  0
DICTIONARY
  5
4976
330
4849
100
AcDbDictionary
280
     1
281
     1
  3
ACAD_XREC_ROUNDTRIP
360
4977
  0
DICTIONARY
  5
498C
330
4854
100
AcDbDictionary
280
     1
281
     1
  3
ACAD_XREC_ROUNDTRIP
360
498D
  0
DICTIONARY
  5
498A
330
4853
100
AcDbDictionary
280
     1
281
     1
  3
ACAD_XREC_ROUNDTRIP
360
498B
  0
DICTIONARY
  5
4984
330
4850
100
AcDbDictionary
280
     1
281
     1
  3
ACAD_XREC_ROUNDTRIP
360
4985
  0
DICTIONARY
  5
4986
330
4851
100
AcDbDictionary
280
     1
281
     1
  3
ACAD_XREC_ROUNDTRIP
360
4987
  0
DICTIONARY
  5
497C
330
484C
100
AcDbDictionary
280
     1
281
     1
  3
ACAD_XREC_ROUNDTRIP
360
497D
  0
DICTIONARY
  5
4970
330
4846
100
AcDbDictionary
280
     1
281
     1
  3
ACAD_XREC_ROUNDTRIP
360
4971
  0
DICTIONARY
  5
4988
330
4852
100
AcDbDictionary
280
     1
281
     1
  3
ACAD_XREC_ROUNDTRIP
360
4989
  0
XRECORD
  5
4959
102
{ACAD_REACTORS
330
495F
102
}
330
495F
100
AcDbXrecord
280
     1
  1
AcDb_Thumbnail_Schema
102
{ATTRRECORD
341
495A
  2
AcDbDs::TreatedAsObjectData
280
     1
291
     1
102
ATTRRECORD}
102
{ATTRRECORD
341
495B
  2
AcDbDs::Legacy
280
     1
291
     1
102
ATTRRECORD}
  2
AcDbDs::ID
280
    10
 91
        8
102
{ATTRRECORD
341
495C
  2
AcDs:Indexable
280
     1
291
     1
102
ATTRRECORD}
102
{ATTRRECORD
341
495D
  2
AcDbDs::HandleAttribute
280
     7
282
     1
102
ATTRRECORD}
  2
Thumbnail_Data
280
    15
 91
        0
  0
XRECORD
  5
495A
102
{ACAD_REACTORS
330
495F
102
}
330
495F
100
AcDbXrecord
280
     1
  1
AcDbDs::TreatedAsObjectDataSchema
  2
AcDbDs::TreatedAsObjectData
280
     1
 91
        0
  0
XRECORD
  5
495B
102
{ACAD_REACTORS
330
495F
102
}
330
495F
100
AcDbXrecord
280
     1
  1
AcDbDs::LegacySchema
  2
AcDbDs::Legacy
280
     1
 91
        0
  0
XRECORD
  5
495C
102
{ACAD_REACTORS
330
495F
102
}
330
495F
100
AcDbXrecord
280
     1
  1
AcDbDs::IndexedPropertySchema
  2
AcDs:Indexable
280
     1
 91
        0
  0
XRECORD
  5
495D
102
{ACAD_REACTORS
330
495F
102
}
330
495F
100
AcDbXrecord
280
     1
  1
AcDbDs::HandleAttributeSchema
  2
AcDbDs::HandleAttribute
280
     7
 91
        1
284
     1
  0
XRECORD
  5
4962
102
{ACAD_REACTORS
330
4830
102
}
330
4830
100
AcDbXrecord
280
     1
102
MATERIAL
148
0.0
149
0.0
149
0.0
 93
        0
 94
      127
282
     0
 72
     0
 77
     0
171
     0
175
     0
179
     0
273
     0
  0
XRECORD
  5
4832
102
{ACAD_REACTORS
330
4830
102
}
330
4830
100
AcDbXrecord
280
     1
270
     1
271
     1
  0
XRECORD
  5
4831
102
{ACAD_REACTORS
330
4830
102
}
330
4830
100
AcDbXrecord
280
     1
270
     1
271
     1
  0
XRECORD
  5
4835
102
{ACAD_REACTORS
330
4830
102
}
330
4830
100
AcDbXrecord
280
     1
270
     1
271
     1
  0
XRECORD
  5
4834
102
{ACAD_REACTORS
330
4830
102
}
330
4830
100
AcDbXrecord
280
     1
270
     1
271
     1
  0
XRECORD
  5
4836
102
{ACAD_REACTORS
330
4830
102
}
330
4830
100
AcDbXrecord
280
     1
270
     1
271
     1
  0
XRECORD
  5
4833
102
{ACAD_REACTORS
330
4830
102
}
330
4830
100
AcDbXrecord
280
     1
270
     1
271
     1
  0
XRECORD
  5
4961
102
{ACAD_REACTORS
330
4828
102
}
330
4828
100
AcDbXrecord
280
     1
102
MATERIAL
148
0.0
149
0.0
149
0.0
 93
        0
 94
      127
282
     0
 72
     0
 77
     0
171
     0
175
     0
179
     0
273
     0
  0
XRECORD
  5
482A
102
{ACAD_REACTORS
330
4828
102
}
330
4828
100
AcDbXrecord
280
     1
270
     1
271
     1
  0
XRECORD
  5
4829
102
{ACAD_REACTORS
330
4828
102
}
330
4828
100
AcDbXrecord
280
     1
270
     1
271
     1
  0
XRECORD
  5
482D
102
{ACAD_REACTORS
330
4828
102
}
330
4828
100
AcDbXrecord
280
     1
270
     1
271
     1
  0
XRECORD
  5
482C
102
{ACAD_REACTORS
330
4828
102
}
330
4828
100
AcDbXrecord
280
     1
270
     1
271
     1
  0
XRECORD
  5
482E
102
{ACAD_REACTORS
330
4828
102
}
330
4828
100
AcDbXrecord
280
     1
270
     1
271
     1
  0
XRECORD
  5
482B
102
{ACAD_REACTORS
330
4828
102
}
330
4828
100
AcDbXrecord
280
     1
270
     1
271
     1
  0
XRECORD
  5
4963
102
{ACAD_REACTORS
330
4838
102
}
330
4838
100
AcDbXrecord
280
     1
102
MATERIAL
148
0.0
149
0.0
149
0.0
 93
        0
 94
      127
282
     0
 72
     0
 77
     0
171
     0
175
     0
179
     0
273
     0
  0
XRECORD
  5
483A
102
{ACAD_REACTORS
330
4838
102
}
330
4838
100
AcDbXrecord
280
     1
270
     1
271
     1
  0
XRECORD
  5
4839
102
{ACAD_REACTORS
330
4838
102
}
330
4838
100
AcDbXrecord
280
     1
270
     1
271
     1
  0
XRECORD
  5
483D
102
{ACAD_REACTORS
330
4838
102
}
330
4838
100
AcDbXrecord
280
     1
270
     1
271
     1
  0
XRECORD
  5
483C
102
{ACAD_REACTORS
330
4838
102
}
330
4838
100
AcDbXrecord
280
     1
270
     1
271
     1
  0
XRECORD
  5
483E
102
{ACAD_REACTORS
330
4838
102
}
330
4838
100
AcDbXrecord
280
     1
270
     1
271
     1
  0
XRECORD
  5
483B
102
{ACAD_REACTORS
330
4838
102
}
330
4838
100
AcDbXrecord
280
     1
270
     1
271
     1
  0
XRECORD
  5
4997
102
{ACAD_REACTORS
330
4996
102
}
330
4996
100
AcDbXrecord
280
     1
102
ACAD_ROUNDTRIP_2012_MLEADER_STYLE
298
     1
  0
CELLSTYLEMAP
  5
4957
102
{ACAD_REACTORS
330
4956
102
}
330
4956
100
AcDbCellStyleMap
 90
        3
300
CELLSTYLE
  1
TABLEFORMAT_BEGIN
 90
        5
170
     1
 91
        0
 92
    32768
 62
   257
 93
        1
300
CONTENTFORMAT
  1
CONTENTFORMAT_BEGIN
 90
        0
 91
        0
 92
      512
 93
        0
300

 40
0.0
140
1.0
 94
        5
 62
     0
340
F
144
6.0
309
CONTENTFORMAT_END
171
     1
301
MARGIN
  1
CELLMARGIN_BEGIN
 40
1.5
 40
1.5
 40
1.5
 40
1.5
 40
4.5
 40
4.5
309
CELLMARGIN_END
 94
        6
 95
        1
302
GRIDFORMAT
  1
GRIDFORMAT_BEGIN
 90
        0
 91
        1
 62
     0
 92
       -2
340
0
 93
        0
 40
1.125
309
GRIDFORMAT_END
 95
        2
302
GRIDFORMAT
  1
GRIDFORMAT_BEGIN
 90
        0
 91
        1
 62
     0
 92
       -2
340
0
 93
        0
 40
1.125
309
GRIDFORMAT_END
 95
        4
302
GRIDFORMAT
  1
GRIDFORMAT_BEGIN
 90
        0
 91
        1
 62
     0
 92
       -2
340
0
 93
        0
 40
1.125
309
GRIDFORMAT_END
 95
        8
302
GRIDFORMAT
  1
GRIDFORMAT_BEGIN
 90
        0
 91
        1
 62
     0
 92
       -2
340
0
 93
        0
 40
1.125
309
GRIDFORMAT_END
 95
       16
302
GRIDFORMAT
  1
GRIDFORMAT_BEGIN
 90
        0
 91
        1
 62
     0
 92
       -2
340
0
 93
        0
 40
1.125
309
GRIDFORMAT_END
 95
       32
302
GRIDFORMAT
  1
GRIDFORMAT_BEGIN
 90
        0
 91
        1
 62
     0
 92
       -2
340
0
 93
        0
 40
1.125
309
GRIDFORMAT_END
309
TABLEFORMAT_END
  1
CELLSTYLE_BEGIN
 90
        1
 91
        1
300
_TITLE
309
CELLSTYLE_END
300
CELLSTYLE
  1
TABLEFORMAT_BEGIN
 90
        5
170
     1
 91
        0
 92
        0
 62
   257
 93
        1
300
CONTENTFORMAT
  1
CONTENTFORMAT_BEGIN
 90
        0
 91
        0
 92
      512
 93
        0
300

 40
0.0
140
1.0
 94
        5
 62
     0
340
F
144
4.5
309
CONTENTFORMAT_END
171
     1
301
MARGIN
  1
CELLMARGIN_BEGIN
 40
1.5
 40
1.5
 40
1.5
 40
1.5
 40
4.5
 40
4.5
309
CELLMARGIN_END
 94
        6
 95
        1
302
GRIDFORMAT
  1
GRIDFORMAT_BEGIN
 90
        0
 91
        1
 62
     0
 92
       -2
340
0
 93
        0
 40
1.125
309
GRIDFORMAT_END
 95
        2
302
GRIDFORMAT
  1
GRIDFORMAT_BEGIN
 90
        0
 91
        1
 62
     0
 92
       -2
340
0
 93
        0
 40
1.125
309
GRIDFORMAT_END
 95
        4
302
GRIDFORMAT
  1
GRIDFORMAT_BEGIN
 90
        0
 91
        1
 62
     0
 92
       -2
340
0
 93
        0
 40
1.125
309
GRIDFORMAT_END
 95
        8
302
GRIDFORMAT
  1
GRIDFORMAT_BEGIN
 90
        0
 91
        1
 62
     0
 92
       -2
340
0
 93
        0
 40
1.125
309
GRIDFORMAT_END
 95
       16
302
GRIDFORMAT
  1
GRIDFORMAT_BEGIN
 90
        0
 91
        1
 62
     0
 92
       -2
340
0
 93
        0
 40
1.125
309
GRIDFORMAT_END
 95
       32
302
GRIDFORMAT
  1
GRIDFORMAT_BEGIN
 90
        0
 91
        1
 62
     0
 92
       -2
340
0
 93
        0
 40
1.125
309
GRIDFORMAT_END
309
TABLEFORMAT_END
  1
CELLSTYLE_BEGIN
 90
        2
 91
        1
300
_HEADER
309
CELLSTYLE_END
300
CELLSTYLE
  1
TABLEFORMAT_BEGIN
 90
        5
170
     1
 91
        0
 92
        0
 62
   257
 93
        1
300
CONTENTFORMAT
  1
CONTENTFORMAT_BEGIN
 90
        0
 91
        0
 92
      512
 93
        0
300

 40
0.0
140
1.0
 94
        2
 62
     0
340
F
144
4.5
309
CONTENTFORMAT_END
171
     1
301
MARGIN
  1
CELLMARGIN_BEGIN
 40
1.5
 40
1.5
 40
1.5
 40
1.5
 40
4.5
 40
4.5
309
CELLMARGIN_END
 94
        6
 95
        1
302
GRIDFORMAT
  1
GRIDFORMAT_BEGIN
 90
        0
 91
        1
 62
     0
 92
       -2
340
0
 93
        0
 40
1.125
309
GRIDFORMAT_END
 95
        2
302
GRIDFORMAT
  1
GRIDFORMAT_BEGIN
 90
        0
 91
        1
 62
     0
 92
       -2
340
0
 93
        0
 40
1.125
309
GRIDFORMAT_END
 95
        4
302
GRIDFORMAT
  1
GRIDFORMAT_BEGIN
 90
        0
 91
        1
 62
     0
 92
       -2
340
0
 93
        0
 40
1.125
309
GRIDFORMAT_END
 95
        8
302
GRIDFORMAT
  1
GRIDFORMAT_BEGIN
 90
        0
 91
        1
 62
     0
 92
       -2
340
0
 93
        0
 40
1.125
309
GRIDFORMAT_END
 95
       16
302
GRIDFORMAT
  1
GRIDFORMAT_BEGIN
 90
        0
 91
        1
 62
     0
 92
       -2
340
0
 93
        0
 40
1.125
309
GRIDFORMAT_END
 95
       32
302
GRIDFORMAT
  1
GRIDFORMAT_BEGIN
 90
        0
 91
        1
 62
     0
 92
       -2
340
0
 93
        0
 40
1.125
309
GRIDFORMAT_END
309
TABLEFORMAT_END
  1
CELLSTYLE_BEGIN
 90
        3
 91
        2
300
_DATA
309
CELLSTYLE_END
  0
XRECORD
  5
4994
102
{ACAD_REACTORS
330
4956
102
}
330
4956
100
AcDbXrecord
280
     1
102
ACAD_ROUNDTRIP_PRE2007_TABLESTYLE
 90
      512
 91
        0
  1

 92
      512
 93
        0
  2

 94
      512
 95
        0
  3

  0
XRECORD
  5
496F
102
{ACAD_REACTORS
330
496E
102
}
330
496E
100
AcDbXrecord
280
     1
102
RTVSPost2010Prop28
280
     1
102
RTVSPost2010PropOp28
 70
     1
102
RTVSPost2010Prop29
280
     1
102
RTVSPost2010PropOp29
 70
     1
102
RTVSPost2010Prop30
280
     0
102
RTVSPost2010PropOp30
 70
     1
102
RTVSPost2010Prop31
280
     0
102
RTVSPost2010PropOp31
 70
     1
102
RTVSPost2010Prop32
280
     0
102
RTVSPost2010PropOp32
 70
     1
102
RTVSPost2010Prop33
280
     0
102
RTVSPost2010PropOp33
 70
     1
102
RTVSPost2010Prop34
280
     0
102
RTVSPost2010PropOp34
 70
     1
102
RTVSPost2010Prop35
280
     0
102
RTVSPost2010PropOp35
 70
     1
102
RTVSPost2010Prop36
280
     0
102
RTVSPost2010PropOp36
 70
     1
102
RTVSPost2010Prop37
 90
       50
102
RTVSPost2010PropOp37
 70
     1
102
RTVSPost2010Prop38
140
0.0
102
RTVSPost2010PropOp38
 70
     1
102
RTVSPost2010Prop39
140
1.0
102
RTVSPost2010PropOp39
 70
     1
102
RTVSPost2010Prop40
 90
        0
102
RTVSPost2010PropOp40
 70
     1
102
RTVSPost2010Prop41ColorIndex
 90
       18
102
RTVSPost2010Prop41ColorRGB
 90
        0
102
RTVSPost2010PropOp41
 70
     1
102
RTVSPost2010Prop42
 90
       50
102
RTVSPost2010PropOp42
 70
     1
102
RTVSPost2010Prop43
 90
        3
102
RTVSPost2010PropOp43
 70
     1
102
RTVSPost2010Prop44ColorIndex
 90
        5
102
RTVSPost2010Prop44ColorRGB
 90
      255
102
RTVSPost2010PropOp44
 70
     1
102
RTVSPost2010Prop45
280
     0
102
RTVSPost2010PropOp45
 70
     1
102
RTVSPost2010Prop46
 90
       50
102
RTVSPost2010PropOp46
 70
     1
102
RTVSPost2010Prop47
 90
       50
102
RTVSPost2010PropOp47
 70
     1
102
RTVSPost2010Prop48
 90
       50
102
RTVSPost2010PropOp48
 70
     1
102
RTVSPost2010Prop49
280
     0
102
RTVSPost2010PropOp49
 70
     1
102
RTVSPost2010Prop50
 90
       50
102
RTVSPost2010PropOp50
 70
     1
102
RTVSPost2010Prop51ColorIndex
 90
      256
102
RTVSPost2010Prop51ColorRGB
 90
-16777216
102
RTVSPost2010PropOp51
 70
     0
102
RTVSPost2010Prop52
140
1.0
102
RTVSPost2010PropOp52
 70
     0
102
RTVSPost2010Prop53
 90
        2
102
RTVSPost2010PropOp53
 70
     1
102
RTVSPost2010Prop54
  1
strokes_ogs.tif
102
RTVSPost2010PropOp54
 70
     1
102
RTVSPost2010Prop55
280
     0
102
RTVSPost2010PropOp55
 70
     1
102
RTVSPost2010Prop56
140
1.0
102
RTVSPost2010PropOp56
 70
     1
102
RTVSPost2010Prop57
140
1.0
102
RTVSPost2010PropOp57
 70
     1
102
RTVSPropertyOp0
 70
     1
102
RTVSPropertyOp1
 70
     1
102
RTVSPropertyOp2
 70
     1
102
RTVSPropertyOp3
 70
     1
102
RTVSPropertyOp4
 70
     1
102
RTVSPropertyOp5
 70
     1
102
RTVSPropertyOp6
 70
     1
102
RTVSPropertyOp7
 70
     1
102
RTVSPropertyOp8
 70
     1
102
RTVSPropertyOp9
 70
     1
102
RTVSPropertyOp10
 70
     1
102
RTVSPropertyOp11
 70
     1
102
RTVSPropertyOp12
 70
     1
102
RTVSPropertyOp13
 70
     1
102
RTVSPropertyOp14
 70
     1
102
RTVSPropertyOp15
 70
     1
102
RTVSPropertyOp16
 70
     1
102
RTVSPropertyOp17
 70
     1
102
RTVSPropertyOp18
 70
     1
102
RTVSPropertyOp19
 70
     1
102
RTVSPropertyOp20
 70
     1
102
RTVSPropertyOp21
 70
     1
102
RTVSPropertyOp22
 70
     1
102
RTVSPropertyOp23
 70
     1
102
RTVSPropertyOp24
 70
     1
102
RTVSPropertyOp25
 70
     1
102
RTVSPropertyOp26
 70
     1
102
RTVSPropertyOp27
 70
     1
102
RTVSPropertyOp28
 70
     1
102
RTVSPropertyOp29
 70
     1
102
RTVSPropertyOp30
 70
     1
102
RTVSPropertyOp31
 70
     1
102
RTVSPropertyOp32
 70
     1
102
RTVSPropertyOp33
 70
     1
102
RTVSPropertyOp34
 70
     1
102
RTVSPropertyOp35
 70
     1
102
RTVSPropertyOp36
 70
     1
102
RTVSPropertyOp37
 70
     1
102
RTVSPropertyOp38
 70
     1
102
RTVSPropertyOp39
 70
     1
102
RTVSPropertyOp40
 70
     1
102
RTVSPropertyOp41
 70
     1
102
RTVSPropertyOp42
 70
     1
102
RTVSPropertyOp43
 70
     1
102
RTVSPropertyOp44
 70
     1
102
RTVSPropertyOp45
 70
     1
102
RTVSPropertyOp46
 70
     1
102
RTVSPropertyOp47
 70
     1
102
RTVSPropertyOp48
 70
     1
102
RTVSPropertyOp49
 70
     1
102
RTVSPropertyOp50
 70
     1
102
RTVSPropertyOp51
 70
     0
102
RTVSPropertyOp52
 70
     0
102
RTVSPropertyOp53
 70
     1
102
RTVSPropertyOp54
 70
     1
102
RTVSPropertyOp55
 70
     1
102
RTVSPropertyOp56
 70
     1
102
RTVSPropertyOp57
 70
     1
102
RTVSPropertyOp58
 70
     1
102
RTVSPropertyOp59
 70
     1
102
RTVSPropertyOp60
 70
     1
102
RTVSPropertyOp61
 70
     1
102
RTVSPropertyOp62
 70
     1
  0
XRECORD
  5
496D
102
{ACAD_REACTORS
330
496C
102
}
330
496C
100
AcDbXrecord
280
     1
102
RTVSPost2010Prop28
280
     0
102
RTVSPost2010PropOp28
 70
     1
102
RTVSPost2010Prop29
280
     1
102
RTVSPost2010PropOp29
 70
     1
102
RTVSPost2010Prop30
280
     1
102
RTVSPost2010PropOp30
 70
     1
102
RTVSPost2010Prop31
280
     0
102
RTVSPost2010PropOp31
 70
     1
102
RTVSPost2010Prop32
280
     0
102
RTVSPost2010PropOp32
 70
     1
102
RTVSPost2010Prop33
280
     0
102
RTVSPost2010PropOp33
 70
     1
102
RTVSPost2010Prop34
280
     0
102
RTVSPost2010PropOp34
 70
     1
102
RTVSPost2010Prop35
280
     0
102
RTVSPost2010PropOp35
 70
     1
102
RTVSPost2010Prop36
280
     0
102
RTVSPost2010PropOp36
 70
     1
102
RTVSPost2010Prop37
 90
       50
102
RTVSPost2010PropOp37
 70
     1
102
RTVSPost2010Prop38
140
0.0
102
RTVSPost2010PropOp38
 70
     1
102
RTVSPost2010Prop39
140
1.0
102
RTVSPost2010PropOp39
 70
     1
102
RTVSPost2010Prop40
 90
        0
102
RTVSPost2010PropOp40
 70
     1
102
RTVSPost2010Prop41ColorIndex
 90
       18
102
RTVSPost2010Prop41ColorRGB
 90
        0
102
RTVSPost2010PropOp41
 70
     1
102
RTVSPost2010Prop42
 90
       50
102
RTVSPost2010PropOp42
 70
     1
102
RTVSPost2010Prop43
 90
        3
102
RTVSPost2010PropOp43
 70
     1
102
RTVSPost2010Prop44ColorIndex
 90
        5
102
RTVSPost2010Prop44ColorRGB
 90
      255
102
RTVSPost2010PropOp44
 70
     1
102
RTVSPost2010Prop45
280
     0
102
RTVSPost2010PropOp45
 70
     1
102
RTVSPost2010Prop46
 90
       50
102
RTVSPost2010PropOp46
 70
     1
102
RTVSPost2010Prop47
 90
       50
102
RTVSPost2010PropOp47
 70
     1
102
RTVSPost2010Prop48
 90
       50
102
RTVSPost2010PropOp48
 70
     1
102
RTVSPost2010Prop49
280
     0
102
RTVSPost2010PropOp49
 70
     1
102
RTVSPost2010Prop50
 90
       50
102
RTVSPost2010PropOp50
 70
     1
102
RTVSPost2010Prop51ColorIndex
 90
      256
102
RTVSPost2010Prop51ColorRGB
 90
-16777216
102
RTVSPost2010PropOp51
 70
     0
102
RTVSPost2010Prop52
140
1.0
102
RTVSPost2010PropOp52
 70
     0
102
RTVSPost2010Prop53
 90
        2
102
RTVSPost2010PropOp53
 70
     1
102
RTVSPost2010Prop54
  1
strokes_ogs.tif
102
RTVSPost2010PropOp54
 70
     1
102
RTVSPost2010Prop55
280
     0
102
RTVSPost2010PropOp55
 70
     1
102
RTVSPost2010Prop56
140
1.0
102
RTVSPost2010PropOp56
 70
     1
102
RTVSPost2010Prop57
140
1.0
102
RTVSPost2010PropOp57
 70
     1
102
RTVSPropertyOp0
 70
     1
102
RTVSPropertyOp1
 70
     1
102
RTVSPropertyOp2
 70
     1
102
RTVSPropertyOp3
 70
     1
102
RTVSPropertyOp4
 70
     1
102
RTVSPropertyOp5
 70
     1
102
RTVSPropertyOp6
 70
     1
102
RTVSPropertyOp7
 70
     1
102
RTVSPropertyOp8
 70
     1
102
RTVSPropertyOp9
 70
     1
102
RTVSPropertyOp10
 70
     1
102
RTVSPropertyOp11
 70
     1
102
RTVSPropertyOp12
 70
     1
102
RTVSPropertyOp13
 70
     1
102
RTVSPropertyOp14
 70
     1
102
RTVSPropertyOp15
 70
     1
102
RTVSPropertyOp16
 70
     1
102
RTVSPropertyOp17
 70
     1
102
RTVSPropertyOp18
 70
     1
102
RTVSPropertyOp19
 70
     1
102
RTVSPropertyOp20
 70
     1
102
RTVSPropertyOp21
 70
     1
102
RTVSPropertyOp22
 70
     1
102
RTVSPropertyOp23
 70
     1
102
RTVSPropertyOp24
 70
     1
102
RTVSPropertyOp25
 70
     1
102
RTVSPropertyOp26
 70
     1
102
RTVSPropertyOp27
 70
     1
102
RTVSPropertyOp28
 70
     1
102
RTVSPropertyOp29
 70
     1
102
RTVSPropertyOp30
 70
     1
102
RTVSPropertyOp31
 70
     1
102
RTVSPropertyOp32
 70
     1
102
RTVSPropertyOp33
 70
     1
102
RTVSPropertyOp34
 70
     1
102
RTVSPropertyOp35
 70
     1
102
RTVSPropertyOp36
 70
     1
102
RTVSPropertyOp37
 70
     1
102
RTVSPropertyOp38
 70
     1
102
RTVSPropertyOp39
 70
     1
102
RTVSPropertyOp40
 70
     1
102
RTVSPropertyOp41
 70
     1
102
RTVSPropertyOp42
 70
     1
102
RTVSPropertyOp43
 70
     1
102
RTVSPropertyOp44
 70
     1
102
RTVSPropertyOp45
 70
     1
102
RTVSPropertyOp46
 70
     1
102
RTVSPropertyOp47
 70
     1
102
RTVSPropertyOp48
 70
     1
102
RTVSPropertyOp49
 70
     1
102
RTVSPropertyOp50
 70
     1
102
RTVSPropertyOp51
 70
     0
102
RTVSPropertyOp52
 70
     0
102
RTVSPropertyOp53
 70
     1
102
RTVSPropertyOp54
 70
     1
102
RTVSPropertyOp55
 70
     1
102
RTVSPropertyOp56
 70
     1
102
RTVSPropertyOp57
 70
     1
102
RTVSPropertyOp58
 70
     1
102
RTVSPropertyOp59
 70
     1
102
RTVSPropertyOp60
 70
     1
102
RTVSPropertyOp61
 70
     1
102
RTVSPropertyOp62
 70
     1
  0
XRECORD
  5
497B
102
{ACAD_REACTORS
330
497A
102
}
330
497A
100
AcDbXrecord
280
     1
102
RTVSPost2010Prop28
280
     0
102
RTVSPost2010PropOp28
 70
     1
102
RTVSPost2010Prop29
280
     1
102
RTVSPost2010PropOp29
 70
     1
102
RTVSPost2010Prop30
280
     1
102
RTVSPost2010PropOp30
 70
     1
102
RTVSPost2010Prop31
280
     0
102
RTVSPost2010PropOp31
 70
     1
102
RTVSPost2010Prop32
280
     0
102
RTVSPost2010PropOp32
 70
     1
102
RTVSPost2010Prop33
280
     0
102
RTVSPost2010PropOp33
 70
     1
102
RTVSPost2010Prop34
280
     0
102
RTVSPost2010PropOp34
 70
     1
102
RTVSPost2010Prop35
280
     0
102
RTVSPost2010PropOp35
 70
     1
102
RTVSPost2010Prop36
280
     0
102
RTVSPost2010PropOp36
 70
     1
102
RTVSPost2010Prop37
 90
       50
102
RTVSPost2010PropOp37
 70
     1
102
RTVSPost2010Prop38
140
0.0
102
RTVSPost2010PropOp38
 70
     1
102
RTVSPost2010Prop39
140
1.0
102
RTVSPost2010PropOp39
 70
     1
102
RTVSPost2010Prop40
 90
        0
102
RTVSPost2010PropOp40
 70
     1
102
RTVSPost2010Prop41ColorIndex
 90
       18
102
RTVSPost2010Prop41ColorRGB
 90
        0
102
RTVSPost2010PropOp41
 70
     1
102
RTVSPost2010Prop42
 90
       50
102
RTVSPost2010PropOp42
 70
     1
102
RTVSPost2010Prop43
 90
        3
102
RTVSPost2010PropOp43
 70
     1
102
RTVSPost2010Prop44ColorIndex
 90
        5
102
RTVSPost2010Prop44ColorRGB
 90
      255
102
RTVSPost2010PropOp44
 70
     1
102
RTVSPost2010Prop45
280
     0
102
RTVSPost2010PropOp45
 70
     1
102
RTVSPost2010Prop46
 90
       50
102
RTVSPost2010PropOp46
 70
     1
102
RTVSPost2010Prop47
 90
       50
102
RTVSPost2010PropOp47
 70
     1
102
RTVSPost2010Prop48
 90
       50
102
RTVSPost2010PropOp48
 70
     1
102
RTVSPost2010Prop49
280
     0
102
RTVSPost2010PropOp49
 70
     1
102
RTVSPost2010Prop50
 90
       50
102
RTVSPost2010PropOp50
 70
     1
102
RTVSPost2010Prop51ColorIndex
 90
      256
102
RTVSPost2010Prop51ColorRGB
 90
-16777216
102
RTVSPost2010PropOp51
 70
     0
102
RTVSPost2010Prop52
140
1.0
102
RTVSPost2010PropOp52
 70
     0
102
RTVSPost2010Prop53
 90
        2
102
RTVSPost2010PropOp53
 70
     1
102
RTVSPost2010Prop54
  1
strokes_ogs.tif
102
RTVSPost2010PropOp54
 70
     1
102
RTVSPost2010Prop55
280
     0
102
RTVSPost2010PropOp55
 70
     1
102
RTVSPost2010Prop56
140
1.0
102
RTVSPost2010PropOp56
 70
     1
102
RTVSPost2010Prop57
140
1.0
102
RTVSPost2010PropOp57
 70
     1
102
RTVSPropertyOp0
 70
     1
102
RTVSPropertyOp1
 70
     1
102
RTVSPropertyOp2
 70
     1
102
RTVSPropertyOp3
 70
     1
102
RTVSPropertyOp4
 70
     1
102
RTVSPropertyOp5
 70
     1
102
RTVSPropertyOp6
 70
     1
102
RTVSPropertyOp7
 70
     1
102
RTVSPropertyOp8
 70
     1
102
RTVSPropertyOp9
 70
     1
102
RTVSPropertyOp10
 70
     1
102
RTVSPropertyOp11
 70
     1
102
RTVSPropertyOp12
 70
     1
102
RTVSPropertyOp13
 70
     1
102
RTVSPropertyOp14
 70
     1
102
RTVSPropertyOp15
 70
     1
102
RTVSPropertyOp16
 70
     1
102
RTVSPropertyOp17
 70
     1
102
RTVSPropertyOp18
 70
     1
102
RTVSPropertyOp19
 70
     1
102
RTVSPropertyOp20
 70
     1
102
RTVSPropertyOp21
 70
     1
102
RTVSPropertyOp22
 70
     1
102
RTVSPropertyOp23
 70
     1
102
RTVSPropertyOp24
 70
     1
102
RTVSPropertyOp25
 70
     1
102
RTVSPropertyOp26
 70
     1
102
RTVSPropertyOp27
 70
     1
102
RTVSPropertyOp28
 70
     1
102
RTVSPropertyOp29
 70
     1
102
RTVSPropertyOp30
 70
     1
102
RTVSPropertyOp31
 70
     1
102
RTVSPropertyOp32
 70
     1
102
RTVSPropertyOp33
 70
     1
102
RTVSPropertyOp34
 70
     1
102
RTVSPropertyOp35
 70
     1
102
RTVSPropertyOp36
 70
     1
102
RTVSPropertyOp37
 70
     1
102
RTVSPropertyOp38
 70
     1
102
RTVSPropertyOp39
 70
     1
102
RTVSPropertyOp40
 70
     1
102
RTVSPropertyOp41
 70
     1
102
RTVSPropertyOp42
 70
     1
102
RTVSPropertyOp43
 70
     1
102
RTVSPropertyOp44
 70
     1
102
RTVSPropertyOp45
 70
     1
102
RTVSPropertyOp46
 70
     1
102
RTVSPropertyOp47
 70
     1
102
RTVSPropertyOp48
 70
     1
102
RTVSPropertyOp49
 70
     1
102
RTVSPropertyOp50
 70
     1
102
RTVSPropertyOp51
 70
     0
102
RTVSPropertyOp52
 70
     0
102
RTVSPropertyOp53
 70
     1
102
RTVSPropertyOp54
 70
     1
102
RTVSPropertyOp55
 70
     1
102
RTVSPropertyOp56
 70
     1
102
RTVSPropertyOp57
 70
     1
102
RTVSPropertyOp58
 70
     1
102
RTVSPropertyOp59
 70
     1
102
RTVSPropertyOp60
 70
     1
102
RTVSPropertyOp61
 70
     1
102
RTVSPropertyOp62
 70
     1
  0
XRECORD
  5
4983
102
{ACAD_REACTORS
330
4982
102
}
330
4982
100
AcDbXrecord
280
     1
102
RTVSPost2010Prop28
280
     0
102
RTVSPost2010PropOp28
 70
     1
102
RTVSPost2010Prop29
280
     1
102
RTVSPost2010PropOp29
 70
     1
102
RTVSPost2010Prop30
280
     1
102
RTVSPost2010PropOp30
 70
     1
102
RTVSPost2010Prop31
280
     0
102
RTVSPost2010PropOp31
 70
     1
102
RTVSPost2010Prop32
280
     0
102
RTVSPost2010PropOp32
 70
     1
102
RTVSPost2010Prop33
280
     0
102
RTVSPost2010PropOp33
 70
     1
102
RTVSPost2010Prop34
280
     0
102
RTVSPost2010PropOp34
 70
     1
102
RTVSPost2010Prop35
280
     0
102
RTVSPost2010PropOp35
 70
     1
102
RTVSPost2010Prop36
280
     0
102
RTVSPost2010PropOp36
 70
     1
102
RTVSPost2010Prop37
 90
       50
102
RTVSPost2010PropOp37
 70
     1
102
RTVSPost2010Prop38
140
0.0
102
RTVSPost2010PropOp38
 70
     1
102
RTVSPost2010Prop39
140
1.0
102
RTVSPost2010PropOp39
 70
     1
102
RTVSPost2010Prop40
 90
        0
102
RTVSPost2010PropOp40
 70
     1
102
RTVSPost2010Prop41ColorIndex
 90
       18
102
RTVSPost2010Prop41ColorRGB
 90
        0
102
RTVSPost2010PropOp41
 70
     1
102
RTVSPost2010Prop42
 90
       50
102
RTVSPost2010PropOp42
 70
     1
102
RTVSPost2010Prop43
 90
        3
102
RTVSPost2010PropOp43
 70
     1
102
RTVSPost2010Prop44ColorIndex
 90
        5
102
RTVSPost2010Prop44ColorRGB
 90
      255
102
RTVSPost2010PropOp44
 70
     1
102
RTVSPost2010Prop45
280
     0
102
RTVSPost2010PropOp45
 70
     1
102
RTVSPost2010Prop46
 90
       50
102
RTVSPost2010PropOp46
 70
     1
102
RTVSPost2010Prop47
 90
       50
102
RTVSPost2010PropOp47
 70
     1
102
RTVSPost2010Prop48
 90
       50
102
RTVSPost2010PropOp48
 70
     1
102
RTVSPost2010Prop49
280
     0
102
RTVSPost2010PropOp49
 70
     1
102
RTVSPost2010Prop50
 90
       50
102
RTVSPost2010PropOp50
 70
     1
102
RTVSPost2010Prop51ColorIndex
 90
      256
102
RTVSPost2010Prop51ColorRGB
 90
-16777216
102
RTVSPost2010PropOp51
 70
     0
102
RTVSPost2010Prop52
140
1.0
102
RTVSPost2010PropOp52
 70
     0
102
RTVSPost2010Prop53
 90
        2
102
RTVSPost2010PropOp53
 70
     1
102
RTVSPost2010Prop54
  1
strokes_ogs.tif
102
RTVSPost2010PropOp54
 70
     1
102
RTVSPost2010Prop55
280
     0
102
RTVSPost2010PropOp55
 70
     1
102
RTVSPost2010Prop56
140
1.0
102
RTVSPost2010PropOp56
 70
     1
102
RTVSPost2010Prop57
140
1.0
102
RTVSPost2010PropOp57
 70
     1
102
RTVSPropertyOp0
 70
     1
102
RTVSPropertyOp1
 70
     1
102
RTVSPropertyOp2
 70
     1
102
RTVSPropertyOp3
 70
     1
102
RTVSPropertyOp4
 70
     1
102
RTVSPropertyOp5
 70
     1
102
RTVSPropertyOp6
 70
     1
102
RTVSPropertyOp7
 70
     1
102
RTVSPropertyOp8
 70
     1
102
RTVSPropertyOp9
 70
     1
102
RTVSPropertyOp10
 70
     1
102
RTVSPropertyOp11
 70
     1
102
RTVSPropertyOp12
 70
     1
102
RTVSPropertyOp13
 70
     1
102
RTVSPropertyOp14
 70
     1
102
RTVSPropertyOp15
 70
     1
102
RTVSPropertyOp16
 70
     1
102
RTVSPropertyOp17
 70
     1
102
RTVSPropertyOp18
 70
     1
102
RTVSPropertyOp19
 70
     1
102
RTVSPropertyOp20
 70
     1
102
RTVSPropertyOp21
 70
     1
102
RTVSPropertyOp22
 70
     1
102
RTVSPropertyOp23
 70
     1
102
RTVSPropertyOp24
 70
     1
102
RTVSPropertyOp25
 70
     1
102
RTVSPropertyOp26
 70
     1
102
RTVSPropertyOp27
 70
     1
102
RTVSPropertyOp28
 70
     1
102
RTVSPropertyOp29
 70
     1
102
RTVSPropertyOp30
 70
     1
102
RTVSPropertyOp31
 70
     1
102
RTVSPropertyOp32
 70
     1
102
RTVSPropertyOp33
 70
     1
102
RTVSPropertyOp34
 70
     1
102
RTVSPropertyOp35
 70
     1
102
RTVSPropertyOp36
 70
     1
102
RTVSPropertyOp37
 70
     1
102
RTVSPropertyOp38
 70
     1
102
RTVSPropertyOp39
 70
     1
102
RTVSPropertyOp40
 70
     1
102
RTVSPropertyOp41
 70
     1
102
RTVSPropertyOp42
 70
     1
102
RTVSPropertyOp43
 70
     1
102
RTVSPropertyOp44
 70
     1
102
RTVSPropertyOp45
 70
     1
102
RTVSPropertyOp46
 70
     1
102
RTVSPropertyOp47
 70
     1
102
RTVSPropertyOp48
 70
     1
102
RTVSPropertyOp49
 70
     1
102
RTVSPropertyOp50
 70
     1
102
RTVSPropertyOp51
 70
     0
102
RTVSPropertyOp52
 70
     0
102
RTVSPropertyOp53
 70
     1
102
RTVSPropertyOp54
 70
     1
102
RTVSPropertyOp55
 70
     1
102
RTVSPropertyOp56
 70
     1
102
RTVSPropertyOp57
 70
     1
102
RTVSPropertyOp58
 70
     1
102
RTVSPropertyOp59
 70
     1
102
RTVSPropertyOp60
 70
     1
102
RTVSPropertyOp61
 70
     1
102
RTVSPropertyOp62
 70
     1
  0
XRECORD
  5
4975
102
{ACAD_REACTORS
330
4974
102
}
330
4974
100
AcDbXrecord
280
     1
102
RTVSPost2010Prop28
280
     0
102
RTVSPost2010PropOp28
 70
     1
102
RTVSPost2010Prop29
280
     1
102
RTVSPost2010PropOp29
 70
     1
102
RTVSPost2010Prop30
280
     1
102
RTVSPost2010PropOp30
 70
     1
102
RTVSPost2010Prop31
280
     0
102
RTVSPost2010PropOp31
 70
     1
102
RTVSPost2010Prop32
280
     0
102
RTVSPost2010PropOp32
 70
     1
102
RTVSPost2010Prop33
280
     0
102
RTVSPost2010PropOp33
 70
     1
102
RTVSPost2010Prop34
280
     0
102
RTVSPost2010PropOp34
 70
     1
102
RTVSPost2010Prop35
280
     0
102
RTVSPost2010PropOp35
 70
     1
102
RTVSPost2010Prop36
280
     0
102
RTVSPost2010PropOp36
 70
     1
102
RTVSPost2010Prop37
 90
       50
102
RTVSPost2010PropOp37
 70
     1
102
RTVSPost2010Prop38
140
0.0
102
RTVSPost2010PropOp38
 70
     1
102
RTVSPost2010Prop39
140
1.0
102
RTVSPost2010PropOp39
 70
     1
102
RTVSPost2010Prop40
 90
        0
102
RTVSPost2010PropOp40
 70
     1
102
RTVSPost2010Prop41ColorIndex
 90
       18
102
RTVSPost2010Prop41ColorRGB
 90
        0
102
RTVSPost2010PropOp41
 70
     1
102
RTVSPost2010Prop42
 90
       50
102
RTVSPost2010PropOp42
 70
     1
102
RTVSPost2010Prop43
 90
        3
102
RTVSPost2010PropOp43
 70
     1
102
RTVSPost2010Prop44ColorIndex
 90
        5
102
RTVSPost2010Prop44ColorRGB
 90
      255
102
RTVSPost2010PropOp44
 70
     1
102
RTVSPost2010Prop45
280
     0
102
RTVSPost2010PropOp45
 70
     1
102
RTVSPost2010Prop46
 90
       50
102
RTVSPost2010PropOp46
 70
     1
102
RTVSPost2010Prop47
 90
       50
102
RTVSPost2010PropOp47
 70
     1
102
RTVSPost2010Prop48
 90
       50
102
RTVSPost2010PropOp48
 70
     1
102
RTVSPost2010Prop49
280
     0
102
RTVSPost2010PropOp49
 70
     1
102
RTVSPost2010Prop50
 90
       50
102
RTVSPost2010PropOp50
 70
     1
102
RTVSPost2010Prop51ColorIndex
 90
      256
102
RTVSPost2010Prop51ColorRGB
 90
-16777216
102
RTVSPost2010PropOp51
 70
     0
102
RTVSPost2010Prop52
140
1.0
102
RTVSPost2010PropOp52
 70
     0
102
RTVSPost2010Prop53
 90
        2
102
RTVSPost2010PropOp53
 70
     1
102
RTVSPost2010Prop54
  1
strokes_ogs.tif
102
RTVSPost2010PropOp54
 70
     1
102
RTVSPost2010Prop55
280
     0
102
RTVSPost2010PropOp55
 70
     1
102
RTVSPost2010Prop56
140
1.0
102
RTVSPost2010PropOp56
 70
     1
102
RTVSPost2010Prop57
140
1.0
102
RTVSPost2010PropOp57
 70
     1
102
RTVSPropertyOp0
 70
     1
102
RTVSPropertyOp1
 70
     1
102
RTVSPropertyOp2
 70
     1
102
RTVSPropertyOp3
 70
     1
102
RTVSPropertyOp4
 70
     1
102
RTVSPropertyOp5
 70
     1
102
RTVSPropertyOp6
 70
     1
102
RTVSPropertyOp7
 70
     1
102
RTVSPropertyOp8
 70
     1
102
RTVSPropertyOp9
 70
     1
102
RTVSPropertyOp10
 70
     1
102
RTVSPropertyOp11
 70
     1
102
RTVSPropertyOp12
 70
     1
102
RTVSPropertyOp13
 70
     1
102
RTVSPropertyOp14
 70
     1
102
RTVSPropertyOp15
 70
     1
102
RTVSPropertyOp16
 70
     1
102
RTVSPropertyOp17
 70
     1
102
RTVSPropertyOp18
 70
     1
102
RTVSPropertyOp19
 70
     1
102
RTVSPropertyOp20
 70
     1
102
RTVSPropertyOp21
 70
     1
102
RTVSPropertyOp22
 70
     1
102
RTVSPropertyOp23
 70
     1
102
RTVSPropertyOp24
 70
     1
102
RTVSPropertyOp25
 70
     1
102
RTVSPropertyOp26
 70
     1
102
RTVSPropertyOp27
 70
     1
102
RTVSPropertyOp28
 70
     1
102
RTVSPropertyOp29
 70
     1
102
RTVSPropertyOp30
 70
     1
102
RTVSPropertyOp31
 70
     1
102
RTVSPropertyOp32
 70
     1
102
RTVSPropertyOp33
 70
     1
102
RTVSPropertyOp34
 70
     1
102
RTVSPropertyOp35
 70
     1
102
RTVSPropertyOp36
 70
     1
102
RTVSPropertyOp37
 70
     1
102
RTVSPropertyOp38
 70
     1
102
RTVSPropertyOp39
 70
     1
102
RTVSPropertyOp40
 70
     1
102
RTVSPropertyOp41
 70
     1
102
RTVSPropertyOp42
 70
     1
102
RTVSPropertyOp43
 70
     1
102
RTVSPropertyOp44
 70
     1
102
RTVSPropertyOp45
 70
     1
102
RTVSPropertyOp46
 70
     1
102
RTVSPropertyOp47
 70
     1
102
RTVSPropertyOp48
 70
     1
102
RTVSPropertyOp49
 70
     1
102
RTVSPropertyOp50
 70
     1
102
RTVSPropertyOp51
 70
     0
102
RTVSPropertyOp52
 70
     0
102
RTVSPropertyOp53
 70
     1
102
RTVSPropertyOp54
 70
     1
102
RTVSPropertyOp55
 70
     1
102
RTVSPropertyOp56
 70
     1
102
RTVSPropertyOp57
 70
     1
102
RTVSPropertyOp58
 70
     1
102
RTVSPropertyOp59
 70
     1
102
RTVSPropertyOp60
 70
     1
102
RTVSPropertyOp61
 70
     1
102
RTVSPropertyOp62
 70
     1
  0
XRECORD
  5
4979
102
{ACAD_REACTORS
330
4978
102
}
330
4978
100
AcDbXrecord
280
     1
102
RTVSPost2010Prop28
280
     0
102
RTVSPost2010PropOp28
 70
     1
102
RTVSPost2010Prop29
280
     1
102
RTVSPost2010PropOp29
 70
     1
102
RTVSPost2010Prop30
280
     1
102
RTVSPost2010PropOp30
 70
     1
102
RTVSPost2010Prop31
280
     0
102
RTVSPost2010PropOp31
 70
     1
102
RTVSPost2010Prop32
280
     0
102
RTVSPost2010PropOp32
 70
     1
102
RTVSPost2010Prop33
280
     0
102
RTVSPost2010PropOp33
 70
     1
102
RTVSPost2010Prop34
280
     0
102
RTVSPost2010PropOp34
 70
     1
102
RTVSPost2010Prop35
280
     0
102
RTVSPost2010PropOp35
 70
     1
102
RTVSPost2010Prop36
280
     0
102
RTVSPost2010PropOp36
 70
     1
102
RTVSPost2010Prop37
 90
       50
102
RTVSPost2010PropOp37
 70
     1
102
RTVSPost2010Prop38
140
0.0
102
RTVSPost2010PropOp38
 70
     1
102
RTVSPost2010Prop39
140
1.0
102
RTVSPost2010PropOp39
 70
     1
102
RTVSPost2010Prop40
 90
        0
102
RTVSPost2010PropOp40
 70
     1
102
RTVSPost2010Prop41ColorIndex
 90
       18
102
RTVSPost2010Prop41ColorRGB
 90
        0
102
RTVSPost2010PropOp41
 70
     1
102
RTVSPost2010Prop42
 90
       50
102
RTVSPost2010PropOp42
 70
     1
102
RTVSPost2010Prop43
 90
        3
102
RTVSPost2010PropOp43
 70
     1
102
RTVSPost2010Prop44ColorIndex
 90
        5
102
RTVSPost2010Prop44ColorRGB
 90
      255
102
RTVSPost2010PropOp44
 70
     1
102
RTVSPost2010Prop45
280
     0
102
RTVSPost2010PropOp45
 70
     1
102
RTVSPost2010Prop46
 90
       50
102
RTVSPost2010PropOp46
 70
     1
102
RTVSPost2010Prop47
 90
       50
102
RTVSPost2010PropOp47
 70
     1
102
RTVSPost2010Prop48
 90
       50
102
RTVSPost2010PropOp48
 70
     1
102
RTVSPost2010Prop49
280
     0
102
RTVSPost2010PropOp49
 70
     1
102
RTVSPost2010Prop50
 90
       50
102
RTVSPost2010PropOp50
 70
     1
102
RTVSPost2010Prop51ColorIndex
 90
      256
102
RTVSPost2010Prop51ColorRGB
 90
-16777216
102
RTVSPost2010PropOp51
 70
     0
102
RTVSPost2010Prop52
140
1.0
102
RTVSPost2010PropOp52
 70
     0
102
RTVSPost2010Prop53
 90
        2
102
RTVSPost2010PropOp53
 70
     1
102
RTVSPost2010Prop54
  1
strokes_ogs.tif
102
RTVSPost2010PropOp54
 70
     1
102
RTVSPost2010Prop55
280
     0
102
RTVSPost2010PropOp55
 70
     1
102
RTVSPost2010Prop56
140
1.0
102
RTVSPost2010PropOp56
 70
     1
102
RTVSPost2010Prop57
140
1.0
102
RTVSPost2010PropOp57
 70
     1
102
RTVSPropertyOp0
 70
     1
102
RTVSPropertyOp1
 70
     1
102
RTVSPropertyOp2
 70
     1
102
RTVSPropertyOp3
 70
     1
102
RTVSPropertyOp4
 70
     1
102
RTVSPropertyOp5
 70
     1
102
RTVSPropertyOp6
 70
     1
102
RTVSPropertyOp7
 70
     1
102
RTVSPropertyOp8
 70
     1
102
RTVSPropertyOp9
 70
     1
102
RTVSPropertyOp10
 70
     1
102
RTVSPropertyOp11
 70
     1
102
RTVSPropertyOp12
 70
     1
102
RTVSPropertyOp13
 70
     1
102
RTVSPropertyOp14
 70
     1
102
RTVSPropertyOp15
 70
     1
102
RTVSPropertyOp16
 70
     1
102
RTVSPropertyOp17
 70
     1
102
RTVSPropertyOp18
 70
     1
102
RTVSPropertyOp19
 70
     1
102
RTVSPropertyOp20
 70
     1
102
RTVSPropertyOp21
 70
     1
102
RTVSPropertyOp22
 70
     1
102
RTVSPropertyOp23
 70
     1
102
RTVSPropertyOp24
 70
     1
102
RTVSPropertyOp25
 70
     1
102
RTVSPropertyOp26
 70
     1
102
RTVSPropertyOp27
 70
     1
102
RTVSPropertyOp28
 70
     1
102
RTVSPropertyOp29
 70
     1
102
RTVSPropertyOp30
 70
     1
102
RTVSPropertyOp31
 70
     1
102
RTVSPropertyOp32
 70
     1
102
RTVSPropertyOp33
 70
     1
102
RTVSPropertyOp34
 70
     1
102
RTVSPropertyOp35
 70
     1
102
RTVSPropertyOp36
 70
     1
102
RTVSPropertyOp37
 70
     1
102
RTVSPropertyOp38
 70
     1
102
RTVSPropertyOp39
 70
     1
102
RTVSPropertyOp40
 70
     1
102
RTVSPropertyOp41
 70
     1
102
RTVSPropertyOp42
 70
     1
102
RTVSPropertyOp43
 70
     1
102
RTVSPropertyOp44
 70
     1
102
RTVSPropertyOp45
 70
     1
102
RTVSPropertyOp46
 70
     1
102
RTVSPropertyOp47
 70
     1
102
RTVSPropertyOp48
 70
     1
102
RTVSPropertyOp49
 70
     1
102
RTVSPropertyOp50
 70
     1
102
RTVSPropertyOp51
 70
     0
102
RTVSPropertyOp52
 70
     0
102
RTVSPropertyOp53
 70
     1
102
RTVSPropertyOp54
 70
     1
102
RTVSPropertyOp55
 70
     1
102
RTVSPropertyOp56
 70
     1
102
RTVSPropertyOp57
 70
     1
102
RTVSPropertyOp58
 70
     1
102
RTVSPropertyOp59
 70
     1
102
RTVSPropertyOp60
 70
     1
102
RTVSPropertyOp61
 70
     1
102
RTVSPropertyOp62
 70
     1
  0
XRECORD
  5
4993
102
{ACAD_REACTORS
330
4992
102
}
330
4992
100
AcDbXrecord
280
     1
102
RTVSPost2010Prop28
280
     0
102
RTVSPost2010PropOp28
 70
     0
102
RTVSPost2010Prop29
280
     1
102
RTVSPost2010PropOp29
 70
     0
102
RTVSPost2010Prop30
280
     1
102
RTVSPost2010PropOp30
 70
     0
102
RTVSPost2010Prop31
280
     0
102
RTVSPost2010PropOp31
 70
     0
102
RTVSPost2010Prop32
280
     0
102
RTVSPost2010PropOp32
 70
     0
102
RTVSPost2010Prop33
280
     0
102
RTVSPost2010PropOp33
 70
     0
102
RTVSPost2010Prop34
280
     0
102
RTVSPost2010PropOp34
 70
     0
102
RTVSPost2010Prop35
280
     0
102
RTVSPost2010PropOp35
 70
     0
102
RTVSPost2010Prop36
280
     0
102
RTVSPost2010PropOp36
 70
     0
102
RTVSPost2010Prop37
 90
       50
102
RTVSPost2010PropOp37
 70
     0
102
RTVSPost2010Prop38
140
0.0
102
RTVSPost2010PropOp38
 70
     0
102
RTVSPost2010Prop39
140
1.0
102
RTVSPost2010PropOp39
 70
     0
102
RTVSPost2010Prop40
 90
        0
102
RTVSPost2010PropOp40
 70
     0
102
RTVSPost2010Prop41ColorIndex
 90
       18
102
RTVSPost2010Prop41ColorRGB
 90
        0
102
RTVSPost2010PropOp41
 70
     0
102
RTVSPost2010Prop42
 90
       50
102
RTVSPost2010PropOp42
 70
     0
102
RTVSPost2010Prop43
 90
        3
102
RTVSPost2010PropOp43
 70
     0
102
RTVSPost2010Prop44ColorIndex
 90
        5
102
RTVSPost2010Prop44ColorRGB
 90
      255
102
RTVSPost2010PropOp44
 70
     0
102
RTVSPost2010Prop45
280
     0
102
RTVSPost2010PropOp45
 70
     0
102
RTVSPost2010Prop46
 90
       50
102
RTVSPost2010PropOp46
 70
     0
102
RTVSPost2010Prop47
 90
       50
102
RTVSPost2010PropOp47
 70
     0
102
RTVSPost2010Prop48
 90
       50
102
RTVSPost2010PropOp48
 70
     0
102
RTVSPost2010Prop49
280
     0
102
RTVSPost2010PropOp49
 70
     0
102
RTVSPost2010Prop50
 90
       50
102
RTVSPost2010PropOp50
 70
     0
102
RTVSPost2010Prop51ColorIndex
 90
      256
102
RTVSPost2010Prop51ColorRGB
 90
-16777216
102
RTVSPost2010PropOp51
 70
     0
102
RTVSPost2010Prop52
140
1.0
102
RTVSPost2010PropOp52
 70
     0
102
RTVSPost2010Prop53
 90
        2
102
RTVSPost2010PropOp53
 70
     0
102
RTVSPost2010Prop54
  1
strokes_ogs.tif
102
RTVSPost2010PropOp54
 70
     0
102
RTVSPost2010Prop55
280
     0
102
RTVSPost2010PropOp55
 70
     0
102
RTVSPost2010Prop56
140
1.0
102
RTVSPost2010PropOp56
 70
     0
102
RTVSPost2010Prop57
140
1.0
102
RTVSPost2010PropOp57
 70
     0
102
RTVSPropertyOp0
 70
     0
102
RTVSPropertyOp1
 70
     0
102
RTVSPropertyOp2
 70
     0
102
RTVSPropertyOp3
 70
     0
102
RTVSPropertyOp4
 70
     0
102
RTVSPropertyOp5
 70
     0
102
RTVSPropertyOp6
 70
     0
102
RTVSPropertyOp7
 70
     0
102
RTVSPropertyOp8
 70
     0
102
RTVSPropertyOp9
 70
     0
102
RTVSPropertyOp10
 70
     0
102
RTVSPropertyOp11
 70
     0
102
RTVSPropertyOp12
 70
     0
102
RTVSPropertyOp13
 70
     0
102
RTVSPropertyOp14
 70
     2
102
RTVSPropertyOp15
 70
     0
102
RTVSPropertyOp16
 70
     0
102
RTVSPropertyOp17
 70
     0
102
RTVSPropertyOp18
 70
     0
102
RTVSPropertyOp19
 70
     0
102
RTVSPropertyOp20
 70
     0
102
RTVSPropertyOp21
 70
     0
102
RTVSPropertyOp22
 70
     0
102
RTVSPropertyOp23
 70
     0
102
RTVSPropertyOp24
 70
     0
102
RTVSPropertyOp25
 70
     0
102
RTVSPropertyOp26
 70
     0
102
RTVSPropertyOp27
 70
     0
102
RTVSPropertyOp28
 70
     0
102
RTVSPropertyOp29
 70
     0
102
RTVSPropertyOp30
 70
     0
102
RTVSPropertyOp31
 70
     0
102
RTVSPropertyOp32
 70
     0
102
RTVSPropertyOp33
 70
     0
102
RTVSPropertyOp34
 70
     0
102
RTVSPropertyOp35
 70
     0
102
RTVSPropertyOp36
 70
     0
102
RTVSPropertyOp37
 70
     0
102
RTVSPropertyOp38
 70
     0
102
RTVSPropertyOp39
 70
     0
102
RTVSPropertyOp40
 70
     0
102
RTVSPropertyOp41
 70
     0
102
RTVSPropertyOp42
 70
     0
102
RTVSPropertyOp43
 70
     0
102
RTVSPropertyOp44
 70
     0
102
RTVSPropertyOp45
 70
     0
102
RTVSPropertyOp46
 70
     0
102
RTVSPropertyOp47
 70
     0
102
RTVSPropertyOp48
 70
     0
102
RTVSPropertyOp49
 70
     0
102
RTVSPropertyOp50
 70
     0
102
RTVSPropertyOp51
 70
     0
102
RTVSPropertyOp52
 70
     0
102
RTVSPropertyOp53
 70
     0
102
RTVSPropertyOp54
 70
     0
102
RTVSPropertyOp55
 70
     0
102
RTVSPropertyOp56
 70
     0
102
RTVSPropertyOp57
 70
     0
102
RTVSPropertyOp58
 70
     1
102
RTVSPropertyOp59
 70
     1
102
RTVSPropertyOp60
 70
     1
102
RTVSPropertyOp61
 70
     1
102
RTVSPropertyOp62
 70
     1
  0
XRECORD
  5
4981
102
{ACAD_REACTORS
330
4980
102
}
330
4980
100
AcDbXrecord
280
     1
102
RTVSPost2010Prop28
280
     0
102
RTVSPost2010PropOp28
 70
     1
102
RTVSPost2010Prop29
280
     1
102
RTVSPost2010PropOp29
 70
     1
102
RTVSPost2010Prop30
280
     1
102
RTVSPost2010PropOp30
 70
     1
102
RTVSPost2010Prop31
280
     0
102
RTVSPost2010PropOp31
 70
     1
102
RTVSPost2010Prop32
280
     0
102
RTVSPost2010PropOp32
 70
     1
102
RTVSPost2010Prop33
280
     0
102
RTVSPost2010PropOp33
 70
     1
102
RTVSPost2010Prop34
280
     0
102
RTVSPost2010PropOp34
 70
     1
102
RTVSPost2010Prop35
280
     0
102
RTVSPost2010PropOp35
 70
     1
102
RTVSPost2010Prop36
280
     0
102
RTVSPost2010PropOp36
 70
     1
102
RTVSPost2010Prop37
 90
       50
102
RTVSPost2010PropOp37
 70
     1
102
RTVSPost2010Prop38
140
0.0
102
RTVSPost2010PropOp38
 70
     1
102
RTVSPost2010Prop39
140
1.0
102
RTVSPost2010PropOp39
 70
     1
102
RTVSPost2010Prop40
 90
        0
102
RTVSPost2010PropOp40
 70
     1
102
RTVSPost2010Prop41ColorIndex
 90
       18
102
RTVSPost2010Prop41ColorRGB
 90
        0
102
RTVSPost2010PropOp41
 70
     1
102
RTVSPost2010Prop42
 90
       50
102
RTVSPost2010PropOp42
 70
     1
102
RTVSPost2010Prop43
 90
        3
102
RTVSPost2010PropOp43
 70
     1
102
RTVSPost2010Prop44ColorIndex
 90
        5
102
RTVSPost2010Prop44ColorRGB
 90
      255
102
RTVSPost2010PropOp44
 70
     1
102
RTVSPost2010Prop45
280
     0
102
RTVSPost2010PropOp45
 70
     1
102
RTVSPost2010Prop46
 90
       50
102
RTVSPost2010PropOp46
 70
     1
102
RTVSPost2010Prop47
 90
       50
102
RTVSPost2010PropOp47
 70
     1
102
RTVSPost2010Prop48
 90
       50
102
RTVSPost2010PropOp48
 70
     1
102
RTVSPost2010Prop49
280
     0
102
RTVSPost2010PropOp49
 70
     1
102
RTVSPost2010Prop50
 90
       50
102
RTVSPost2010PropOp50
 70
     1
102
RTVSPost2010Prop51ColorIndex
 90
      256
102
RTVSPost2010Prop51ColorRGB
 90
-16777216
102
RTVSPost2010PropOp51
 70
     0
102
RTVSPost2010Prop52
140
1.0
102
RTVSPost2010PropOp52
 70
     0
102
RTVSPost2010Prop53
 90
        2
102
RTVSPost2010PropOp53
 70
     1
102
RTVSPost2010Prop54
  1
strokes_ogs.tif
102
RTVSPost2010PropOp54
 70
     1
102
RTVSPost2010Prop55
280
     0
102
RTVSPost2010PropOp55
 70
     1
102
RTVSPost2010Prop56
140
1.0
102
RTVSPost2010PropOp56
 70
     1
102
RTVSPost2010Prop57
140
1.0
102
RTVSPost2010PropOp57
 70
     1
102
RTVSPropertyOp0
 70
     1
102
RTVSPropertyOp1
 70
     1
102
RTVSPropertyOp2
 70
     1
102
RTVSPropertyOp3
 70
     1
102
RTVSPropertyOp4
 70
     1
102
RTVSPropertyOp5
 70
     1
102
RTVSPropertyOp6
 70
     1
102
RTVSPropertyOp7
 70
     1
102
RTVSPropertyOp8
 70
     1
102
RTVSPropertyOp9
 70
     1
102
RTVSPropertyOp10
 70
     1
102
RTVSPropertyOp11
 70
     1
102
RTVSPropertyOp12
 70
     1
102
RTVSPropertyOp13
 70
     1
102
RTVSPropertyOp14
 70
     1
102
RTVSPropertyOp15
 70
     1
102
RTVSPropertyOp16
 70
     1
102
RTVSPropertyOp17
 70
     1
102
RTVSPropertyOp18
 70
     1
102
RTVSPropertyOp19
 70
     1
102
RTVSPropertyOp20
 70
     1
102
RTVSPropertyOp21
 70
     1
102
RTVSPropertyOp22
 70
     1
102
RTVSPropertyOp23
 70
     1
102
RTVSPropertyOp24
 70
     1
102
RTVSPropertyOp25
 70
     1
102
RTVSPropertyOp26
 70
     1
102
RTVSPropertyOp27
 70
     1
102
RTVSPropertyOp28
 70
     1
102
RTVSPropertyOp29
 70
     1
102
RTVSPropertyOp30
 70
     1
102
RTVSPropertyOp31
 70
     1
102
RTVSPropertyOp32
 70
     1
102
RTVSPropertyOp33
 70
     1
102
RTVSPropertyOp34
 70
     1
102
RTVSPropertyOp35
 70
     1
102
RTVSPropertyOp36
 70
     1
102
RTVSPropertyOp37
 70
     1
102
RTVSPropertyOp38
 70
     1
102
RTVSPropertyOp39
 70
     1
102
RTVSPropertyOp40
 70
     1
102
RTVSPropertyOp41
 70
     1
102
RTVSPropertyOp42
 70
     1
102
RTVSPropertyOp43
 70
     1
102
RTVSPropertyOp44
 70
     1
102
RTVSPropertyOp45
 70
     1
102
RTVSPropertyOp46
 70
     1
102
RTVSPropertyOp47
 70
     1
102
RTVSPropertyOp48
 70
     1
102
RTVSPropertyOp49
 70
     1
102
RTVSPropertyOp50
 70
     1
102
RTVSPropertyOp51
 70
     0
102
RTVSPropertyOp52
 70
     0
102
RTVSPropertyOp53
 70
     1
102
RTVSPropertyOp54
 70
     1
102
RTVSPropertyOp55
 70
     1
102
RTVSPropertyOp56
 70
     1
102
RTVSPropertyOp57
 70
     1
102
RTVSPropertyOp58
 70
     1
102
RTVSPropertyOp59
 70
     1
102
RTVSPropertyOp60
 70
     1
102
RTVSPropertyOp61
 70
     1
102
RTVSPropertyOp62
 70
     1
  0
XRECORD
  5
4965
102
{ACAD_REACTORS
330
4964
102
}
330
4964
100
AcDbXrecord
280
     1
102
RTVSPost2010Prop28
280
     0
102
RTVSPost2010PropOp28
 70
     1
102
RTVSPost2010Prop29
280
     1
102
RTVSPost2010PropOp29
 70
     1
102
RTVSPost2010Prop30
280
     1
102
RTVSPost2010PropOp30
 70
     1
102
RTVSPost2010Prop31
280
     0
102
RTVSPost2010PropOp31
 70
     1
102
RTVSPost2010Prop32
280
     0
102
RTVSPost2010PropOp32
 70
     1
102
RTVSPost2010Prop33
280
     0
102
RTVSPost2010PropOp33
 70
     1
102
RTVSPost2010Prop34
280
     0
102
RTVSPost2010PropOp34
 70
     1
102
RTVSPost2010Prop35
280
     0
102
RTVSPost2010PropOp35
 70
     1
102
RTVSPost2010Prop36
280
     0
102
RTVSPost2010PropOp36
 70
     1
102
RTVSPost2010Prop37
 90
       50
102
RTVSPost2010PropOp37
 70
     1
102
RTVSPost2010Prop38
140
0.0
102
RTVSPost2010PropOp38
 70
     1
102
RTVSPost2010Prop39
140
1.0
102
RTVSPost2010PropOp39
 70
     1
102
RTVSPost2010Prop40
 90
        0
102
RTVSPost2010PropOp40
 70
     1
102
RTVSPost2010Prop41ColorIndex
 90
       18
102
RTVSPost2010Prop41ColorRGB
 90
        0
102
RTVSPost2010PropOp41
 70
     1
102
RTVSPost2010Prop42
 90
       50
102
RTVSPost2010PropOp42
 70
     1
102
RTVSPost2010Prop43
 90
        3
102
RTVSPost2010PropOp43
 70
     1
102
RTVSPost2010Prop44ColorIndex
 90
        5
102
RTVSPost2010Prop44ColorRGB
 90
      255
102
RTVSPost2010PropOp44
 70
     1
102
RTVSPost2010Prop45
280
     0
102
RTVSPost2010PropOp45
 70
     1
102
RTVSPost2010Prop46
 90
       50
102
RTVSPost2010PropOp46
 70
     1
102
RTVSPost2010Prop47
 90
       50
102
RTVSPost2010PropOp47
 70
     1
102
RTVSPost2010Prop48
 90
       50
102
RTVSPost2010PropOp48
 70
     1
102
RTVSPost2010Prop49
280
     0
102
RTVSPost2010PropOp49
 70
     1
102
RTVSPost2010Prop50
 90
       50
102
RTVSPost2010PropOp50
 70
     1
102
RTVSPost2010Prop51ColorIndex
 90
      256
102
RTVSPost2010Prop51ColorRGB
 90
-16777216
102
RTVSPost2010PropOp51
 70
     0
102
RTVSPost2010Prop52
140
1.0
102
RTVSPost2010PropOp52
 70
     0
102
RTVSPost2010Prop53
 90
        2
102
RTVSPost2010PropOp53
 70
     1
102
RTVSPost2010Prop54
  1
strokes_ogs.tif
102
RTVSPost2010PropOp54
 70
     1
102
RTVSPost2010Prop55
280
     0
102
RTVSPost2010PropOp55
 70
     1
102
RTVSPost2010Prop56
140
1.0
102
RTVSPost2010PropOp56
 70
     1
102
RTVSPost2010Prop57
140
1.0
102
RTVSPost2010PropOp57
 70
     1
102
RTVSPropertyOp0
 70
     1
102
RTVSPropertyOp1
 70
     1
102
RTVSPropertyOp2
 70
     1
102
RTVSPropertyOp3
 70
     1
102
RTVSPropertyOp4
 70
     1
102
RTVSPropertyOp5
 70
     1
102
RTVSPropertyOp6
 70
     1
102
RTVSPropertyOp7
 70
     1
102
RTVSPropertyOp8
 70
     1
102
RTVSPropertyOp9
 70
     1
102
RTVSPropertyOp10
 70
     1
102
RTVSPropertyOp11
 70
     1
102
RTVSPropertyOp12
 70
     1
102
RTVSPropertyOp13
 70
     1
102
RTVSPropertyOp14
 70
     1
102
RTVSPropertyOp15
 70
     1
102
RTVSPropertyOp16
 70
     1
102
RTVSPropertyOp17
 70
     1
102
RTVSPropertyOp18
 70
     1
102
RTVSPropertyOp19
 70
     1
102
RTVSPropertyOp20
 70
     1
102
RTVSPropertyOp21
 70
     1
102
RTVSPropertyOp22
 70
     1
102
RTVSPropertyOp23
 70
     1
102
RTVSPropertyOp24
 70
     1
102
RTVSPropertyOp25
 70
     1
102
RTVSPropertyOp26
 70
     1
102
RTVSPropertyOp27
 70
     1
102
RTVSPropertyOp28
 70
     1
102
RTVSPropertyOp29
 70
     1
102
RTVSPropertyOp30
 70
     1
102
RTVSPropertyOp31
 70
     1
102
RTVSPropertyOp32
 70
     1
102
RTVSPropertyOp33
 70
     1
102
RTVSPropertyOp34
 70
     1
102
RTVSPropertyOp35
 70
     1
102
RTVSPropertyOp36
 70
     1
102
RTVSPropertyOp37
 70
     1
102
RTVSPropertyOp38
 70
     1
102
RTVSPropertyOp39
 70
     1
102
RTVSPropertyOp40
 70
     1
102
RTVSPropertyOp41
 70
     1
102
RTVSPropertyOp42
 70
     1
102
RTVSPropertyOp43
 70
     1
102
RTVSPropertyOp44
 70
     1
102
RTVSPropertyOp45
 70
     1
102
RTVSPropertyOp46
 70
     1
102
RTVSPropertyOp47
 70
     1
102
RTVSPropertyOp48
 70
     1
102
RTVSPropertyOp49
 70
     1
102
RTVSPropertyOp50
 70
     1
102
RTVSPropertyOp51
 70
     0
102
RTVSPropertyOp52
 70
     0
102
RTVSPropertyOp53
 70
     1
102
RTVSPropertyOp54
 70
     1
102
RTVSPropertyOp55
 70
     1
102
RTVSPropertyOp56
 70
     1
102
RTVSPropertyOp57
 70
     1
102
RTVSPropertyOp58
 70
     1
102
RTVSPropertyOp59
 70
     1
102
RTVSPropertyOp60
 70
     1
102
RTVSPropertyOp61
 70
     1
102
RTVSPropertyOp62
 70
     1
  0
XRECORD
  5
4967
102
{ACAD_REACTORS
330
4966
102
}
330
4966
100
AcDbXrecord
280
     1
102
RTVSPost2010Prop28
280
     0
102
RTVSPost2010PropOp28
 70
     1
102
RTVSPost2010Prop29
280
     1
102
RTVSPost2010PropOp29
 70
     1
102
RTVSPost2010Prop30
280
     1
102
RTVSPost2010PropOp30
 70
     1
102
RTVSPost2010Prop31
280
     0
102
RTVSPost2010PropOp31
 70
     1
102
RTVSPost2010Prop32
280
     0
102
RTVSPost2010PropOp32
 70
     1
102
RTVSPost2010Prop33
280
     0
102
RTVSPost2010PropOp33
 70
     1
102
RTVSPost2010Prop34
280
     0
102
RTVSPost2010PropOp34
 70
     1
102
RTVSPost2010Prop35
280
     0
102
RTVSPost2010PropOp35
 70
     1
102
RTVSPost2010Prop36
280
     0
102
RTVSPost2010PropOp36
 70
     1
102
RTVSPost2010Prop37
 90
       50
102
RTVSPost2010PropOp37
 70
     1
102
RTVSPost2010Prop38
140
0.0
102
RTVSPost2010PropOp38
 70
     1
102
RTVSPost2010Prop39
140
1.0
102
RTVSPost2010PropOp39
 70
     1
102
RTVSPost2010Prop40
 90
        0
102
RTVSPost2010PropOp40
 70
     1
102
RTVSPost2010Prop41ColorIndex
 90
       18
102
RTVSPost2010Prop41ColorRGB
 90
        0
102
RTVSPost2010PropOp41
 70
     1
102
RTVSPost2010Prop42
 90
       50
102
RTVSPost2010PropOp42
 70
     1
102
RTVSPost2010Prop43
 90
        3
102
RTVSPost2010PropOp43
 70
     1
102
RTVSPost2010Prop44ColorIndex
 90
        5
102
RTVSPost2010Prop44ColorRGB
 90
      255
102
RTVSPost2010PropOp44
 70
     1
102
RTVSPost2010Prop45
280
     0
102
RTVSPost2010PropOp45
 70
     1
102
RTVSPost2010Prop46
 90
       50
102
RTVSPost2010PropOp46
 70
     1
102
RTVSPost2010Prop47
 90
       50
102
RTVSPost2010PropOp47
 70
     1
102
RTVSPost2010Prop48
 90
       50
102
RTVSPost2010PropOp48
 70
     1
102
RTVSPost2010Prop49
280
     0
102
RTVSPost2010PropOp49
 70
     1
102
RTVSPost2010Prop50
 90
       50
102
RTVSPost2010PropOp50
 70
     1
102
RTVSPost2010Prop51ColorIndex
 90
      256
102
RTVSPost2010Prop51ColorRGB
 90
-16777216
102
RTVSPost2010PropOp51
 70
     0
102
RTVSPost2010Prop52
140
1.0
102
RTVSPost2010PropOp52
 70
     0
102
RTVSPost2010Prop53
 90
        2
102
RTVSPost2010PropOp53
 70
     1
102
RTVSPost2010Prop54
  1
strokes_ogs.tif
102
RTVSPost2010PropOp54
 70
     1
102
RTVSPost2010Prop55
280
     0
102
RTVSPost2010PropOp55
 70
     1
102
RTVSPost2010Prop56
140
1.0
102
RTVSPost2010PropOp56
 70
     1
102
RTVSPost2010Prop57
140
1.0
102
RTVSPost2010PropOp57
 70
     1
102
RTVSPropertyOp0
 70
     1
102
RTVSPropertyOp1
 70
     1
102
RTVSPropertyOp2
 70
     1
102
RTVSPropertyOp3
 70
     1
102
RTVSPropertyOp4
 70
     1
102
RTVSPropertyOp5
 70
     1
102
RTVSPropertyOp6
 70
     1
102
RTVSPropertyOp7
 70
     1
102
RTVSPropertyOp8
 70
     1
102
RTVSPropertyOp9
 70
     1
102
RTVSPropertyOp10
 70
     1
102
RTVSPropertyOp11
 70
     1
102
RTVSPropertyOp12
 70
     1
102
RTVSPropertyOp13
 70
     1
102
RTVSPropertyOp14
 70
     1
102
RTVSPropertyOp15
 70
     1
102
RTVSPropertyOp16
 70
     1
102
RTVSPropertyOp17
 70
     1
102
RTVSPropertyOp18
 70
     1
102
RTVSPropertyOp19
 70
     1
102
RTVSPropertyOp20
 70
     1
102
RTVSPropertyOp21
 70
     1
102
RTVSPropertyOp22
 70
     1
102
RTVSPropertyOp23
 70
     1
102
RTVSPropertyOp24
 70
     1
102
RTVSPropertyOp25
 70
     1
102
RTVSPropertyOp26
 70
     1
102
RTVSPropertyOp27
 70
     1
102
RTVSPropertyOp28
 70
     1
102
RTVSPropertyOp29
 70
     1
102
RTVSPropertyOp30
 70
     1
102
RTVSPropertyOp31
 70
     1
102
RTVSPropertyOp32
 70
     1
102
RTVSPropertyOp33
 70
     1
102
RTVSPropertyOp34
 70
     1
102
RTVSPropertyOp35
 70
     1
102
RTVSPropertyOp36
 70
     1
102
RTVSPropertyOp37
 70
     1
102
RTVSPropertyOp38
 70
     1
102
RTVSPropertyOp39
 70
     1
102
RTVSPropertyOp40
 70
     1
102
RTVSPropertyOp41
 70
     1
102
RTVSPropertyOp42
 70
     1
102
RTVSPropertyOp43
 70
     1
102
RTVSPropertyOp44
 70
     1
102
RTVSPropertyOp45
 70
     1
102
RTVSPropertyOp46
 70
     1
102
RTVSPropertyOp47
 70
     1
102
RTVSPropertyOp48
 70
     1
102
RTVSPropertyOp49
 70
     1
102
RTVSPropertyOp50
 70
     1
102
RTVSPropertyOp51
 70
     0
102
RTVSPropertyOp52
 70
     0
102
RTVSPropertyOp53
 70
     1
102
RTVSPropertyOp54
 70
     1
102
RTVSPropertyOp55
 70
     1
102
RTVSPropertyOp56
 70
     1
102
RTVSPropertyOp57
 70
     1
102
RTVSPropertyOp58
 70
     1
102
RTVSPropertyOp59
 70
     1
102
RTVSPropertyOp60
 70
     1
102
RTVSPropertyOp61
 70
     1
102
RTVSPropertyOp62
 70
     1
  0
XRECORD
  5
4969
102
{ACAD_REACTORS
330
4968
102
}
330
4968
100
AcDbXrecord
280
     1
102
RTVSPost2010Prop28
280
     0
102
RTVSPost2010PropOp28
 70
     1
102
RTVSPost2010Prop29
280
     1
102
RTVSPost2010PropOp29
 70
     1
102
RTVSPost2010Prop30
280
     1
102
RTVSPost2010PropOp30
 70
     1
102
RTVSPost2010Prop31
280
     0
102
RTVSPost2010PropOp31
 70
     1
102
RTVSPost2010Prop32
280
     0
102
RTVSPost2010PropOp32
 70
     1
102
RTVSPost2010Prop33
280
     0
102
RTVSPost2010PropOp33
 70
     1
102
RTVSPost2010Prop34
280
     0
102
RTVSPost2010PropOp34
 70
     1
102
RTVSPost2010Prop35
280
     0
102
RTVSPost2010PropOp35
 70
     1
102
RTVSPost2010Prop36
280
     0
102
RTVSPost2010PropOp36
 70
     1
102
RTVSPost2010Prop37
 90
       50
102
RTVSPost2010PropOp37
 70
     1
102
RTVSPost2010Prop38
140
0.0
102
RTVSPost2010PropOp38
 70
     1
102
RTVSPost2010Prop39
140
1.0
102
RTVSPost2010PropOp39
 70
     1
102
RTVSPost2010Prop40
 90
        0
102
RTVSPost2010PropOp40
 70
     1
102
RTVSPost2010Prop41ColorIndex
 90
       18
102
RTVSPost2010Prop41ColorRGB
 90
        0
102
RTVSPost2010PropOp41
 70
     1
102
RTVSPost2010Prop42
 90
       50
102
RTVSPost2010PropOp42
 70
     1
102
RTVSPost2010Prop43
 90
        3
102
RTVSPost2010PropOp43
 70
     1
102
RTVSPost2010Prop44ColorIndex
 90
        5
102
RTVSPost2010Prop44ColorRGB
 90
      255
102
RTVSPost2010PropOp44
 70
     1
102
RTVSPost2010Prop45
280
     0
102
RTVSPost2010PropOp45
 70
     1
102
RTVSPost2010Prop46
 90
       50
102
RTVSPost2010PropOp46
 70
     1
102
RTVSPost2010Prop47
 90
       50
102
RTVSPost2010PropOp47
 70
     1
102
RTVSPost2010Prop48
 90
       50
102
RTVSPost2010PropOp48
 70
     1
102
RTVSPost2010Prop49
280
     0
102
RTVSPost2010PropOp49
 70
     1
102
RTVSPost2010Prop50
 90
       50
102
RTVSPost2010PropOp50
 70
     1
102
RTVSPost2010Prop51ColorIndex
 90
      256
102
RTVSPost2010Prop51ColorRGB
 90
-16777216
102
RTVSPost2010PropOp51
 70
     0
102
RTVSPost2010Prop52
140
1.0
102
RTVSPost2010PropOp52
 70
     0
102
RTVSPost2010Prop53
 90
        2
102
RTVSPost2010PropOp53
 70
     1
102
RTVSPost2010Prop54
  1
strokes_ogs.tif
102
RTVSPost2010PropOp54
 70
     1
102
RTVSPost2010Prop55
280
     0
102
RTVSPost2010PropOp55
 70
     1
102
RTVSPost2010Prop56
140
1.0
102
RTVSPost2010PropOp56
 70
     1
102
RTVSPost2010Prop57
140
1.0
102
RTVSPost2010PropOp57
 70
     1
102
RTVSPropertyOp0
 70
     1
102
RTVSPropertyOp1
 70
     1
102
RTVSPropertyOp2
 70
     1
102
RTVSPropertyOp3
 70
     1
102
RTVSPropertyOp4
 70
     1
102
RTVSPropertyOp5
 70
     1
102
RTVSPropertyOp6
 70
     1
102
RTVSPropertyOp7
 70
     1
102
RTVSPropertyOp8
 70
     1
102
RTVSPropertyOp9
 70
     1
102
RTVSPropertyOp10
 70
     1
102
RTVSPropertyOp11
 70
     1
102
RTVSPropertyOp12
 70
     1
102
RTVSPropertyOp13
 70
     1
102
RTVSPropertyOp14
 70
     1
102
RTVSPropertyOp15
 70
     1
102
RTVSPropertyOp16
 70
     1
102
RTVSPropertyOp17
 70
     1
102
RTVSPropertyOp18
 70
     1
102
RTVSPropertyOp19
 70
     1
102
RTVSPropertyOp20
 70
     1
102
RTVSPropertyOp21
 70
     1
102
RTVSPropertyOp22
 70
     1
102
RTVSPropertyOp23
 70
     1
102
RTVSPropertyOp24
 70
     1
102
RTVSPropertyOp25
 70
     1
102
RTVSPropertyOp26
 70
     1
102
RTVSPropertyOp27
 70
     1
102
RTVSPropertyOp28
 70
     1
102
RTVSPropertyOp29
 70
     1
102
RTVSPropertyOp30
 70
     1
102
RTVSPropertyOp31
 70
     1
102
RTVSPropertyOp32
 70
     1
102
RTVSPropertyOp33
 70
     1
102
RTVSPropertyOp34
 70
     1
102
RTVSPropertyOp35
 70
     1
102
RTVSPropertyOp36
 70
     1
102
RTVSPropertyOp37
 70
     1
102
RTVSPropertyOp38
 70
     1
102
RTVSPropertyOp39
 70
     1
102
RTVSPropertyOp40
 70
     1
102
RTVSPropertyOp41
 70
     1
102
RTVSPropertyOp42
 70
     1
102
RTVSPropertyOp43
 70
     1
102
RTVSPropertyOp44
 70
     1
102
RTVSPropertyOp45
 70
     1
102
RTVSPropertyOp46
 70
     1
102
RTVSPropertyOp47
 70
     1
102
RTVSPropertyOp48
 70
     1
102
RTVSPropertyOp49
 70
     1
102
RTVSPropertyOp50
 70
     1
102
RTVSPropertyOp51
 70
     0
102
RTVSPropertyOp52
 70
     0
102
RTVSPropertyOp53
 70
     1
102
RTVSPropertyOp54
 70
     1
102
RTVSPropertyOp55
 70
     1
102
RTVSPropertyOp56
 70
     1
102
RTVSPropertyOp57
 70
     1
102
RTVSPropertyOp58
 70
     1
102
RTVSPropertyOp59
 70
     1
102
RTVSPropertyOp60
 70
     1
102
RTVSPropertyOp61
 70
     1
102
RTVSPropertyOp62
 70
     1
  0
XRECORD
  5
496B
102
{ACAD_REACTORS
330
496A
102
}
330
496A
100
AcDbXrecord
280
     1
102
RTVSPost2010Prop28
280
     0
102
RTVSPost2010PropOp28
 70
     1
102
RTVSPost2010Prop29
280
     1
102
RTVSPost2010PropOp29
 70
     1
102
RTVSPost2010Prop30
280
     1
102
RTVSPost2010PropOp30
 70
     1
102
RTVSPost2010Prop31
280
     0
102
RTVSPost2010PropOp31
 70
     1
102
RTVSPost2010Prop32
280
     0
102
RTVSPost2010PropOp32
 70
     1
102
RTVSPost2010Prop33
280
     0
102
RTVSPost2010PropOp33
 70
     1
102
RTVSPost2010Prop34
280
     0
102
RTVSPost2010PropOp34
 70
     1
102
RTVSPost2010Prop35
280
     0
102
RTVSPost2010PropOp35
 70
     1
102
RTVSPost2010Prop36
280
     0
102
RTVSPost2010PropOp36
 70
     1
102
RTVSPost2010Prop37
 90
       50
102
RTVSPost2010PropOp37
 70
     1
102
RTVSPost2010Prop38
140
0.0
102
RTVSPost2010PropOp38
 70
     1
102
RTVSPost2010Prop39
140
1.0
102
RTVSPost2010PropOp39
 70
     1
102
RTVSPost2010Prop40
 90
        0
102
RTVSPost2010PropOp40
 70
     1
102
RTVSPost2010Prop41ColorIndex
 90
       18
102
RTVSPost2010Prop41ColorRGB
 90
        0
102
RTVSPost2010PropOp41
 70
     1
102
RTVSPost2010Prop42
 90
       50
102
RTVSPost2010PropOp42
 70
     1
102
RTVSPost2010Prop43
 90
        3
102
RTVSPost2010PropOp43
 70
     1
102
RTVSPost2010Prop44ColorIndex
 90
        5
102
RTVSPost2010Prop44ColorRGB
 90
      255
102
RTVSPost2010PropOp44
 70
     1
102
RTVSPost2010Prop45
280
     0
102
RTVSPost2010PropOp45
 70
     1
102
RTVSPost2010Prop46
 90
       50
102
RTVSPost2010PropOp46
 70
     1
102
RTVSPost2010Prop47
 90
       50
102
RTVSPost2010PropOp47
 70
     1
102
RTVSPost2010Prop48
 90
       50
102
RTVSPost2010PropOp48
 70
     1
102
RTVSPost2010Prop49
280
     0
102
RTVSPost2010PropOp49
 70
     1
102
RTVSPost2010Prop50
 90
       50
102
RTVSPost2010PropOp50
 70
     1
102
RTVSPost2010Prop51ColorIndex
 90
      256
102
RTVSPost2010Prop51ColorRGB
 90
-16777216
102
RTVSPost2010PropOp51
 70
     0
102
RTVSPost2010Prop52
140
1.0
102
RTVSPost2010PropOp52
 70
     0
102
RTVSPost2010Prop53
 90
        2
102
RTVSPost2010PropOp53
 70
     1
102
RTVSPost2010Prop54
  1
strokes_ogs.tif
102
RTVSPost2010PropOp54
 70
     1
102
RTVSPost2010Prop55
280
     0
102
RTVSPost2010PropOp55
 70
     1
102
RTVSPost2010Prop56
140
1.0
102
RTVSPost2010PropOp56
 70
     1
102
RTVSPost2010Prop57
140
1.0
102
RTVSPost2010PropOp57
 70
     1
102
RTVSPropertyOp0
 70
     1
102
RTVSPropertyOp1
 70
     1
102
RTVSPropertyOp2
 70
     1
102
RTVSPropertyOp3
 70
     1
102
RTVSPropertyOp4
 70
     1
102
RTVSPropertyOp5
 70
     1
102
RTVSPropertyOp6
 70
     1
102
RTVSPropertyOp7
 70
     1
102
RTVSPropertyOp8
 70
     1
102
RTVSPropertyOp9
 70
     1
102
RTVSPropertyOp10
 70
     1
102
RTVSPropertyOp11
 70
     1
102
RTVSPropertyOp12
 70
     1
102
RTVSPropertyOp13
 70
     1
102
RTVSPropertyOp14
 70
     1
102
RTVSPropertyOp15
 70
     1
102
RTVSPropertyOp16
 70
     1
102
RTVSPropertyOp17
 70
     1
102
RTVSPropertyOp18
 70
     1
102
RTVSPropertyOp19
 70
     1
102
RTVSPropertyOp20
 70
     1
102
RTVSPropertyOp21
 70
     1
102
RTVSPropertyOp22
 70
     1
102
RTVSPropertyOp23
 70
     1
102
RTVSPropertyOp24
 70
     1
102
RTVSPropertyOp25
 70
     1
102
RTVSPropertyOp26
 70
     1
102
RTVSPropertyOp27
 70
     1
102
RTVSPropertyOp28
 70
     1
102
RTVSPropertyOp29
 70
     1
102
RTVSPropertyOp30
 70
     1
102
RTVSPropertyOp31
 70
     1
102
RTVSPropertyOp32
 70
     1
102
RTVSPropertyOp33
 70
     1
102
RTVSPropertyOp34
 70
     1
102
RTVSPropertyOp35
 70
     1
102
RTVSPropertyOp36
 70
     1
102
RTVSPropertyOp37
 70
     1
102
RTVSPropertyOp38
 70
     1
102
RTVSPropertyOp39
 70
     1
102
RTVSPropertyOp40
 70
     1
102
RTVSPropertyOp41
 70
     1
102
RTVSPropertyOp42
 70
     1
102
RTVSPropertyOp43
 70
     1
102
RTVSPropertyOp44
 70
     1
102
RTVSPropertyOp45
 70
     1
102
RTVSPropertyOp46
 70
     1
102
RTVSPropertyOp47
 70
     1
102
RTVSPropertyOp48
 70
     1
102
RTVSPropertyOp49
 70
     1
102
RTVSPropertyOp50
 70
     1
102
RTVSPropertyOp51
 70
     0
102
RTVSPropertyOp52
 70
     0
102
RTVSPropertyOp53
 70
     1
102
RTVSPropertyOp54
 70
     1
102
RTVSPropertyOp55
 70
     1
102
RTVSPropertyOp56
 70
     1
102
RTVSPropertyOp57
 70
     1
102
RTVSPropertyOp58
 70
     1
102
RTVSPropertyOp59
 70
     1
102
RTVSPropertyOp60
 70
     1
102
RTVSPropertyOp61
 70
     1
102
RTVSPropertyOp62
 70
     1
  0
XRECORD
  5
4973
102
{ACAD_REACTORS
330
4972
102
}
330
4972
100
AcDbXrecord
280
     1
102
RTVSPost2010Prop28
280
     0
102
RTVSPost2010PropOp28
 70
     1
102
RTVSPost2010Prop29
280
     1
102
RTVSPost2010PropOp29
 70
     1
102
RTVSPost2010Prop30
280
     1
102
RTVSPost2010PropOp30
 70
     1
102
RTVSPost2010Prop31
280
     0
102
RTVSPost2010PropOp31
 70
     1
102
RTVSPost2010Prop32
280
     0
102
RTVSPost2010PropOp32
 70
     1
102
RTVSPost2010Prop33
280
     0
102
RTVSPost2010PropOp33
 70
     1
102
RTVSPost2010Prop34
280
     0
102
RTVSPost2010PropOp34
 70
     1
102
RTVSPost2010Prop35
280
     0
102
RTVSPost2010PropOp35
 70
     1
102
RTVSPost2010Prop36
280
     0
102
RTVSPost2010PropOp36
 70
     1
102
RTVSPost2010Prop37
 90
       50
102
RTVSPost2010PropOp37
 70
     1
102
RTVSPost2010Prop38
140
0.0
102
RTVSPost2010PropOp38
 70
     1
102
RTVSPost2010Prop39
140
1.0
102
RTVSPost2010PropOp39
 70
     1
102
RTVSPost2010Prop40
 90
        0
102
RTVSPost2010PropOp40
 70
     1
102
RTVSPost2010Prop41ColorIndex
 90
       18
102
RTVSPost2010Prop41ColorRGB
 90
        0
102
RTVSPost2010PropOp41
 70
     1
102
RTVSPost2010Prop42
 90
       50
102
RTVSPost2010PropOp42
 70
     1
102
RTVSPost2010Prop43
 90
        3
102
RTVSPost2010PropOp43
 70
     1
102
RTVSPost2010Prop44ColorIndex
 90
        5
102
RTVSPost2010Prop44ColorRGB
 90
      255
102
RTVSPost2010PropOp44
 70
     1
102
RTVSPost2010Prop45
280
     0
102
RTVSPost2010PropOp45
 70
     1
102
RTVSPost2010Prop46
 90
       50
102
RTVSPost2010PropOp46
 70
     1
102
RTVSPost2010Prop47
 90
       50
102
RTVSPost2010PropOp47
 70
     1
102
RTVSPost2010Prop48
 90
       50
102
RTVSPost2010PropOp48
 70
     1
102
RTVSPost2010Prop49
280
     0
102
RTVSPost2010PropOp49
 70
     1
102
RTVSPost2010Prop50
 90
       50
102
RTVSPost2010PropOp50
 70
     1
102
RTVSPost2010Prop51ColorIndex
 90
      256
102
RTVSPost2010Prop51ColorRGB
 90
-16777216
102
RTVSPost2010PropOp51
 70
     0
102
RTVSPost2010Prop52
140
1.0
102
RTVSPost2010PropOp52
 70
     0
102
RTVSPost2010Prop53
 90
        2
102
RTVSPost2010PropOp53
 70
     1
102
RTVSPost2010Prop54
  1
strokes_ogs.tif
102
RTVSPost2010PropOp54
 70
     1
102
RTVSPost2010Prop55
280
     0
102
RTVSPost2010PropOp55
 70
     1
102
RTVSPost2010Prop56
140
1.0
102
RTVSPost2010PropOp56
 70
     1
102
RTVSPost2010Prop57
140
1.0
102
RTVSPost2010PropOp57
 70
     1
102
RTVSPropertyOp0
 70
     1
102
RTVSPropertyOp1
 70
     1
102
RTVSPropertyOp2
 70
     1
102
RTVSPropertyOp3
 70
     1
102
RTVSPropertyOp4
 70
     1
102
RTVSPropertyOp5
 70
     1
102
RTVSPropertyOp6
 70
     1
102
RTVSPropertyOp7
 70
     1
102
RTVSPropertyOp8
 70
     1
102
RTVSPropertyOp9
 70
     1
102
RTVSPropertyOp10
 70
     1
102
RTVSPropertyOp11
 70
     1
102
RTVSPropertyOp12
 70
     1
102
RTVSPropertyOp13
 70
     1
102
RTVSPropertyOp14
 70
     1
102
RTVSPropertyOp15
 70
     1
102
RTVSPropertyOp16
 70
     1
102
RTVSPropertyOp17
 70
     1
102
RTVSPropertyOp18
 70
     1
102
RTVSPropertyOp19
 70
     1
102
RTVSPropertyOp20
 70
     1
102
RTVSPropertyOp21
 70
     1
102
RTVSPropertyOp22
 70
     1
102
RTVSPropertyOp23
 70
     1
102
RTVSPropertyOp24
 70
     1
102
RTVSPropertyOp25
 70
     1
102
RTVSPropertyOp26
 70
     1
102
RTVSPropertyOp27
 70
     1
102
RTVSPropertyOp28
 70
     1
102
RTVSPropertyOp29
 70
     1
102
RTVSPropertyOp30
 70
     1
102
RTVSPropertyOp31
 70
     1
102
RTVSPropertyOp32
 70
     1
102
RTVSPropertyOp33
 70
     1
102
RTVSPropertyOp34
 70
     1
102
RTVSPropertyOp35
 70
     1
102
RTVSPropertyOp36
 70
     1
102
RTVSPropertyOp37
 70
     1
102
RTVSPropertyOp38
 70
     1
102
RTVSPropertyOp39
 70
     1
102
RTVSPropertyOp40
 70
     1
102
RTVSPropertyOp41
 70
     1
102
RTVSPropertyOp42
 70
     1
102
RTVSPropertyOp43
 70
     1
102
RTVSPropertyOp44
 70
     1
102
RTVSPropertyOp45
 70
     1
102
RTVSPropertyOp46
 70
     1
102
RTVSPropertyOp47
 70
     1
102
RTVSPropertyOp48
 70
     1
102
RTVSPropertyOp49
 70
     1
102
RTVSPropertyOp50
 70
     1
102
RTVSPropertyOp51
 70
     0
102
RTVSPropertyOp52
 70
     0
102
RTVSPropertyOp53
 70
     1
102
RTVSPropertyOp54
 70
     1
102
RTVSPropertyOp55
 70
     1
102
RTVSPropertyOp56
 70
     1
102
RTVSPropertyOp57
 70
     1
102
RTVSPropertyOp58
 70
     1
102
RTVSPropertyOp59
 70
     1
102
RTVSPropertyOp60
 70
     1
102
RTVSPropertyOp61
 70
     1
102
RTVSPropertyOp62
 70
     1
  0
XRECORD
  5
498F
102
{ACAD_REACTORS
330
498E
102
}
330
498E
100
AcDbXrecord
280
     1
102
RTVSPost2010Prop28
280
     0
102
RTVSPost2010PropOp28
 70
     0
102
RTVSPost2010Prop29
280
     1
102
RTVSPost2010PropOp29
 70
     0
102
RTVSPost2010Prop30
280
     1
102
RTVSPost2010PropOp30
 70
     0
102
RTVSPost2010Prop31
280
     0
102
RTVSPost2010PropOp31
 70
     0
102
RTVSPost2010Prop32
280
     0
102
RTVSPost2010PropOp32
 70
     0
102
RTVSPost2010Prop33
280
     0
102
RTVSPost2010PropOp33
 70
     0
102
RTVSPost2010Prop34
280
     0
102
RTVSPost2010PropOp34
 70
     0
102
RTVSPost2010Prop35
280
     0
102
RTVSPost2010PropOp35
 70
     0
102
RTVSPost2010Prop36
280
     0
102
RTVSPost2010PropOp36
 70
     0
102
RTVSPost2010Prop37
 90
       50
102
RTVSPost2010PropOp37
 70
     0
102
RTVSPost2010Prop38
140
0.0
102
RTVSPost2010PropOp38
 70
     0
102
RTVSPost2010Prop39
140
1.0
102
RTVSPost2010PropOp39
 70
     0
102
RTVSPost2010Prop40
 90
        0
102
RTVSPost2010PropOp40
 70
     0
102
RTVSPost2010Prop41ColorIndex
 90
       18
102
RTVSPost2010Prop41ColorRGB
 90
        0
102
RTVSPost2010PropOp41
 70
     0
102
RTVSPost2010Prop42
 90
       50
102
RTVSPost2010PropOp42
 70
     0
102
RTVSPost2010Prop43
 90
        3
102
RTVSPost2010PropOp43
 70
     0
102
RTVSPost2010Prop44ColorIndex
 90
        5
102
RTVSPost2010Prop44ColorRGB
 90
      255
102
RTVSPost2010PropOp44
 70
     0
102
RTVSPost2010Prop45
280
     0
102
RTVSPost2010PropOp45
 70
     0
102
RTVSPost2010Prop46
 90
       50
102
RTVSPost2010PropOp46
 70
     0
102
RTVSPost2010Prop47
 90
       50
102
RTVSPost2010PropOp47
 70
     0
102
RTVSPost2010Prop48
 90
       50
102
RTVSPost2010PropOp48
 70
     0
102
RTVSPost2010Prop49
280
     0
102
RTVSPost2010PropOp49
 70
     0
102
RTVSPost2010Prop50
 90
       50
102
RTVSPost2010PropOp50
 70
     0
102
RTVSPost2010Prop51ColorIndex
 90
      256
102
RTVSPost2010Prop51ColorRGB
 90
-16777216
102
RTVSPost2010PropOp51
 70
     0
102
RTVSPost2010Prop52
140
1.0
102
RTVSPost2010PropOp52
 70
     0
102
RTVSPost2010Prop53
 90
        2
102
RTVSPost2010PropOp53
 70
     0
102
RTVSPost2010Prop54
  1
strokes_ogs.tif
102
RTVSPost2010PropOp54
 70
     0
102
RTVSPost2010Prop55
280
     0
102
RTVSPost2010PropOp55
 70
     0
102
RTVSPost2010Prop56
140
1.0
102
RTVSPost2010PropOp56
 70
     0
102
RTVSPost2010Prop57
140
1.0
102
RTVSPost2010PropOp57
 70
     0
102
RTVSPropertyOp0
 70
     0
102
RTVSPropertyOp1
 70
     0
102
RTVSPropertyOp2
 70
     0
102
RTVSPropertyOp3
 70
     0
102
RTVSPropertyOp4
 70
     0
102
RTVSPropertyOp5
 70
     0
102
RTVSPropertyOp6
 70
     0
102
RTVSPropertyOp7
 70
     0
102
RTVSPropertyOp8
 70
     0
102
RTVSPropertyOp9
 70
     0
102
RTVSPropertyOp10
 70
     0
102
RTVSPropertyOp11
 70
     0
102
RTVSPropertyOp12
 70
     0
102
RTVSPropertyOp13
 70
     0
102
RTVSPropertyOp14
 70
     2
102
RTVSPropertyOp15
 70
     0
102
RTVSPropertyOp16
 70
     0
102
RTVSPropertyOp17
 70
     0
102
RTVSPropertyOp18
 70
     0
102
RTVSPropertyOp19
 70
     0
102
RTVSPropertyOp20
 70
     0
102
RTVSPropertyOp21
 70
     0
102
RTVSPropertyOp22
 70
     0
102
RTVSPropertyOp23
 70
     0
102
RTVSPropertyOp24
 70
     0
102
RTVSPropertyOp25
 70
     0
102
RTVSPropertyOp26
 70
     0
102
RTVSPropertyOp27
 70
     0
102
RTVSPropertyOp28
 70
     0
102
RTVSPropertyOp29
 70
     0
102
RTVSPropertyOp30
 70
     0
102
RTVSPropertyOp31
 70
     0
102
RTVSPropertyOp32
 70
     0
102
RTVSPropertyOp33
 70
     0
102
RTVSPropertyOp34
 70
     0
102
RTVSPropertyOp35
 70
     0
102
RTVSPropertyOp36
 70
     0
102
RTVSPropertyOp37
 70
     0
102
RTVSPropertyOp38
 70
     0
102
RTVSPropertyOp39
 70
     0
102
RTVSPropertyOp40
 70
     0
102
RTVSPropertyOp41
 70
     0
102
RTVSPropertyOp42
 70
     0
102
RTVSPropertyOp43
 70
     0
102
RTVSPropertyOp44
 70
     0
102
RTVSPropertyOp45
 70
     0
102
RTVSPropertyOp46
 70
     0
102
RTVSPropertyOp47
 70
     0
102
RTVSPropertyOp48
 70
     0
102
RTVSPropertyOp49
 70
     0
102
RTVSPropertyOp50
 70
     0
102
RTVSPropertyOp51
 70
     0
102
RTVSPropertyOp52
 70
     0
102
RTVSPropertyOp53
 70
     0
102
RTVSPropertyOp54
 70
     0
102
RTVSPropertyOp55
 70
     0
102
RTVSPropertyOp56
 70
     0
102
RTVSPropertyOp57
 70
     0
102
RTVSPropertyOp58
 70
     1
102
RTVSPropertyOp59
 70
     1
102
RTVSPropertyOp60
 70
     1
102
RTVSPropertyOp61
 70
     1
102
RTVSPropertyOp62
 70
     1
  0
XRECORD
  5
497F
102
{ACAD_REACTORS
330
497E
102
}
330
497E
100
AcDbXrecord
280
     1
102
RTVSPost2010Prop28
280
     0
102
RTVSPost2010PropOp28
 70
     1
102
RTVSPost2010Prop29
280
     1
102
RTVSPost2010PropOp29
 70
     1
102
RTVSPost2010Prop30
280
     1
102
RTVSPost2010PropOp30
 70
     1
102
RTVSPost2010Prop31
280
     0
102
RTVSPost2010PropOp31
 70
     1
102
RTVSPost2010Prop32
280
     0
102
RTVSPost2010PropOp32
 70
     1
102
RTVSPost2010Prop33
280
     0
102
RTVSPost2010PropOp33
 70
     1
102
RTVSPost2010Prop34
280
     0
102
RTVSPost2010PropOp34
 70
     1
102
RTVSPost2010Prop35
280
     0
102
RTVSPost2010PropOp35
 70
     1
102
RTVSPost2010Prop36
280
     0
102
RTVSPost2010PropOp36
 70
     1
102
RTVSPost2010Prop37
 90
       50
102
RTVSPost2010PropOp37
 70
     1
102
RTVSPost2010Prop38
140
0.0
102
RTVSPost2010PropOp38
 70
     1
102
RTVSPost2010Prop39
140
1.0
102
RTVSPost2010PropOp39
 70
     1
102
RTVSPost2010Prop40
 90
        0
102
RTVSPost2010PropOp40
 70
     1
102
RTVSPost2010Prop41ColorIndex
 90
       18
102
RTVSPost2010Prop41ColorRGB
 90
        0
102
RTVSPost2010PropOp41
 70
     1
102
RTVSPost2010Prop42
 90
       50
102
RTVSPost2010PropOp42
 70
     1
102
RTVSPost2010Prop43
 90
        3
102
RTVSPost2010PropOp43
 70
     1
102
RTVSPost2010Prop44ColorIndex
 90
        5
102
RTVSPost2010Prop44ColorRGB
 90
      255
102
RTVSPost2010PropOp44
 70
     1
102
RTVSPost2010Prop45
280
     0
102
RTVSPost2010PropOp45
 70
     1
102
RTVSPost2010Prop46
 90
       50
102
RTVSPost2010PropOp46
 70
     1
102
RTVSPost2010Prop47
 90
       50
102
RTVSPost2010PropOp47
 70
     1
102
RTVSPost2010Prop48
 90
       50
102
RTVSPost2010PropOp48
 70
     1
102
RTVSPost2010Prop49
280
     0
102
RTVSPost2010PropOp49
 70
     1
102
RTVSPost2010Prop50
 90
       50
102
RTVSPost2010PropOp50
 70
     1
102
RTVSPost2010Prop51ColorIndex
 90
      256
102
RTVSPost2010Prop51ColorRGB
 90
-16777216
102
RTVSPost2010PropOp51
 70
     0
102
RTVSPost2010Prop52
140
1.0
102
RTVSPost2010PropOp52
 70
     0
102
RTVSPost2010Prop53
 90
        2
102
RTVSPost2010PropOp53
 70
     1
102
RTVSPost2010Prop54
  1
strokes_ogs.tif
102
RTVSPost2010PropOp54
 70
     1
102
RTVSPost2010Prop55
280
     0
102
RTVSPost2010PropOp55
 70
     1
102
RTVSPost2010Prop56
140
1.0
102
RTVSPost2010PropOp56
 70
     1
102
RTVSPost2010Prop57
140
1.0
102
RTVSPost2010PropOp57
 70
     1
102
RTVSPropertyOp0
 70
     1
102
RTVSPropertyOp1
 70
     1
102
RTVSPropertyOp2
 70
     1
102
RTVSPropertyOp3
 70
     1
102
RTVSPropertyOp4
 70
     1
102
RTVSPropertyOp5
 70
     1
102
RTVSPropertyOp6
 70
     1
102
RTVSPropertyOp7
 70
     1
102
RTVSPropertyOp8
 70
     1
102
RTVSPropertyOp9
 70
     1
102
RTVSPropertyOp10
 70
     1
102
RTVSPropertyOp11
 70
     1
102
RTVSPropertyOp12
 70
     1
102
RTVSPropertyOp13
 70
     1
102
RTVSPropertyOp14
 70
     1
102
RTVSPropertyOp15
 70
     1
102
RTVSPropertyOp16
 70
     1
102
RTVSPropertyOp17
 70
     1
102
RTVSPropertyOp18
 70
     1
102
RTVSPropertyOp19
 70
     1
102
RTVSPropertyOp20
 70
     1
102
RTVSPropertyOp21
 70
     1
102
RTVSPropertyOp22
 70
     1
102
RTVSPropertyOp23
 70
     1
102
RTVSPropertyOp24
 70
     1
102
RTVSPropertyOp25
 70
     1
102
RTVSPropertyOp26
 70
     1
102
RTVSPropertyOp27
 70
     1
102
RTVSPropertyOp28
 70
     1
102
RTVSPropertyOp29
 70
     1
102
RTVSPropertyOp30
 70
     1
102
RTVSPropertyOp31
 70
     1
102
RTVSPropertyOp32
 70
     1
102
RTVSPropertyOp33
 70
     1
102
RTVSPropertyOp34
 70
     1
102
RTVSPropertyOp35
 70
     1
102
RTVSPropertyOp36
 70
     1
102
RTVSPropertyOp37
 70
     1
102
RTVSPropertyOp38
 70
     1
102
RTVSPropertyOp39
 70
     1
102
RTVSPropertyOp40
 70
     1
102
RTVSPropertyOp41
 70
     1
102
RTVSPropertyOp42
 70
     1
102
RTVSPropertyOp43
 70
     1
102
RTVSPropertyOp44
 70
     1
102
RTVSPropertyOp45
 70
     1
102
RTVSPropertyOp46
 70
     1
102
RTVSPropertyOp47
 70
     1
102
RTVSPropertyOp48
 70
     1
102
RTVSPropertyOp49
 70
     1
102
RTVSPropertyOp50
 70
     1
102
RTVSPropertyOp51
 70
     0
102
RTVSPropertyOp52
 70
     0
102
RTVSPropertyOp53
 70
     1
102
RTVSPropertyOp54
 70
     1
102
RTVSPropertyOp55
 70
     1
102
RTVSPropertyOp56
 70
     1
102
RTVSPropertyOp57
 70
     1
102
RTVSPropertyOp58
 70
     1
102
RTVSPropertyOp59
 70
     1
102
RTVSPropertyOp60
 70
     1
102
RTVSPropertyOp61
 70
     1
102
RTVSPropertyOp62
 70
     1
  0
XRECORD
  5
4991
102
{ACAD_REACTORS
330
4990
102
}
330
4990
100
AcDbXrecord
280
     1
102
RTVSPost2010Prop28
280
     0
102
RTVSPost2010PropOp28
 70
     0
102
RTVSPost2010Prop29
280
     1
102
RTVSPost2010PropOp29
 70
     0
102
RTVSPost2010Prop30
280
     1
102
RTVSPost2010PropOp30
 70
     0
102
RTVSPost2010Prop31
280
     0
102
RTVSPost2010PropOp31
 70
     0
102
RTVSPost2010Prop32
280
     0
102
RTVSPost2010PropOp32
 70
     0
102
RTVSPost2010Prop33
280
     0
102
RTVSPost2010PropOp33
 70
     0
102
RTVSPost2010Prop34
280
     0
102
RTVSPost2010PropOp34
 70
     0
102
RTVSPost2010Prop35
280
     0
102
RTVSPost2010PropOp35
 70
     0
102
RTVSPost2010Prop36
280
     0
102
RTVSPost2010PropOp36
 70
     0
102
RTVSPost2010Prop37
 90
       50
102
RTVSPost2010PropOp37
 70
     0
102
RTVSPost2010Prop38
140
0.0
102
RTVSPost2010PropOp38
 70
     0
102
RTVSPost2010Prop39
140
1.0
102
RTVSPost2010PropOp39
 70
     0
102
RTVSPost2010Prop40
 90
        0
102
RTVSPost2010PropOp40
 70
     0
102
RTVSPost2010Prop41ColorIndex
 90
       18
102
RTVSPost2010Prop41ColorRGB
 90
        0
102
RTVSPost2010PropOp41
 70
     0
102
RTVSPost2010Prop42
 90
       50
102
RTVSPost2010PropOp42
 70
     0
102
RTVSPost2010Prop43
 90
        3
102
RTVSPost2010PropOp43
 70
     0
102
RTVSPost2010Prop44ColorIndex
 90
        5
102
RTVSPost2010Prop44ColorRGB
 90
      255
102
RTVSPost2010PropOp44
 70
     0
102
RTVSPost2010Prop45
280
     0
102
RTVSPost2010PropOp45
 70
     0
102
RTVSPost2010Prop46
 90
       50
102
RTVSPost2010PropOp46
 70
     0
102
RTVSPost2010Prop47
 90
       50
102
RTVSPost2010PropOp47
 70
     0
102
RTVSPost2010Prop48
 90
       50
102
RTVSPost2010PropOp48
 70
     0
102
RTVSPost2010Prop49
280
     0
102
RTVSPost2010PropOp49
 70
     0
102
RTVSPost2010Prop50
 90
       50
102
RTVSPost2010PropOp50
 70
     0
102
RTVSPost2010Prop51ColorIndex
 90
      256
102
RTVSPost2010Prop51ColorRGB
 90
-16777216
102
RTVSPost2010PropOp51
 70
     0
102
RTVSPost2010Prop52
140
1.0
102
RTVSPost2010PropOp52
 70
     0
102
RTVSPost2010Prop53
 90
        2
102
RTVSPost2010PropOp53
 70
     0
102
RTVSPost2010Prop54
  1
strokes_ogs.tif
102
RTVSPost2010PropOp54
 70
     0
102
RTVSPost2010Prop55
280
     0
102
RTVSPost2010PropOp55
 70
     0
102
RTVSPost2010Prop56
140
1.0
102
RTVSPost2010PropOp56
 70
     0
102
RTVSPost2010Prop57
140
1.0
102
RTVSPost2010PropOp57
 70
     0
102
RTVSPropertyOp0
 70
     0
102
RTVSPropertyOp1
 70
     0
102
RTVSPropertyOp2
 70
     0
102
RTVSPropertyOp3
 70
     0
102
RTVSPropertyOp4
 70
     0
102
RTVSPropertyOp5
 70
     0
102
RTVSPropertyOp6
 70
     0
102
RTVSPropertyOp7
 70
     0
102
RTVSPropertyOp8
 70
     0
102
RTVSPropertyOp9
 70
     0
102
RTVSPropertyOp10
 70
     0
102
RTVSPropertyOp11
 70
     0
102
RTVSPropertyOp12
 70
     0
102
RTVSPropertyOp13
 70
     0
102
RTVSPropertyOp14
 70
     2
102
RTVSPropertyOp15
 70
     0
102
RTVSPropertyOp16
 70
     0
102
RTVSPropertyOp17
 70
     0
102
RTVSPropertyOp18
 70
     0
102
RTVSPropertyOp19
 70
     0
102
RTVSPropertyOp20
 70
     0
102
RTVSPropertyOp21
 70
     0
102
RTVSPropertyOp22
 70
     0
102
RTVSPropertyOp23
 70
     0
102
RTVSPropertyOp24
 70
     0
102
RTVSPropertyOp25
 70
     0
102
RTVSPropertyOp26
 70
     0
102
RTVSPropertyOp27
 70
     0
102
RTVSPropertyOp28
 70
     0
102
RTVSPropertyOp29
 70
     0
102
RTVSPropertyOp30
 70
     0
102
RTVSPropertyOp31
 70
     0
102
RTVSPropertyOp32
 70
     0
102
RTVSPropertyOp33
 70
     0
102
RTVSPropertyOp34
 70
     0
102
RTVSPropertyOp35
 70
     0
102
RTVSPropertyOp36
 70
     0
102
RTVSPropertyOp37
 70
     0
102
RTVSPropertyOp38
 70
     0
102
RTVSPropertyOp39
 70
     0
102
RTVSPropertyOp40
 70
     0
102
RTVSPropertyOp41
 70
     0
102
RTVSPropertyOp42
 70
     0
102
RTVSPropertyOp43
 70
     0
102
RTVSPropertyOp44
 70
     0
102
RTVSPropertyOp45
 70
     0
102
RTVSPropertyOp46
 70
     0
102
RTVSPropertyOp47
 70
     0
102
RTVSPropertyOp48
 70
     0
102
RTVSPropertyOp49
 70
     0
102
RTVSPropertyOp50
 70
     0
102
RTVSPropertyOp51
 70
     0
102
RTVSPropertyOp52
 70
     0
102
RTVSPropertyOp53
 70
     0
102
RTVSPropertyOp54
 70
     0
102
RTVSPropertyOp55
 70
     0
102
RTVSPropertyOp56
 70
     0
102
RTVSPropertyOp57
 70
     0
102
RTVSPropertyOp58
 70
     1
102
RTVSPropertyOp59
 70
     1
102
RTVSPropertyOp60
 70
     1
102
RTVSPropertyOp61
 70
     1
102
RTVSPropertyOp62
 70
     1
  0
XRECORD
  5
4977
102
{ACAD_REACTORS
330
4976
102
}
330
4976
100
AcDbXrecord
280
     1
102
RTVSPost2010Prop28
280
     0
102
RTVSPost2010PropOp28
 70
     1
102
RTVSPost2010Prop29
280
     1
102
RTVSPost2010PropOp29
 70
     1
102
RTVSPost2010Prop30
280
     1
102
RTVSPost2010PropOp30
 70
     1
102
RTVSPost2010Prop31
280
     0
102
RTVSPost2010PropOp31
 70
     1
102
RTVSPost2010Prop32
280
     0
102
RTVSPost2010PropOp32
 70
     1
102
RTVSPost2010Prop33
280
     0
102
RTVSPost2010PropOp33
 70
     1
102
RTVSPost2010Prop34
280
     0
102
RTVSPost2010PropOp34
 70
     1
102
RTVSPost2010Prop35
280
     0
102
RTVSPost2010PropOp35
 70
     1
102
RTVSPost2010Prop36
280
     0
102
RTVSPost2010PropOp36
 70
     1
102
RTVSPost2010Prop37
 90
       50
102
RTVSPost2010PropOp37
 70
     1
102
RTVSPost2010Prop38
140
0.0
102
RTVSPost2010PropOp38
 70
     1
102
RTVSPost2010Prop39
140
1.0
102
RTVSPost2010PropOp39
 70
     1
102
RTVSPost2010Prop40
 90
        0
102
RTVSPost2010PropOp40
 70
     1
102
RTVSPost2010Prop41ColorIndex
 90
       18
102
RTVSPost2010Prop41ColorRGB
 90
        0
102
RTVSPost2010PropOp41
 70
     1
102
RTVSPost2010Prop42
 90
       50
102
RTVSPost2010PropOp42
 70
     1
102
RTVSPost2010Prop43
 90
        3
102
RTVSPost2010PropOp43
 70
     1
102
RTVSPost2010Prop44ColorIndex
 90
        5
102
RTVSPost2010Prop44ColorRGB
 90
      255
102
RTVSPost2010PropOp44
 70
     1
102
RTVSPost2010Prop45
280
     0
102
RTVSPost2010PropOp45
 70
     1
102
RTVSPost2010Prop46
 90
       50
102
RTVSPost2010PropOp46
 70
     1
102
RTVSPost2010Prop47
 90
       50
102
RTVSPost2010PropOp47
 70
     1
102
RTVSPost2010Prop48
 90
       50
102
RTVSPost2010PropOp48
 70
     1
102
RTVSPost2010Prop49
280
     0
102
RTVSPost2010PropOp49
 70
     1
102
RTVSPost2010Prop50
 90
       50
102
RTVSPost2010PropOp50
 70
     1
102
RTVSPost2010Prop51ColorIndex
 90
      256
102
RTVSPost2010Prop51ColorRGB
 90
-16777216
102
RTVSPost2010PropOp51
 70
     0
102
RTVSPost2010Prop52
140
1.0
102
RTVSPost2010PropOp52
 70
     0
102
RTVSPost2010Prop53
 90
        2
102
RTVSPost2010PropOp53
 70
     1
102
RTVSPost2010Prop54
  1
strokes_ogs.tif
102
RTVSPost2010PropOp54
 70
     1
102
RTVSPost2010Prop55
280
     0
102
RTVSPost2010PropOp55
 70
     1
102
RTVSPost2010Prop56
140
1.0
102
RTVSPost2010PropOp56
 70
     1
102
RTVSPost2010Prop57
140
1.0
102
RTVSPost2010PropOp57
 70
     1
102
RTVSPropertyOp0
 70
     1
102
RTVSPropertyOp1
 70
     1
102
RTVSPropertyOp2
 70
     1
102
RTVSPropertyOp3
 70
     1
102
RTVSPropertyOp4
 70
     1
102
RTVSPropertyOp5
 70
     1
102
RTVSPropertyOp6
 70
     1
102
RTVSPropertyOp7
 70
     1
102
RTVSPropertyOp8
 70
     1
102
RTVSPropertyOp9
 70
     1
102
RTVSPropertyOp10
 70
     1
102
RTVSPropertyOp11
 70
     1
102
RTVSPropertyOp12
 70
     1
102
RTVSPropertyOp13
 70
     1
102
RTVSPropertyOp14
 70
     1
102
RTVSPropertyOp15
 70
     1
102
RTVSPropertyOp16
 70
     1
102
RTVSPropertyOp17
 70
     1
102
RTVSPropertyOp18
 70
     1
102
RTVSPropertyOp19
 70
     1
102
RTVSPropertyOp20
 70
     1
102
RTVSPropertyOp21
 70
     1
102
RTVSPropertyOp22
 70
     1
102
RTVSPropertyOp23
 70
     1
102
RTVSPropertyOp24
 70
     1
102
RTVSPropertyOp25
 70
     1
102
RTVSPropertyOp26
 70
     1
102
RTVSPropertyOp27
 70
     1
102
RTVSPropertyOp28
 70
     1
102
RTVSPropertyOp29
 70
     1
102
RTVSPropertyOp30
 70
     1
102
RTVSPropertyOp31
 70
     1
102
RTVSPropertyOp32
 70
     1
102
RTVSPropertyOp33
 70
     1
102
RTVSPropertyOp34
 70
     1
102
RTVSPropertyOp35
 70
     1
102
RTVSPropertyOp36
 70
     1
102
RTVSPropertyOp37
 70
     1
102
RTVSPropertyOp38
 70
     1
102
RTVSPropertyOp39
 70
     1
102
RTVSPropertyOp40
 70
     1
102
RTVSPropertyOp41
 70
     1
102
RTVSPropertyOp42
 70
     1
102
RTVSPropertyOp43
 70
     1
102
RTVSPropertyOp44
 70
     1
102
RTVSPropertyOp45
 70
     1
102
RTVSPropertyOp46
 70
     1
102
RTVSPropertyOp47
 70
     1
102
RTVSPropertyOp48
 70
     1
102
RTVSPropertyOp49
 70
     1
102
RTVSPropertyOp50
 70
     1
102
RTVSPropertyOp51
 70
     0
102
RTVSPropertyOp52
 70
     0
102
RTVSPropertyOp53
 70
     1
102
RTVSPropertyOp54
 70
     1
102
RTVSPropertyOp55
 70
     1
102
RTVSPropertyOp56
 70
     1
102
RTVSPropertyOp57
 70
     1
102
RTVSPropertyOp58
 70
     1
102
RTVSPropertyOp59
 70
     1
102
RTVSPropertyOp60
 70
     1
102
RTVSPropertyOp61
 70
     1
102
RTVSPropertyOp62
 70
     1
  0
XRECORD
  5
498D
102
{ACAD_REACTORS
330
498C
102
}
330
498C
100
AcDbXrecord
280
     1
102
RTVSPost2010Prop28
280
     0
102
RTVSPost2010PropOp28
 70
     1
102
RTVSPost2010Prop29
280
     1
102
RTVSPost2010PropOp29
 70
     1
102
RTVSPost2010Prop30
280
     1
102
RTVSPost2010PropOp30
 70
     1
102
RTVSPost2010Prop31
280
     0
102
RTVSPost2010PropOp31
 70
     1
102
RTVSPost2010Prop32
280
     0
102
RTVSPost2010PropOp32
 70
     1
102
RTVSPost2010Prop33
280
     0
102
RTVSPost2010PropOp33
 70
     1
102
RTVSPost2010Prop34
280
     0
102
RTVSPost2010PropOp34
 70
     1
102
RTVSPost2010Prop35
280
     0
102
RTVSPost2010PropOp35
 70
     1
102
RTVSPost2010Prop36
280
     0
102
RTVSPost2010PropOp36
 70
     1
102
RTVSPost2010Prop37
 90
       50
102
RTVSPost2010PropOp37
 70
     1
102
RTVSPost2010Prop38
140
0.0
102
RTVSPost2010PropOp38
 70
     1
102
RTVSPost2010Prop39
140
1.0
102
RTVSPost2010PropOp39
 70
     1
102
RTVSPost2010Prop40
 90
        0
102
RTVSPost2010PropOp40
 70
     1
102
RTVSPost2010Prop41ColorIndex
 90
       18
102
RTVSPost2010Prop41ColorRGB
 90
        0
102
RTVSPost2010PropOp41
 70
     1
102
RTVSPost2010Prop42
 90
       50
102
RTVSPost2010PropOp42
 70
     1
102
RTVSPost2010Prop43
 90
        3
102
RTVSPost2010PropOp43
 70
     1
102
RTVSPost2010Prop44ColorIndex
 90
        5
102
RTVSPost2010Prop44ColorRGB
 90
      255
102
RTVSPost2010PropOp44
 70
     1
102
RTVSPost2010Prop45
280
     0
102
RTVSPost2010PropOp45
 70
     1
102
RTVSPost2010Prop46
 90
       50
102
RTVSPost2010PropOp46
 70
     1
102
RTVSPost2010Prop47
 90
       50
102
RTVSPost2010PropOp47
 70
     1
102
RTVSPost2010Prop48
 90
       50
102
RTVSPost2010PropOp48
 70
     1
102
RTVSPost2010Prop49
280
     0
102
RTVSPost2010PropOp49
 70
     1
102
RTVSPost2010Prop50
 90
       50
102
RTVSPost2010PropOp50
 70
     1
102
RTVSPost2010Prop51ColorIndex
 90
      256
102
RTVSPost2010Prop51ColorRGB
 90
-16777216
102
RTVSPost2010PropOp51
 70
     0
102
RTVSPost2010Prop52
140
1.0
102
RTVSPost2010PropOp52
 70
     0
102
RTVSPost2010Prop53
 90
        2
102
RTVSPost2010PropOp53
 70
     1
102
RTVSPost2010Prop54
  1
strokes_ogs.tif
102
RTVSPost2010PropOp54
 70
     1
102
RTVSPost2010Prop55
280
     0
102
RTVSPost2010PropOp55
 70
     1
102
RTVSPost2010Prop56
140
1.0
102
RTVSPost2010PropOp56
 70
     1
102
RTVSPost2010Prop57
140
1.0
102
RTVSPost2010PropOp57
 70
     1
102
RTVSPropertyOp0
 70
     1
102
RTVSPropertyOp1
 70
     1
102
RTVSPropertyOp2
 70
     1
102
RTVSPropertyOp3
 70
     1
102
RTVSPropertyOp4
 70
     1
102
RTVSPropertyOp5
 70
     1
102
RTVSPropertyOp6
 70
     1
102
RTVSPropertyOp7
 70
     1
102
RTVSPropertyOp8
 70
     1
102
RTVSPropertyOp9
 70
     1
102
RTVSPropertyOp10
 70
     1
102
RTVSPropertyOp11
 70
     1
102
RTVSPropertyOp12
 70
     1
102
RTVSPropertyOp13
 70
     1
102
RTVSPropertyOp14
 70
     1
102
RTVSPropertyOp15
 70
     1
102
RTVSPropertyOp16
 70
     1
102
RTVSPropertyOp17
 70
     1
102
RTVSPropertyOp18
 70
     1
102
RTVSPropertyOp19
 70
     1
102
RTVSPropertyOp20
 70
     1
102
RTVSPropertyOp21
 70
     1
102
RTVSPropertyOp22
 70
     1
102
RTVSPropertyOp23
 70
     1
102
RTVSPropertyOp24
 70
     1
102
RTVSPropertyOp25
 70
     1
102
RTVSPropertyOp26
 70
     1
102
RTVSPropertyOp27
 70
     1
102
RTVSPropertyOp28
 70
     1
102
RTVSPropertyOp29
 70
     1
102
RTVSPropertyOp30
 70
     1
102
RTVSPropertyOp31
 70
     1
102
RTVSPropertyOp32
 70
     1
102
RTVSPropertyOp33
 70
     1
102
RTVSPropertyOp34
 70
     1
102
RTVSPropertyOp35
 70
     1
102
RTVSPropertyOp36
 70
     1
102
RTVSPropertyOp37
 70
     1
102
RTVSPropertyOp38
 70
     1
102
RTVSPropertyOp39
 70
     1
102
RTVSPropertyOp40
 70
     1
102
RTVSPropertyOp41
 70
     1
102
RTVSPropertyOp42
 70
     1
102
RTVSPropertyOp43
 70
     1
102
RTVSPropertyOp44
 70
     1
102
RTVSPropertyOp45
 70
     1
102
RTVSPropertyOp46
 70
     1
102
RTVSPropertyOp47
 70
     1
102
RTVSPropertyOp48
 70
     1
102
RTVSPropertyOp49
 70
     1
102
RTVSPropertyOp50
 70
     1
102
RTVSPropertyOp51
 70
     0
102
RTVSPropertyOp52
 70
     0
102
RTVSPropertyOp53
 70
     1
102
RTVSPropertyOp54
 70
     1
102
RTVSPropertyOp55
 70
     1
102
RTVSPropertyOp56
 70
     1
102
RTVSPropertyOp57
 70
     1
102
RTVSPropertyOp58
 70
     1
102
RTVSPropertyOp59
 70
     1
102
RTVSPropertyOp60
 70
     1
102
RTVSPropertyOp61
 70
     1
102
RTVSPropertyOp62
 70
     1
  0
XRECORD
  5
498B
102
{ACAD_REACTORS
330
498A
102
}
330
498A
100
AcDbXrecord
280
     1
102
RTVSPost2010Prop28
280
     0
102
RTVSPost2010PropOp28
 70
     1
102
RTVSPost2010Prop29
280
     1
102
RTVSPost2010PropOp29
 70
     1
102
RTVSPost2010Prop30
280
     1
102
RTVSPost2010PropOp30
 70
     1
102
RTVSPost2010Prop31
280
     0
102
RTVSPost2010PropOp31
 70
     1
102
RTVSPost2010Prop32
280
     0
102
RTVSPost2010PropOp32
 70
     1
102
RTVSPost2010Prop33
280
     0
102
RTVSPost2010PropOp33
 70
     1
102
RTVSPost2010Prop34
280
     0
102
RTVSPost2010PropOp34
 70
     1
102
RTVSPost2010Prop35
280
     0
102
RTVSPost2010PropOp35
 70
     1
102
RTVSPost2010Prop36
280
     0
102
RTVSPost2010PropOp36
 70
     1
102
RTVSPost2010Prop37
 90
       50
102
RTVSPost2010PropOp37
 70
     1
102
RTVSPost2010Prop38
140
0.0
102
RTVSPost2010PropOp38
 70
     1
102
RTVSPost2010Prop39
140
1.0
102
RTVSPost2010PropOp39
 70
     1
102
RTVSPost2010Prop40
 90
        0
102
RTVSPost2010PropOp40
 70
     1
102
RTVSPost2010Prop41ColorIndex
 90
       18
102
RTVSPost2010Prop41ColorRGB
 90
        0
102
RTVSPost2010PropOp41
 70
     1
102
RTVSPost2010Prop42
 90
       50
102
RTVSPost2010PropOp42
 70
     1
102
RTVSPost2010Prop43
 90
        3
102
RTVSPost2010PropOp43
 70
     1
102
RTVSPost2010Prop44ColorIndex
 90
        5
102
RTVSPost2010Prop44ColorRGB
 90
      255
102
RTVSPost2010PropOp44
 70
     1
102
RTVSPost2010Prop45
280
     0
102
RTVSPost2010PropOp45
 70
     1
102
RTVSPost2010Prop46
 90
       50
102
RTVSPost2010PropOp46
 70
     1
102
RTVSPost2010Prop47
 90
       50
102
RTVSPost2010PropOp47
 70
     1
102
RTVSPost2010Prop48
 90
       50
102
RTVSPost2010PropOp48
 70
     1
102
RTVSPost2010Prop49
280
     0
102
RTVSPost2010PropOp49
 70
     1
102
RTVSPost2010Prop50
 90
       50
102
RTVSPost2010PropOp50
 70
     1
102
RTVSPost2010Prop51ColorIndex
 90
      256
102
RTVSPost2010Prop51ColorRGB
 90
-16777216
102
RTVSPost2010PropOp51
 70
     0
102
RTVSPost2010Prop52
140
1.0
102
RTVSPost2010PropOp52
 70
     0
102
RTVSPost2010Prop53
 90
        2
102
RTVSPost2010PropOp53
 70
     1
102
RTVSPost2010Prop54
  1
strokes_ogs.tif
102
RTVSPost2010PropOp54
 70
     1
102
RTVSPost2010Prop55
280
     0
102
RTVSPost2010PropOp55
 70
     1
102
RTVSPost2010Prop56
140
1.0
102
RTVSPost2010PropOp56
 70
     1
102
RTVSPost2010Prop57
140
1.0
102
RTVSPost2010PropOp57
 70
     1
102
RTVSPropertyOp0
 70
     1
102
RTVSPropertyOp1
 70
     1
102
RTVSPropertyOp2
 70
     1
102
RTVSPropertyOp3
 70
     1
102
RTVSPropertyOp4
 70
     1
102
RTVSPropertyOp5
 70
     1
102
RTVSPropertyOp6
 70
     1
102
RTVSPropertyOp7
 70
     1
102
RTVSPropertyOp8
 70
     1
102
RTVSPropertyOp9
 70
     1
102
RTVSPropertyOp10
 70
     1
102
RTVSPropertyOp11
 70
     1
102
RTVSPropertyOp12
 70
     1
102
RTVSPropertyOp13
 70
     1
102
RTVSPropertyOp14
 70
     1
102
RTVSPropertyOp15
 70
     1
102
RTVSPropertyOp16
 70
     1
102
RTVSPropertyOp17
 70
     1
102
RTVSPropertyOp18
 70
     1
102
RTVSPropertyOp19
 70
     1
102
RTVSPropertyOp20
 70
     1
102
RTVSPropertyOp21
 70
     1
102
RTVSPropertyOp22
 70
     1
102
RTVSPropertyOp23
 70
     1
102
RTVSPropertyOp24
 70
     1
102
RTVSPropertyOp25
 70
     1
102
RTVSPropertyOp26
 70
     1
102
RTVSPropertyOp27
 70
     1
102
RTVSPropertyOp28
 70
     1
102
RTVSPropertyOp29
 70
     1
102
RTVSPropertyOp30
 70
     1
102
RTVSPropertyOp31
 70
     1
102
RTVSPropertyOp32
 70
     1
102
RTVSPropertyOp33
 70
     1
102
RTVSPropertyOp34
 70
     1
102
RTVSPropertyOp35
 70
     1
102
RTVSPropertyOp36
 70
     1
102
RTVSPropertyOp37
 70
     1
102
RTVSPropertyOp38
 70
     1
102
RTVSPropertyOp39
 70
     1
102
RTVSPropertyOp40
 70
     1
102
RTVSPropertyOp41
 70
     1
102
RTVSPropertyOp42
 70
     1
102
RTVSPropertyOp43
 70
     1
102
RTVSPropertyOp44
 70
     1
102
RTVSPropertyOp45
 70
     1
102
RTVSPropertyOp46
 70
     1
102
RTVSPropertyOp47
 70
     1
102
RTVSPropertyOp48
 70
     1
102
RTVSPropertyOp49
 70
     1
102
RTVSPropertyOp50
 70
     1
102
RTVSPropertyOp51
 70
     0
102
RTVSPropertyOp52
 70
     0
102
RTVSPropertyOp53
 70
     1
102
RTVSPropertyOp54
 70
     1
102
RTVSPropertyOp55
 70
     1
102
RTVSPropertyOp56
 70
     1
102
RTVSPropertyOp57
 70
     1
102
RTVSPropertyOp58
 70
     1
102
RTVSPropertyOp59
 70
     1
102
RTVSPropertyOp60
 70
     1
102
RTVSPropertyOp61
 70
     1
102
RTVSPropertyOp62
 70
     1
  0
XRECORD
  5
4985
102
{ACAD_REACTORS
330
4984
102
}
330
4984
100
AcDbXrecord
280
     1
102
RTVSPost2010Prop28
280
     0
102
RTVSPost2010PropOp28
 70
     1
102
RTVSPost2010Prop29
280
     1
102
RTVSPost2010PropOp29
 70
     1
102
RTVSPost2010Prop30
280
     1
102
RTVSPost2010PropOp30
 70
     1
102
RTVSPost2010Prop31
280
     0
102
RTVSPost2010PropOp31
 70
     1
102
RTVSPost2010Prop32
280
     0
102
RTVSPost2010PropOp32
 70
     1
102
RTVSPost2010Prop33
280
     0
102
RTVSPost2010PropOp33
 70
     1
102
RTVSPost2010Prop34
280
     0
102
RTVSPost2010PropOp34
 70
     1
102
RTVSPost2010Prop35
280
     0
102
RTVSPost2010PropOp35
 70
     1
102
RTVSPost2010Prop36
280
     0
102
RTVSPost2010PropOp36
 70
     1
102
RTVSPost2010Prop37
 90
       50
102
RTVSPost2010PropOp37
 70
     1
102
RTVSPost2010Prop38
140
0.0
102
RTVSPost2010PropOp38
 70
     1
102
RTVSPost2010Prop39
140
1.0
102
RTVSPost2010PropOp39
 70
     1
102
RTVSPost2010Prop40
 90
        0
102
RTVSPost2010PropOp40
 70
     1
102
RTVSPost2010Prop41ColorIndex
 90
       18
102
RTVSPost2010Prop41ColorRGB
 90
        0
102
RTVSPost2010PropOp41
 70
     1
102
RTVSPost2010Prop42
 90
       50
102
RTVSPost2010PropOp42
 70
     1
102
RTVSPost2010Prop43
 90
        3
102
RTVSPost2010PropOp43
 70
     1
102
RTVSPost2010Prop44ColorIndex
 90
        5
102
RTVSPost2010Prop44ColorRGB
 90
      255
102
RTVSPost2010PropOp44
 70
     1
102
RTVSPost2010Prop45
280
     0
102
RTVSPost2010PropOp45
 70
     1
102
RTVSPost2010Prop46
 90
       50
102
RTVSPost2010PropOp46
 70
     1
102
RTVSPost2010Prop47
 90
       50
102
RTVSPost2010PropOp47
 70
     1
102
RTVSPost2010Prop48
 90
       50
102
RTVSPost2010PropOp48
 70
     1
102
RTVSPost2010Prop49
280
     0
102
RTVSPost2010PropOp49
 70
     1
102
RTVSPost2010Prop50
 90
       50
102
RTVSPost2010PropOp50
 70
     1
102
RTVSPost2010Prop51ColorIndex
 90
      256
102
RTVSPost2010Prop51ColorRGB
 90
-16777216
102
RTVSPost2010PropOp51
 70
     0
102
RTVSPost2010Prop52
140
1.0
102
RTVSPost2010PropOp52
 70
     0
102
RTVSPost2010Prop53
 90
        2
102
RTVSPost2010PropOp53
 70
     1
102
RTVSPost2010Prop54
  1
strokes_ogs.tif
102
RTVSPost2010PropOp54
 70
     1
102
RTVSPost2010Prop55
280
     0
102
RTVSPost2010PropOp55
 70
     1
102
RTVSPost2010Prop56
140
1.0
102
RTVSPost2010PropOp56
 70
     1
102
RTVSPost2010Prop57
140
1.0
102
RTVSPost2010PropOp57
 70
     1
102
RTVSPropertyOp0
 70
     1
102
RTVSPropertyOp1
 70
     1
102
RTVSPropertyOp2
 70
     1
102
RTVSPropertyOp3
 70
     1
102
RTVSPropertyOp4
 70
     1
102
RTVSPropertyOp5
 70
     1
102
RTVSPropertyOp6
 70
     1
102
RTVSPropertyOp7
 70
     1
102
RTVSPropertyOp8
 70
     1
102
RTVSPropertyOp9
 70
     1
102
RTVSPropertyOp10
 70
     1
102
RTVSPropertyOp11
 70
     1
102
RTVSPropertyOp12
 70
     1
102
RTVSPropertyOp13
 70
     1
102
RTVSPropertyOp14
 70
     1
102
RTVSPropertyOp15
 70
     1
102
RTVSPropertyOp16
 70
     1
102
RTVSPropertyOp17
 70
     1
102
RTVSPropertyOp18
 70
     1
102
RTVSPropertyOp19
 70
     1
102
RTVSPropertyOp20
 70
     1
102
RTVSPropertyOp21
 70
     1
102
RTVSPropertyOp22
 70
     1
102
RTVSPropertyOp23
 70
     1
102
RTVSPropertyOp24
 70
     1
102
RTVSPropertyOp25
 70
     1
102
RTVSPropertyOp26
 70
     1
102
RTVSPropertyOp27
 70
     1
102
RTVSPropertyOp28
 70
     1
102
RTVSPropertyOp29
 70
     1
102
RTVSPropertyOp30
 70
     1
102
RTVSPropertyOp31
 70
     1
102
RTVSPropertyOp32
 70
     1
102
RTVSPropertyOp33
 70
     1
102
RTVSPropertyOp34
 70
     1
102
RTVSPropertyOp35
 70
     1
102
RTVSPropertyOp36
 70
     1
102
RTVSPropertyOp37
 70
     1
102
RTVSPropertyOp38
 70
     1
102
RTVSPropertyOp39
 70
     1
102
RTVSPropertyOp40
 70
     1
102
RTVSPropertyOp41
 70
     1
102
RTVSPropertyOp42
 70
     1
102
RTVSPropertyOp43
 70
     1
102
RTVSPropertyOp44
 70
     1
102
RTVSPropertyOp45
 70
     1
102
RTVSPropertyOp46
 70
     1
102
RTVSPropertyOp47
 70
     1
102
RTVSPropertyOp48
 70
     1
102
RTVSPropertyOp49
 70
     1
102
RTVSPropertyOp50
 70
     1
102
RTVSPropertyOp51
 70
     0
102
RTVSPropertyOp52
 70
     0
102
RTVSPropertyOp53
 70
     1
102
RTVSPropertyOp54
 70
     1
102
RTVSPropertyOp55
 70
     1
102
RTVSPropertyOp56
 70
     1
102
RTVSPropertyOp57
 70
     1
102
RTVSPropertyOp58
 70
     1
102
RTVSPropertyOp59
 70
     1
102
RTVSPropertyOp60
 70
     1
102
RTVSPropertyOp61
 70
     1
102
RTVSPropertyOp62
 70
     1
  0
XRECORD
  5
4987
102
{ACAD_REACTORS
330
4986
102
}
330
4986
100
AcDbXrecord
280
     1
102
RTVSPost2010Prop28
280
     0
102
RTVSPost2010PropOp28
 70
     1
102
RTVSPost2010Prop29
280
     1
102
RTVSPost2010PropOp29
 70
     1
102
RTVSPost2010Prop30
280
     1
102
RTVSPost2010PropOp30
 70
     1
102
RTVSPost2010Prop31
280
     0
102
RTVSPost2010PropOp31
 70
     1
102
RTVSPost2010Prop32
280
     0
102
RTVSPost2010PropOp32
 70
     1
102
RTVSPost2010Prop33
280
     0
102
RTVSPost2010PropOp33
 70
     1
102
RTVSPost2010Prop34
280
     0
102
RTVSPost2010PropOp34
 70
     1
102
RTVSPost2010Prop35
280
     0
102
RTVSPost2010PropOp35
 70
     1
102
RTVSPost2010Prop36
280
     0
102
RTVSPost2010PropOp36
 70
     1
102
RTVSPost2010Prop37
 90
       50
102
RTVSPost2010PropOp37
 70
     1
102
RTVSPost2010Prop38
140
0.0
102
RTVSPost2010PropOp38
 70
     1
102
RTVSPost2010Prop39
140
1.0
102
RTVSPost2010PropOp39
 70
     1
102
RTVSPost2010Prop40
 90
        0
102
RTVSPost2010PropOp40
 70
     1
102
RTVSPost2010Prop41ColorIndex
 90
       18
102
RTVSPost2010Prop41ColorRGB
 90
        0
102
RTVSPost2010PropOp41
 70
     1
102
RTVSPost2010Prop42
 90
       50
102
RTVSPost2010PropOp42
 70
     1
102
RTVSPost2010Prop43
 90
        3
102
RTVSPost2010PropOp43
 70
     1
102
RTVSPost2010Prop44ColorIndex
 90
        5
102
RTVSPost2010Prop44ColorRGB
 90
      255
102
RTVSPost2010PropOp44
 70
     1
102
RTVSPost2010Prop45
280
     0
102
RTVSPost2010PropOp45
 70
     1
102
RTVSPost2010Prop46
 90
       50
102
RTVSPost2010PropOp46
 70
     1
102
RTVSPost2010Prop47
 90
       50
102
RTVSPost2010PropOp47
 70
     1
102
RTVSPost2010Prop48
 90
       50
102
RTVSPost2010PropOp48
 70
     1
102
RTVSPost2010Prop49
280
     0
102
RTVSPost2010PropOp49
 70
     1
102
RTVSPost2010Prop50
 90
       50
102
RTVSPost2010PropOp50
 70
     1
102
RTVSPost2010Prop51ColorIndex
 90
      256
102
RTVSPost2010Prop51ColorRGB
 90
-16777216
102
RTVSPost2010PropOp51
 70
     0
102
RTVSPost2010Prop52
140
1.0
102
RTVSPost2010PropOp52
 70
     0
102
RTVSPost2010Prop53
 90
        2
102
RTVSPost2010PropOp53
 70
     1
102
RTVSPost2010Prop54
  1
strokes_ogs.tif
102
RTVSPost2010PropOp54
 70
     1
102
RTVSPost2010Prop55
280
     0
102
RTVSPost2010PropOp55
 70
     1
102
RTVSPost2010Prop56
140
1.0
102
RTVSPost2010PropOp56
 70
     1
102
RTVSPost2010Prop57
140
1.0
102
RTVSPost2010PropOp57
 70
     1
102
RTVSPropertyOp0
 70
     1
102
RTVSPropertyOp1
 70
     1
102
RTVSPropertyOp2
 70
     1
102
RTVSPropertyOp3
 70
     1
102
RTVSPropertyOp4
 70
     1
102
RTVSPropertyOp5
 70
     1
102
RTVSPropertyOp6
 70
     1
102
RTVSPropertyOp7
 70
     1
102
RTVSPropertyOp8
 70
     1
102
RTVSPropertyOp9
 70
     1
102
RTVSPropertyOp10
 70
     1
102
RTVSPropertyOp11
 70
     1
102
RTVSPropertyOp12
 70
     1
102
RTVSPropertyOp13
 70
     1
102
RTVSPropertyOp14
 70
     1
102
RTVSPropertyOp15
 70
     1
102
RTVSPropertyOp16
 70
     1
102
RTVSPropertyOp17
 70
     1
102
RTVSPropertyOp18
 70
     1
102
RTVSPropertyOp19
 70
     1
102
RTVSPropertyOp20
 70
     1
102
RTVSPropertyOp21
 70
     1
102
RTVSPropertyOp22
 70
     1
102
RTVSPropertyOp23
 70
     1
102
RTVSPropertyOp24
 70
     1
102
RTVSPropertyOp25
 70
     1
102
RTVSPropertyOp26
 70
     1
102
RTVSPropertyOp27
 70
     1
102
RTVSPropertyOp28
 70
     1
102
RTVSPropertyOp29
 70
     1
102
RTVSPropertyOp30
 70
     1
102
RTVSPropertyOp31
 70
     1
102
RTVSPropertyOp32
 70
     1
102
RTVSPropertyOp33
 70
     1
102
RTVSPropertyOp34
 70
     1
102
RTVSPropertyOp35
 70
     1
102
RTVSPropertyOp36
 70
     1
102
RTVSPropertyOp37
 70
     1
102
RTVSPropertyOp38
 70
     1
102
RTVSPropertyOp39
 70
     1
102
RTVSPropertyOp40
 70
     1
102
RTVSPropertyOp41
 70
     1
102
RTVSPropertyOp42
 70
     1
102
RTVSPropertyOp43
 70
     1
102
RTVSPropertyOp44
 70
     1
102
RTVSPropertyOp45
 70
     1
102
RTVSPropertyOp46
 70
     1
102
RTVSPropertyOp47
 70
     1
102
RTVSPropertyOp48
 70
     1
102
RTVSPropertyOp49
 70
     1
102
RTVSPropertyOp50
 70
     1
102
RTVSPropertyOp51
 70
     0
102
RTVSPropertyOp52
 70
     0
102
RTVSPropertyOp53
 70
     1
102
RTVSPropertyOp54
 70
     1
102
RTVSPropertyOp55
 70
     1
102
RTVSPropertyOp56
 70
     1
102
RTVSPropertyOp57
 70
     1
102
RTVSPropertyOp58
 70
     1
102
RTVSPropertyOp59
 70
     1
102
RTVSPropertyOp60
 70
     1
102
RTVSPropertyOp61
 70
     1
102
RTVSPropertyOp62
 70
     1
  0
XRECORD
  5
497D
102
{ACAD_REACTORS
330
497C
102
}
330
497C
100
AcDbXrecord
280
     1
102
RTVSPost2010Prop28
280
     0
102
RTVSPost2010PropOp28
 70
     1
102
RTVSPost2010Prop29
280
     1
102
RTVSPost2010PropOp29
 70
     1
102
RTVSPost2010Prop30
280
     1
102
RTVSPost2010PropOp30
 70
     1
102
RTVSPost2010Prop31
280
     0
102
RTVSPost2010PropOp31
 70
     1
102
RTVSPost2010Prop32
280
     0
102
RTVSPost2010PropOp32
 70
     1
102
RTVSPost2010Prop33
280
     0
102
RTVSPost2010PropOp33
 70
     1
102
RTVSPost2010Prop34
280
     0
102
RTVSPost2010PropOp34
 70
     1
102
RTVSPost2010Prop35
280
     0
102
RTVSPost2010PropOp35
 70
     1
102
RTVSPost2010Prop36
280
     0
102
RTVSPost2010PropOp36
 70
     1
102
RTVSPost2010Prop37
 90
       50
102
RTVSPost2010PropOp37
 70
     1
102
RTVSPost2010Prop38
140
0.0
102
RTVSPost2010PropOp38
 70
     1
102
RTVSPost2010Prop39
140
1.0
102
RTVSPost2010PropOp39
 70
     1
102
RTVSPost2010Prop40
 90
        0
102
RTVSPost2010PropOp40
 70
     1
102
RTVSPost2010Prop41ColorIndex
 90
       18
102
RTVSPost2010Prop41ColorRGB
 90
        0
102
RTVSPost2010PropOp41
 70
     1
102
RTVSPost2010Prop42
 90
       50
102
RTVSPost2010PropOp42
 70
     1
102
RTVSPost2010Prop43
 90
        3
102
RTVSPost2010PropOp43
 70
     1
102
RTVSPost2010Prop44ColorIndex
 90
        5
102
RTVSPost2010Prop44ColorRGB
 90
      255
102
RTVSPost2010PropOp44
 70
     1
102
RTVSPost2010Prop45
280
     0
102
RTVSPost2010PropOp45
 70
     1
102
RTVSPost2010Prop46
 90
       50
102
RTVSPost2010PropOp46
 70
     1
102
RTVSPost2010Prop47
 90
       50
102
RTVSPost2010PropOp47
 70
     1
102
RTVSPost2010Prop48
 90
       50
102
RTVSPost2010PropOp48
 70
     1
102
RTVSPost2010Prop49
280
     0
102
RTVSPost2010PropOp49
 70
     1
102
RTVSPost2010Prop50
 90
       50
102
RTVSPost2010PropOp50
 70
     1
102
RTVSPost2010Prop51ColorIndex
 90
      256
102
RTVSPost2010Prop51ColorRGB
 90
-16777216
102
RTVSPost2010PropOp51
 70
     0
102
RTVSPost2010Prop52
140
1.0
102
RTVSPost2010PropOp52
 70
     0
102
RTVSPost2010Prop53
 90
        2
102
RTVSPost2010PropOp53
 70
     1
102
RTVSPost2010Prop54
  1
strokes_ogs.tif
102
RTVSPost2010PropOp54
 70
     1
102
RTVSPost2010Prop55
280
     0
102
RTVSPost2010PropOp55
 70
     1
102
RTVSPost2010Prop56
140
1.0
102
RTVSPost2010PropOp56
 70
     1
102
RTVSPost2010Prop57
140
1.0
102
RTVSPost2010PropOp57
 70
     1
102
RTVSPropertyOp0
 70
     1
102
RTVSPropertyOp1
 70
     1
102
RTVSPropertyOp2
 70
     1
102
RTVSPropertyOp3
 70
     1
102
RTVSPropertyOp4
 70
     1
102
RTVSPropertyOp5
 70
     1
102
RTVSPropertyOp6
 70
     1
102
RTVSPropertyOp7
 70
     1
102
RTVSPropertyOp8
 70
     1
102
RTVSPropertyOp9
 70
     1
102
RTVSPropertyOp10
 70
     1
102
RTVSPropertyOp11
 70
     1
102
RTVSPropertyOp12
 70
     1
102
RTVSPropertyOp13
 70
     1
102
RTVSPropertyOp14
 70
     1
102
RTVSPropertyOp15
 70
     1
102
RTVSPropertyOp16
 70
     1
102
RTVSPropertyOp17
 70
     1
102
RTVSPropertyOp18
 70
     1
102
RTVSPropertyOp19
 70
     1
102
RTVSPropertyOp20
 70
     1
102
RTVSPropertyOp21
 70
     1
102
RTVSPropertyOp22
 70
     1
102
RTVSPropertyOp23
 70
     1
102
RTVSPropertyOp24
 70
     1
102
RTVSPropertyOp25
 70
     1
102
RTVSPropertyOp26
 70
     1
102
RTVSPropertyOp27
 70
     1
102
RTVSPropertyOp28
 70
     1
102
RTVSPropertyOp29
 70
     1
102
RTVSPropertyOp30
 70
     1
102
RTVSPropertyOp31
 70
     1
102
RTVSPropertyOp32
 70
     1
102
RTVSPropertyOp33
 70
     1
102
RTVSPropertyOp34
 70
     1
102
RTVSPropertyOp35
 70
     1
102
RTVSPropertyOp36
 70
     1
102
RTVSPropertyOp37
 70
     1
102
RTVSPropertyOp38
 70
     1
102
RTVSPropertyOp39
 70
     1
102
RTVSPropertyOp40
 70
     1
102
RTVSPropertyOp41
 70
     1
102
RTVSPropertyOp42
 70
     1
102
RTVSPropertyOp43
 70
     1
102
RTVSPropertyOp44
 70
     1
102
RTVSPropertyOp45
 70
     1
102
RTVSPropertyOp46
 70
     1
102
RTVSPropertyOp47
 70
     1
102
RTVSPropertyOp48
 70
     1
102
RTVSPropertyOp49
 70
     1
102
RTVSPropertyOp50
 70
     1
102
RTVSPropertyOp51
 70
     0
102
RTVSPropertyOp52
 70
     0
102
RTVSPropertyOp53
 70
     1
102
RTVSPropertyOp54
 70
     1
102
RTVSPropertyOp55
 70
     1
102
RTVSPropertyOp56
 70
     1
102
RTVSPropertyOp57
 70
     1
102
RTVSPropertyOp58
 70
     1
102
RTVSPropertyOp59
 70
     1
102
RTVSPropertyOp60
 70
     1
102
RTVSPropertyOp61
 70
     1
102
RTVSPropertyOp62
 70
     1
  0
XRECORD
  5
4971
102
{ACAD_REACTORS
330
4970
102
}
330
4970
100
AcDbXrecord
280
     1
102
RTVSPost2010Prop28
280
     0
102
RTVSPost2010PropOp28
 70
     1
102
RTVSPost2010Prop29
280
     1
102
RTVSPost2010PropOp29
 70
     1
102
RTVSPost2010Prop30
280
     1
102
RTVSPost2010PropOp30
 70
     1
102
RTVSPost2010Prop31
280
     0
102
RTVSPost2010PropOp31
 70
     1
102
RTVSPost2010Prop32
280
     0
102
RTVSPost2010PropOp32
 70
     1
102
RTVSPost2010Prop33
280
     0
102
RTVSPost2010PropOp33
 70
     1
102
RTVSPost2010Prop34
280
     0
102
RTVSPost2010PropOp34
 70
     1
102
RTVSPost2010Prop35
280
     0
102
RTVSPost2010PropOp35
 70
     1
102
RTVSPost2010Prop36
280
     0
102
RTVSPost2010PropOp36
 70
     1
102
RTVSPost2010Prop37
 90
       50
102
RTVSPost2010PropOp37
 70
     1
102
RTVSPost2010Prop38
140
0.0
102
RTVSPost2010PropOp38
 70
     1
102
RTVSPost2010Prop39
140
1.0
102
RTVSPost2010PropOp39
 70
     1
102
RTVSPost2010Prop40
 90
        0
102
RTVSPost2010PropOp40
 70
     1
102
RTVSPost2010Prop41ColorIndex
 90
       18
102
RTVSPost2010Prop41ColorRGB
 90
        0
102
RTVSPost2010PropOp41
 70
     1
102
RTVSPost2010Prop42
 90
       50
102
RTVSPost2010PropOp42
 70
     1
102
RTVSPost2010Prop43
 90
        3
102
RTVSPost2010PropOp43
 70
     1
102
RTVSPost2010Prop44ColorIndex
 90
        5
102
RTVSPost2010Prop44ColorRGB
 90
      255
102
RTVSPost2010PropOp44
 70
     1
102
RTVSPost2010Prop45
280
     0
102
RTVSPost2010PropOp45
 70
     1
102
RTVSPost2010Prop46
 90
       50
102
RTVSPost2010PropOp46
 70
     1
102
RTVSPost2010Prop47
 90
       50
102
RTVSPost2010PropOp47
 70
     1
102
RTVSPost2010Prop48
 90
       50
102
RTVSPost2010PropOp48
 70
     1
102
RTVSPost2010Prop49
280
     0
102
RTVSPost2010PropOp49
 70
     1
102
RTVSPost2010Prop50
 90
       50
102
RTVSPost2010PropOp50
 70
     1
102
RTVSPost2010Prop51ColorIndex
 90
      256
102
RTVSPost2010Prop51ColorRGB
 90
-16777216
102
RTVSPost2010PropOp51
 70
     0
102
RTVSPost2010Prop52
140
1.0
102
RTVSPost2010PropOp52
 70
     0
102
RTVSPost2010Prop53
 90
        2
102
RTVSPost2010PropOp53
 70
     1
102
RTVSPost2010Prop54
  1
strokes_ogs.tif
102
RTVSPost2010PropOp54
 70
     1
102
RTVSPost2010Prop55
280
     0
102
RTVSPost2010PropOp55
 70
     1
102
RTVSPost2010Prop56
140
1.0
102
RTVSPost2010PropOp56
 70
     1
102
RTVSPost2010Prop57
140
1.0
102
RTVSPost2010PropOp57
 70
     1
102
RTVSPropertyOp0
 70
     1
102
RTVSPropertyOp1
 70
     1
102
RTVSPropertyOp2
 70
     1
102
RTVSPropertyOp3
 70
     1
102
RTVSPropertyOp4
 70
     1
102
RTVSPropertyOp5
 70
     1
102
RTVSPropertyOp6
 70
     1
102
RTVSPropertyOp7
 70
     1
102
RTVSPropertyOp8
 70
     1
102
RTVSPropertyOp9
 70
     1
102
RTVSPropertyOp10
 70
     1
102
RTVSPropertyOp11
 70
     1
102
RTVSPropertyOp12
 70
     1
102
RTVSPropertyOp13
 70
     1
102
RTVSPropertyOp14
 70
     1
102
RTVSPropertyOp15
 70
     1
102
RTVSPropertyOp16
 70
     1
102
RTVSPropertyOp17
 70
     1
102
RTVSPropertyOp18
 70
     1
102
RTVSPropertyOp19
 70
     1
102
RTVSPropertyOp20
 70
     1
102
RTVSPropertyOp21
 70
     1
102
RTVSPropertyOp22
 70
     1
102
RTVSPropertyOp23
 70
     1
102
RTVSPropertyOp24
 70
     1
102
RTVSPropertyOp25
 70
     1
102
RTVSPropertyOp26
 70
     1
102
RTVSPropertyOp27
 70
     1
102
RTVSPropertyOp28
 70
     1
102
RTVSPropertyOp29
 70
     1
102
RTVSPropertyOp30
 70
     1
102
RTVSPropertyOp31
 70
     1
102
RTVSPropertyOp32
 70
     1
102
RTVSPropertyOp33
 70
     1
102
RTVSPropertyOp34
 70
     1
102
RTVSPropertyOp35
 70
     1
102
RTVSPropertyOp36
 70
     1
102
RTVSPropertyOp37
 70
     1
102
RTVSPropertyOp38
 70
     1
102
RTVSPropertyOp39
 70
     1
102
RTVSPropertyOp40
 70
     1
102
RTVSPropertyOp41
 70
     1
102
RTVSPropertyOp42
 70
     1
102
RTVSPropertyOp43
 70
     1
102
RTVSPropertyOp44
 70
     1
102
RTVSPropertyOp45
 70
     1
102
RTVSPropertyOp46
 70
     1
102
RTVSPropertyOp47
 70
     1
102
RTVSPropertyOp48
 70
     1
102
RTVSPropertyOp49
 70
     1
102
RTVSPropertyOp50
 70
     1
102
RTVSPropertyOp51
 70
     0
102
RTVSPropertyOp52
 70
     0
102
RTVSPropertyOp53
 70
     1
102
RTVSPropertyOp54
 70
     1
102
RTVSPropertyOp55
 70
     1
102
RTVSPropertyOp56
 70
     1
102
RTVSPropertyOp57
 70
     1
102
RTVSPropertyOp58
 70
     1
102
RTVSPropertyOp59
 70
     1
102
RTVSPropertyOp60
 70
     1
102
RTVSPropertyOp61
 70
     1
102
RTVSPropertyOp62
 70
     1
  0
XRECORD
  5
4989
102
{ACAD_REACTORS
330
4988
102
}
330
4988
100
AcDbXrecord
280
     1
102
RTVSPost2010Prop28
280
     0
102
RTVSPost2010PropOp28
 70
     1
102
RTVSPost2010Prop29
280
     1
102
RTVSPost2010PropOp29
 70
     1
102
RTVSPost2010Prop30
280
     1
102
RTVSPost2010PropOp30
 70
     1
102
RTVSPost2010Prop31
280
     0
102
RTVSPost2010PropOp31
 70
     1
102
RTVSPost2010Prop32
280
     0
102
RTVSPost2010PropOp32
 70
     1
102
RTVSPost2010Prop33
280
     0
102
RTVSPost2010PropOp33
 70
     1
102
RTVSPost2010Prop34
280
     0
102
RTVSPost2010PropOp34
 70
     1
102
RTVSPost2010Prop35
280
     0
102
RTVSPost2010PropOp35
 70
     1
102
RTVSPost2010Prop36
280
     0
102
RTVSPost2010PropOp36
 70
     1
102
RTVSPost2010Prop37
 90
       50
102
RTVSPost2010PropOp37
 70
     1
102
RTVSPost2010Prop38
140
0.0
102
RTVSPost2010PropOp38
 70
     1
102
RTVSPost2010Prop39
140
1.0
102
RTVSPost2010PropOp39
 70
     1
102
RTVSPost2010Prop40
 90
        0
102
RTVSPost2010PropOp40
 70
     1
102
RTVSPost2010Prop41ColorIndex
 90
       18
102
RTVSPost2010Prop41ColorRGB
 90
        0
102
RTVSPost2010PropOp41
 70
     1
102
RTVSPost2010Prop42
 90
       50
102
RTVSPost2010PropOp42
 70
     1
102
RTVSPost2010Prop43
 90
        3
102
RTVSPost2010PropOp43
 70
     1
102
RTVSPost2010Prop44ColorIndex
 90
        5
102
RTVSPost2010Prop44ColorRGB
 90
      255
102
RTVSPost2010PropOp44
 70
     1
102
RTVSPost2010Prop45
280
     0
102
RTVSPost2010PropOp45
 70
     1
102
RTVSPost2010Prop46
 90
       50
102
RTVSPost2010PropOp46
 70
     1
102
RTVSPost2010Prop47
 90
       50
102
RTVSPost2010PropOp47
 70
     1
102
RTVSPost2010Prop48
 90
       50
102
RTVSPost2010PropOp48
 70
     1
102
RTVSPost2010Prop49
280
     0
102
RTVSPost2010PropOp49
 70
     1
102
RTVSPost2010Prop50
 90
       50
102
RTVSPost2010PropOp50
 70
     1
102
RTVSPost2010Prop51ColorIndex
 90
      256
102
RTVSPost2010Prop51ColorRGB
 90
-16777216
102
RTVSPost2010PropOp51
 70
     0
102
RTVSPost2010Prop52
140
1.0
102
RTVSPost2010PropOp52
 70
     0
102
RTVSPost2010Prop53
 90
        2
102
RTVSPost2010PropOp53
 70
     1
102
RTVSPost2010Prop54
  1
strokes_ogs.tif
102
RTVSPost2010PropOp54
 70
     1
102
RTVSPost2010Prop55
280
     0
102
RTVSPost2010PropOp55
 70
     1
102
RTVSPost2010Prop56
140
1.0
102
RTVSPost2010PropOp56
 70
     1
102
RTVSPost2010Prop57
140
1.0
102
RTVSPost2010PropOp57
 70
     1
102
RTVSPropertyOp0
 70
     1
102
RTVSPropertyOp1
 70
     1
102
RTVSPropertyOp2
 70
     1
102
RTVSPropertyOp3
 70
     1
102
RTVSPropertyOp4
 70
     1
102
RTVSPropertyOp5
 70
     1
102
RTVSPropertyOp6
 70
     1
102
RTVSPropertyOp7
 70
     1
102
RTVSPropertyOp8
 70
     1
102
RTVSPropertyOp9
 70
     1
102
RTVSPropertyOp10
 70
     1
102
RTVSPropertyOp11
 70
     1
102
RTVSPropertyOp12
 70
     1
102
RTVSPropertyOp13
 70
     1
102
RTVSPropertyOp14
 70
     1
102
RTVSPropertyOp15
 70
     1
102
RTVSPropertyOp16
 70
     1
102
RTVSPropertyOp17
 70
     1
102
RTVSPropertyOp18
 70
     1
102
RTVSPropertyOp19
 70
     1
102
RTVSPropertyOp20
 70
     1
102
RTVSPropertyOp21
 70
     1
102
RTVSPropertyOp22
 70
     1
102
RTVSPropertyOp23
 70
     1
102
RTVSPropertyOp24
 70
     1
102
RTVSPropertyOp25
 70
     1
102
RTVSPropertyOp26
 70
     1
102
RTVSPropertyOp27
 70
     1
102
RTVSPropertyOp28
 70
     1
102
RTVSPropertyOp29
 70
     1
102
RTVSPropertyOp30
 70
     1
102
RTVSPropertyOp31
 70
     1
102
RTVSPropertyOp32
 70
     1
102
RTVSPropertyOp33
 70
     1
102
RTVSPropertyOp34
 70
     1
102
RTVSPropertyOp35
 70
     1
102
RTVSPropertyOp36
 70
     1
102
RTVSPropertyOp37
 70
     1
102
RTVSPropertyOp38
 70
     1
102
RTVSPropertyOp39
 70
     1
102
RTVSPropertyOp40
 70
     1
102
RTVSPropertyOp41
 70
     1
102
RTVSPropertyOp42
 70
     1
102
RTVSPropertyOp43
 70
     1
102
RTVSPropertyOp44
 70
     1
102
RTVSPropertyOp45
 70
     1
102
RTVSPropertyOp46
 70
     1
102
RTVSPropertyOp47
 70
     1
102
RTVSPropertyOp48
 70
     1
102
RTVSPropertyOp49
 70
     1
102
RTVSPropertyOp50
 70
     1
102
RTVSPropertyOp51
 70
     0
102
RTVSPropertyOp52
 70
     0
102
RTVSPropertyOp53
 70
     1
102
RTVSPropertyOp54
 70
     1
102
RTVSPropertyOp55
 70
     1
102
RTVSPropertyOp56
 70
     1
102
RTVSPropertyOp57
 70
     1
102
RTVSPropertyOp58
 70
     1
102
RTVSPropertyOp59
 70
     1
102
RTVSPropertyOp60
 70
     1
102
RTVSPropertyOp61
 70
     1
102
RTVSPropertyOp62
 70
     1
  0
ENDSEC
  0
EOF
