  0
SECTION
  2
HEADER
  9
$ACADVER
  1
AC1018
  9
$ACADMAINTVER
 70
   104
  9
$DWGCODEPAGE
  3
ANSI_1250
  9
$LASTSAVEDBY
  1
EVA
  9
$INSBASE
 10
0.0
 20
0.0
 30
0.0
  9
$EXTMIN
 10
115.1138959045989
 20
230.4509096129514
 30
0.0
  9
$EXTMAX
 10
961.6344364047318
 20
2139.860309940299
 30
0.0
  9
$LIMMIN
 10
0.0
 20
0.0
  9
$LIMMAX
 10
271.6285070728513
 20
136.3429239280804
  9
$ORTHOMODE
 70
     0
  9
$REGENMODE
 70
     1
  9
$FILLMODE
 70
     1
  9
$QTEXTMODE
 70
     0
  9
$MIRRTEXT
 70
     0
  9
$LTSCALE
 40
15.0
  9
$ATTMODE
 70
     1
  9
$TEXTSIZE
 40
3.0
  9
$TRACEWID
 40
1.0
  9
$TEXTSTYLE
  7
Stil1
  9
$CLAYER
  8
0
  9
$CELTYPE
  6
VERDECKTX2
  9
$CECOLOR
 62
   256
  9
$CELTSCALE
 40
5.0
  9
$DISPSILH
 70
     0
  9
$DIMSCALE
 40
5.0
  9
$DIMASZ
 40
3.5
  9
$DIMEXO
 40
0.0
  9
$DIMDLI
 40
3.75
  9
$DIMRND
 40
0.0
  9
$DIMDLE
 40
0.0
  9
$DIMEXE
 40
1.25
  9
$DIMTP
 40
0.0
  9
$DIMTM
 40
0.0
  9
$DIMTXT
 40
3.5
  9
$DIMCEN
 40
3.5
  9
$DIMTSZ
 40
0.0
  9
$DIMTOL
 70
     0
  9
$DIMLIM
 70
     0
  9
$DIMTIH
 70
     0
  9
$DIMTOH
 70
     0
  9
$DIMSE1
 70
     0
  9
$DIMSE2
 70
     0
  9
$DIMTAD
 70
     1
  9
$DIMZIN
 70
     8
  9
$DIMBLK
  1

  9
$DIMASO
 70
     1
  9
$DIMSHO
 70
     1
  9
$DIMPOST
  1

  9
$DIMAPOST
  1

  9
$DIMALT
 70
     0
  9
$DIMALTD
 70
     4
  9
$DIMALTF
 40
0.0394
  9
$DIMLFAC
 40
1.0
  9
$DIMTOFL
 70
     0
  9
$DIMTVP
 40
0.0
  9
$DIMTIX
 70
     0
  9
$DIMSOXD
 70
     0
  9
$DIMSAH
 70
     0
  9
$DIMBLK1
  1

  9
$DIMBLK2
  1

  9
$DIMSTYLE
  2
18
  9
$DIMCLRD
 70
     0
  9
$DIMCLRE
 70
     0
  9
$DIMCLRT
 70
     2
  9
$DIMTFAC
 40
1.0
  9
$DIMGAP
 40
0.625
  9
$DIMJUST
 70
     0
  9
$DIMSD1
 70
     0
  9
$DIMSD2
 70
     0
  9
$DIMTOLJ
 70
     1
  9
$DIMTZIN
 70
     0
  9
$DIMALTZ
 70
     0
  9
$DIMALTTZ
 70
     0
  9
$DIMUPT
 70
     0
  9
$DIMDEC
 70
     0
  9
$DIMTDEC
 70
     4
  9
$DIMALTU
 70
     8
  9
$DIMALTTD
 70
     4
  9
$DIMTXSTY
  7
ROMANS
  9
$DIMAUNIT
 70
     0
  9
$DIMADEC
 70
     0
  9
$DIMALTRND
 40
0.0
  9
$DIMAZIN
 70
     0
  9
$DIMDSEP
 70
    46
  9
$DIMATFIT
 70
     3
  9
$DIMFRAC
 70
     0
  9
$DIMLDRBLK
  1

  9
$DIMLUNIT
 70
     6
  9
$DIMLWD
 70
    -2
  9
$DIMLWE
 70
    -2
  9
$DIMTMOVE
 70
     0
  9
$LUNITS
 70
     2
  9
$LUPREC
 70
     4
  9
$SKETCHINC
 40
1.0
  9
$FILLETRAD
 40
0.0
  9
$AUNITS
 70
     0
  9
$AUPREC
 70
     0
  9
$MENU
  1
.
  9
$ELEVATION
 40
0.0
  9
$PELEVATION
 40
0.0
  9
$THICKNESS
 40
0.0
  9
$LIMCHECK
 70
     0
  9
$CHAMFERA
 40
10.0
  9
$CHAMFERB
 40
10.0
  9
$CHAMFERC
 40
20.0
  9
$CHAMFERD
 40
0.0
  9
$SKPOLY
 70
     0
  9
$TDCREATE
 40
2451600.645418067
  9
$TDUCREATE
 40
2451600.562084734
  9
$TDUPDATE
 40
2457248.519497662
  9
$TDUUPDATE
 40
2457248.436164329
  9
$TDINDWG
 40
3.7578053588
  9
$TDUSRTIMER
 40
3.7578051273
  9
$USRTIMER
 70
     1
  9
$ANGBASE
 50
0.0
  9
$ANGDIR
 70
     0
  9
$PDMODE
 70
     0
  9
$PDSIZE
 40
0.0
  9
$PLINEWID
 40
0.0
  9
$SPLFRAME
 70
     0
  9
$SPLINETYPE
 70
     6
  9
$SPLINESEGS
 70
     8
  9
$HANDSEED
  5
513C
  9
$SURFTAB1
 70
     6
  9
$SURFTAB2
 70
     6
  9
$SURFTYPE
 70
     6
  9
$SURFU
 70
     6
  9
$SURFV
 70
     6
  9
$UCSBASE
  2

  9
$UCSNAME
  2

  9
$UCSORG
 10
0.0
 20
0.0
 30
0.0
  9
$UCSXDIR
 10
1.0
 20
0.0
 30
0.0
  9
$UCSYDIR
 10
0.0
 20
1.0
 30
0.0
  9
$UCSORTHOREF
  2

  9
$UCSORTHOVIEW
 70
     0
  9
$UCSORGTOP
 10
0.0
 20
0.0
 30
0.0
  9
$UCSORGBOTTOM
 10
0.0
 20
0.0
 30
0.0
  9
$UCSORGLEFT
 10
0.0
 20
0.0
 30
0.0
  9
$UCSORGRIGHT
 10
0.0
 20
0.0
 30
0.0
  9
$UCSORGFRONT
 10
0.0
 20
0.0
 30
0.0
  9
$UCSORGBACK
 10
0.0
 20
0.0
 30
0.0
  9
$PUCSBASE
  2

  9
$PUCSNAME
  2

  9
$PUCSORG
 10
0.0
 20
0.0
 30
0.0
  9
$PUCSXDIR
 10
1.0
 20
0.0
 30
0.0
  9
$PUCSYDIR
 10
0.0
 20
1.0
 30
0.0
  9
$PUCSORTHOREF
  2

  9
$PUCSORTHOVIEW
 70
     0
  9
$PUCSORGTOP
 10
0.0
 20
0.0
 30
0.0
  9
$PUCSORGBOTTOM
 10
0.0
 20
0.0
 30
0.0
  9
$PUCSORGLEFT
 10
0.0
 20
0.0
 30
0.0
  9
$PUCSORGRIGHT
 10
0.0
 20
0.0
 30
0.0
  9
$PUCSORGFRONT
 10
0.0
 20
0.0
 30
0.0
  9
$PUCSORGBACK
 10
0.0
 20
0.0
 30
0.0
  9
$USERI1
 70
     0
  9
$USERI2
 70
     0
  9
$USERI3
 70
     0
  9
$USERI4
 70
     0
  9
$USERI5
 70
     0
  9
$USERR1
 40
0.0
  9
$USERR2
 40
0.0
  9
$USERR3
 40
0.0
  9
$USERR4
 40
0.0
  9
$USERR5
 40
0.0
  9
$WORLDVIEW
 70
     1
  9
$SHADEDGE
 70
     3
  9
$SHADEDIF
 70
    70
  9
$TILEMODE
 70
     0
  9
$MAXACTVP
 70
    48
  9
$PINSBASE
 10
0.0
 20
0.0
 30
0.0
  9
$PLIMCHECK
 70
     0
  9
$PEXTMIN
 10
7.378457057812454
 20
2.642657989685733
 30
0.0
  9
$PEXTMAX
 10
196.0315659403611
 20
281.3893347359368
 30
0.0
  9
$PLIMMIN
 10
-6.043083
 20
-6.762742
  9
$PLIMMAX
 10
203.930245
 20
290.205581
  9
$UNITMODE
 70
     0
  9
$VISRETAIN
 70
     1
  9
$PLINEGEN
 70
     0
  9
$PSLTSCALE
 70
     0
  9
$TREEDEPTH
 70
  3020
  9
$CMLSTYLE
  2
STANDARD
  9
$CMLJUST
 70
     0
  9
$CMLSCALE
 40
20.0
  9
$PROXYGRAPHICS
 70
     1
  9
$MEASUREMENT
 70
     0
  9
$CELWEIGHT
370
    -1
  9
$ENDCAPS
280
     0
  9
$JOINSTYLE
280
     0
  9
$LWDISPLAY
290
     0
  9
$INSUNITS
 70
     0
  9
$HYPERLINKBASE
  1

  9
$STYLESHEET
  1

  9
$XEDIT
290
     1
  9
$CEPSNTYPE
380
     0
  9
$PSTYLEMODE
290
     1
  9
$FINGERPRINTGUID
  2
{9E2E0D10-E48E-11D3-BEBA-006008753510}
  9
$VERSIONGUID
  2
{8D002D54-33B6-4192-80F1-FA4CF5370FD0}
  9
$EXTNAMES
290
     1
  9
$PSVPSCALE
 40
0.0
  9
$OLESTARTUP
290
     0
  9
$SORTENTS
280
    96
  9
$INDEXCTL
280
     0
  9
$HIDETEXT
280
     0
  9
$XCLIPFRAME
290
     0
  9
$HALOGAP
280
     0
  9
$OBSCOLOR
 70
   257
  9
$OBSLTYPE
280
     0
  9
$INTERSECTIONDISPLAY
280
     0
  9
$INTERSECTIONCOLOR
 70
   257
  9
$DIMASSOC
280
     1
  9
$PROJECTNAME
  1

  0
ENDSEC
  0
SECTION
  2
CLASSES
  0
CLASS
  1
ACDBDICTIONARYWDFLT
  2
AcDbDictionaryWithDefault
  3
ObjectDBX Classes
 90
        0
 91
        1
280
     0
281
     0
  0
CLASS
  1
RASTERVARIABLES
  2
AcDbRasterVariables
  3
ISM
 90
        0
 91
        1
280
     0
281
     0
  0
CLASS
  1
IMAGEDEF
  2
AcDbRasterImageDef
  3
ISM
 90
        0
 91
        1
280
     0
281
     0
  0
CLASS
  1
IMAGEDEF_REACTOR
  2
AcDbRasterImageDefReactor
  3
ISM
 90
        1
 91
        0
280
     0
281
     0
  0
CLASS
  1
IMAGE
  2
AcDbRasterImage
  3
ISM
 90
     2175
 91
        0
280
     0
281
     1
  0
CLASS
  1
DICTIONARYVAR
  2
AcDbDictionaryVar
  3
ObjectDBX Classes
 90
        0
 91
       13
280
     0
281
     0
  0
CLASS
  1
PLOTSETTINGS
  2
AcDbPlotSettings
  3
ObjectDBX Classes
 90
        0
 91
        1
280
     0
281
     0
  0
CLASS
  1
MATERIAL
  2
AcDbMaterial
  3
ObjectDBX Classes
 90
     1153
 91
        3
280
     0
281
     0
  0
CLASS
  1
VISUALSTYLE
  2
AcDbVisualStyle
  3
ObjectDBX Classes
 90
     4095
 91
       24
280
     0
281
     0
  0
CLASS
  1
TABLESTYLE
  2
AcDbTableStyle
  3
ObjectDBX Classes
 90
     4095
 91
        1
280
     0
281
     0
  0
CLASS
  1
SCALE
  2
AcDbScale
  3
ObjectDBX Classes
 90
     1153
 91
       17
280
     0
281
     0
  0
CLASS
  1
MLEADERSTYLE
  2
AcDbMLeaderStyle
  3
ACDB_MLEADERSTYLE_CLASS
 90
     4095
 91
        1
280
     0
281
     0
  0
CLASS
  1
ACDBSECTIONVIEWSTYLE
  2
AcDbSectionViewStyle
  3
ObjectDBX Classes
 90
     1025
 91
        1
280
     0
281
     0
  0
CLASS
  1
ACDBDETAILVIEWSTYLE
  2
AcDbDetailViewStyle
  3
ObjectDBX Classes
 90
     1025
 91
        1
280
     0
281
     0
  0
CLASS
  1
CELLSTYLEMAP
  2
AcDbCellStyleMap
  3
ObjectDBX Classes
 90
     1152
 91
        2
280
     0
281
     0
  0
ENDSEC
  0
SECTION
  2
TABLES
  0
TABLE
  2
VPORT
  5
8
330
0
100
AcDbSymbolTable
 70
     1
  0
VPORT
  5
4F9D
330
8
100
AcDbSymbolTableRecord
100
AcDbViewportTableRecord
  2
*Active
 70
     0
 10
0.0
 20
0.0
 11
1.0
 21
1.0
 12
-70.95116563043394
 22
1549.19276653904
 13
0.0
 23
0.0
 14
10.0
 24
10.0
 15
10.0
 25
10.0
 16
0.0
 26
0.0
 36
1.0
 17
0.0
 27
0.0
 37
0.0
 40
6938.801496020477
 41
1.581724581724581
 42
50.0
 43
0.0
 44
0.0
 50
0.0
 51
0.0
 71
     0
 72
 20000
 73
     1
 74
     0
 75
     0
 76
     0
 77
     0
 78
     0
281
     0
 65
     1
110
0.0
120
0.0
130
0.0
111
1.0
121
0.0
131
0.0
112
0.0
122
1.0
132
0.0
 79
     0
146
0.0
1001
ACAD_NAV_VCDISPLAY
1070
     3
  0
ENDTAB
  0
TABLE
  2
LTYPE
  5
5
330
0
100
AcDbSymbolTable
 70
     7
  0
LTYPE
  5
12
330
5
100
AcDbSymbolTableRecord
100
AcDbLinetypeTableRecord
  2
BYBLOCK
 70
     0
  3

 72
    65
 73
     0
 40
0.0
  0
LTYPE
  5
13
330
5
100
AcDbSymbolTableRecord
100
AcDbLinetypeTableRecord
  2
BYLAYER
 70
     0
  3

 72
    65
 73
     0
 40
0.0
  0
LTYPE
  5
14
330
5
100
AcDbSymbolTableRecord
100
AcDbLinetypeTableRecord
  2
CONTINUOUS
 70
     0
  3
Solid line
 72
    65
 73
     0
 40
0.0
  0
LTYPE
  5
113E
330
5
100
AcDbSymbolTableRecord
100
AcDbLinetypeTableRecord
  2
VERDECKTX2
 70
     0
  3
Verdeckt (2x) ____ ____ ____ ____ ____ ____ ___
 72
    65
 73
     2
 40
19.05
 49
12.7
 74
     0
 49
-6.349999999999999
 74
     0
  0
LTYPE
  5
1205
330
5
100
AcDbSymbolTableRecord
100
AcDbLinetypeTableRecord
  2
GESTRICHELT
 70
     0
  3
__ __ __ __ __ __ __ __ __ __ __ __ __ __ __
 72
    65
 73
     2
 40
0.75
 49
0.5
 74
     0
 49
-0.25
 74
     0
  0
LTYPE
  5
1206
330
5
100
AcDbSymbolTableRecord
100
AcDbLinetypeTableRecord
  2
STRICHPUNKT
 70
     0
  3
__ . __ . __ . __ . __ . __ . __ . __ . __ . __
 72
    65
 73
     4
 40
1.0
 49
0.5
 74
     0
 49
-0.25
 74
     0
 49
0.0
 74
     0
 49
-0.25
 74
     0
  0
LTYPE
  5
1207
330
5
100
AcDbSymbolTableRecord
100
AcDbLinetypeTableRecord
  2
VERDECKT
 70
     0
  3
_ _ _ _ _ _ _ _ _ _ _ _ _ _ _ _ _ _ _ _ _ _ _
 72
    65
 73
     2
 40
0.375
 49
0.25
 74
     0
 49
-0.125
 74
     0
  0
LTYPE
  5
1208
330
5
100
AcDbSymbolTableRecord
100
AcDbLinetypeTableRecord
  2
AUSGEZOGEN
 70
     0
  3
Ausgezogene Linie
 72
    65
 73
     0
 40
0.0
  0
LTYPE
  5
4FE9
330
5
100
AcDbSymbolTableRecord
100
AcDbLinetypeTableRecord
  2
PHANTOM2
 70
     0
  3
___ _ _ ___ _ _ ___ _ _ ___ _ _
 72
    65
 73
     6
 40
1.25
 49
0.625
 74
     0
 49
-0.125
 74
     0
 49
0.125
 74
     0
 49
-0.125
 74
     0
 49
0.125
 74
     0
 49
-0.125
 74
     0
  0
ENDTAB
  0
TABLE
  2
LAYER
  5
2
102
{ACAD_XDICTIONARY
360
5017
102
}
330
0
100
AcDbSymbolTable
 70
    13
  0
LAYER
  5
E
102
{ACAD_XDICTIONARY
360
4FF2
102
}
330
2
100
AcDbSymbolTableRecord
100
AcDbLayerTableRecord
  2
0
 70
     0
 62
     7
  6
CONTINUOUS
370
    -3
390
5E8
  0
LAYER
  5
28
330
2
100
AcDbSymbolTableRecord
100
AcDbLayerTableRecord
  2
DEFPOINTS
 70
     0
 62
     7
  6
CONTINUOUS
290
     0
370
    -3
390
5E8
  0
LAYER
  5
B7
102
{ACAD_XDICTIONARY
360
4FF4
102
}
330
2
100
AcDbSymbolTableRecord
100
AcDbLayerTableRecord
  2
V5
 70
     0
 62
     7
  6
CONTINUOUS
370
    -3
390
5E8
  0
LAYER
  5
8F4
102
{ACAD_XDICTIONARY
360
4FF6
102
}
330
2
100
AcDbSymbolTableRecord
100
AcDbLayerTableRecord
  2
Mansfen
 70
     0
 62
     4
  6
CONTINUOUS
290
     0
370
    -3
390
5E8
  0
LAYER
  5
120A
102
{ACAD_XDICTIONARY
360
4FF8
102
}
330
2
100
AcDbSymbolTableRecord
100
AcDbLayerTableRecord
  2
V35
 70
     0
 62
     3
  6
CONTINUOUS
370
    -3
390
5E8
  0
LAYER
  5
120B
102
{ACAD_XDICTIONARY
360
4FFA
102
}
330
2
100
AcDbSymbolTableRecord
100
AcDbLayerTableRecord
  2
V25
 70
     0
 62
     4
  6
CONTINUOUS
370
    -3
390
5E8
  0
LAYER
  5
120C
102
{ACAD_XDICTIONARY
360
4FFC
102
}
330
2
100
AcDbSymbolTableRecord
100
AcDbLayerTableRecord
  2
SV35
 70
     0
 62
     6
  6
VERDECKT
370
    -3
390
5E8
  0
LAYER
  5
120D
102
{ACAD_XDICTIONARY
360
4FFE
102
}
330
2
100
AcDbSymbolTableRecord
100
AcDbLayerTableRecord
  2
ACHS
 70
     0
 62
     4
  6
STRICHPUNKT
370
    -3
390
5E8
  0
LAYER
  5
120E
102
{ACAD_XDICTIONARY
360
5000
102
}
330
2
100
AcDbSymbolTableRecord
100
AcDbLayerTableRecord
  2
TXT-D
 70
     0
 62
     1
  6
CONTINUOUS
370
    -3
390
5E8
  0
LAYER
  5
1211
102
{ACAD_XDICTIONARY
360
5002
102
}
330
2
100
AcDbSymbolTableRecord
100
AcDbLayerTableRecord
  2
ISO
 70
     0
 62
     4
  6
AUSGEZOGEN
370
    -3
390
5E8
  0
LAYER
  5
27C1
102
{ACAD_XDICTIONARY
360
5004
102
}
330
2
100
AcDbSymbolTableRecord
100
AcDbLayerTableRecord
  2
INSULATION
 70
     0
 62
     4
  6
CONTINUOUS
370
    -3
390
5E8
  0
LAYER
  5
4315
102
{ACAD_XDICTIONARY
360
5006
102
}
330
2
100
AcDbSymbolTableRecord
100
AcDbLayerTableRecord
  2
V15
 70
     0
 62
     4
  6
CONTINUOUS
370
    -3
390
5E8
  0
LAYER
  5
4DC3
102
{ACAD_XDICTIONARY
360
5008
102
}
330
2
100
AcDbSymbolTableRecord
100
AcDbLayerTableRecord
  2
1
 70
     0
 62
     7
  6
CONTINUOUS
370
    -3
390
5E8
  0
ENDTAB
  0
TABLE
  2
STYLE
  5
3
330
0
100
AcDbSymbolTable
 70
     3
  0
STYLE
  5
F
330
3
100
AcDbSymbolTableRecord
100
AcDbTextStyleTableRecord
  2
STANDARD
 70
     0
 40
0.0
 41
1.0
 50
0.0
 71
     0
 42
2.5
  3
txt
  4

  0
STYLE
  5
BF
330
3
100
AcDbSymbolTableRecord
100
AcDbTextStyleTableRecord
  2
ROMANS
 70
     0
 40
14.0
 41
1.0
 50
0.0
 71
     0
 42
2.5
  3
arial.ttf
  4

1001
ACAD
1000
Arial
1071
       34
  0
STYLE
  5
91F
330
3
100
AcDbSymbolTableRecord
100
AcDbTextStyleTableRecord
  2
Stil1
 70
     0
 40
3.0
 41
1.0
 50
0.0
 71
     0
 42
3.0
  3
arial.ttf
  4

1001
ACAD
1000
Arial
1071
       34
  0
ENDTAB
  0
TABLE
  2
VIEW
  5
6
330
0
100
AcDbSymbolTable
 70
     0
  0
ENDTAB
  0
TABLE
  2
UCS
  5
7
330
0
100
AcDbSymbolTable
 70
     0
  0
ENDTAB
  0
TABLE
  2
APPID
  5
9
330
0
100
AcDbSymbolTable
 70
     6
  0
APPID
  5
10
330
9
100
AcDbSymbolTableRecord
100
AcDbRegAppTableRecord
  2
ACAD
 70
     0
  0
APPID
  5
1EF9
330
9
100
AcDbSymbolTableRecord
100
AcDbRegAppTableRecord
  2
CONTENTBLOCKICON
 70
     0
  0
APPID
  5
3431
330
9
100
AcDbSymbolTableRecord
100
AcDbRegAppTableRecord
  2
DCO15
 70
     0
  0
APPID
  5
5026
330
9
100
AcDbSymbolTableRecord
100
AcDbRegAppTableRecord
  2
ACAD_EXEMPT_FROM_CAD_STANDARDS
 70
     0
  0
APPID
  5
503B
330
9
100
AcDbSymbolTableRecord
100
AcDbRegAppTableRecord
  2
ACAD_NAV_VCDISPLAY
 70
     0
  0
APPID
  5
5137
330
9
100
AcDbSymbolTableRecord
100
AcDbRegAppTableRecord
  2
ACAD_MLEADERVER
 70
     0
  0
ENDTAB
  0
TABLE
  2
DIMSTYLE
  5
A
330
0
100
AcDbSymbolTable
 70
     2
100
AcDbDimStyleTable
 71
     1
340
280
  0
DIMSTYLE
105
1D
330
A
100
AcDbSymbolTableRecord
100
AcDbDimStyleTableRecord
  2
STANDARD
 70
     0
340
F
  0
DIMSTYLE
105
280
330
A
100
AcDbSymbolTableRecord
100
AcDbDimStyleTableRecord
  2
18
 70
     0
 40
5.0
 41
3.5
 42
0.0
 43
3.75
 44
1.25
 73
     0
 74
     0
 77
     1
 78
     8
140
3.5
141
3.5
143
0.0394
147
0.625
171
     4
178
     2
271
     0
273
     8
274
     4
277
     6
340
BF
  0
ENDTAB
  0
TABLE
  2
BLOCK_RECORD
  5
1
330
0
100
AcDbSymbolTable
 70
     5
  0
BLOCK_RECORD
  5
18
102
{ACAD_XDICTIONARY
360
81C
102
}
330
1
100
AcDbSymbolTableRecord
100
AcDbBlockTableRecord
  2
*MODEL_SPACE
340
5EB
  0
BLOCK_RECORD
  5
2441
330
1
100
AcDbSymbolTableRecord
100
AcDbBlockTableRecord
  2
*Paper_Space
340
2440
  0
BLOCK_RECORD
  5
169B
330
1
100
AcDbSymbolTableRecord
100
AcDbBlockTableRecord
  2
OKAPPE
340
0
102
{BLKREFS
331
2BD9
102
}
  0
BLOCK_RECORD
  5
1737
330
1
100
AcDbSymbolTableRecord
100
AcDbBlockTableRecord
  2
L25
340
0
102
{BLKREFS
331
4B1D
102
}
  0
BLOCK_RECORD
  5
27A7
330
1
100
AcDbSymbolTableRecord
100
AcDbBlockTableRecord
  2
DAEMM
340
0
102
{BLKREFS
331
4B0B
331
4B0C
331
4B13
331
4B18
331
4B63
331
4B64
331
4B65
331
4B66
331
4B67
331
4B68
331
4B69
331
4B6A
331
4B6B
331
4B6C
331
4B6D
331
4B6E
331
4B6F
331
4B70
331
4B71
331
4BBB
331
4BED
331
4BFB
331
4BFC
331
4BFD
331
4C00
331
4C01
331
4C0C
331
4C0D
331
4C0E
331
4C0F
331
4C3F
331
4C54
331
4C56
331
4C57
331
4C5A
331
4C5C
331
4DE3
102
}
  0
BLOCK_RECORD
  5
3F53
330
1
100
AcDbSymbolTableRecord
100
AcDbBlockTableRecord
  2
e140
340
0
102
{BLKREFS
331
4B0F
331
4C3A
102
}
  0
BLOCK_RECORD
  5
4DD4
330
1
100
AcDbSymbolTableRecord
100
AcDbBlockTableRecord
  2
Ortgangprofil65
340
0
102
{BLKREFS
331
4DD8
102
}
  0
ENDTAB
  0
ENDSEC
  0
SECTION
  2
BLOCKS
  0
BLOCK
  5
19
330
18
100
AcDbEntity
  8
0
100
AcDbBlockBegin
  2
*MODEL_SPACE
 70
     0
 10
0.0
 20
0.0
 30
0.0
  3
*MODEL_SPACE
  1

  0
ENDBLK
  5
1A
330
18
100
AcDbEntity
  8
0
100
AcDbBlockEnd
  0
BLOCK
  5
245F
330
2441
100
AcDbEntity
 67
     1
  8
0
 48
5.0
100
AcDbBlockBegin
  2
*Paper_Space
 70
     0
 10
0.0
 20
0.0
 30
0.0
  3
*Paper_Space
  1

  0
ENDBLK
  5
2460
330
2441
100
AcDbEntity
 67
     1
  8
0
 48
5.0
100
AcDbBlockEnd
  0
BLOCK
  5
16A9
330
169B
100
AcDbEntity
  8
0
100
AcDbBlockBegin
  2
OKAPPE
 70
     0
 10
0.0
 20
0.0
 30
0.0
  3
OKAPPE
  1

  0
LINE
  5
169C
330
169B
100
AcDbEntity
  8
ACHS
100
AcDbLine
 10
-0.0523408411157789
 20
0.1898566739969283
 30
0.0
 11
5.447659158884221
 21
0.1898566739969283
 31
0.0
  0
LINE
  5
169D
330
169B
100
AcDbEntity
  8
ACHS
100
AcDbLine
 10
-0.0523408411157789
 20
0.1898566739969283
 30
0.0
 11
-15.94039117203374
 21
0.1898566739969283
 31
0.0
  0
LINE
  5
169E
330
169B
100
AcDbEntity
  8
V5
  6
Continuous
100
AcDbLine
 10
-17.55234084111578
 20
75.18985667399693
 30
0.0
 11
10.94765915888422
 21
75.18985667399693
 31
0.0
  0
LINE
  5
169F
330
169B
100
AcDbEntity
  8
V5
  6
Continuous
100
AcDbLine
 10
10.94765915888422
 20
75.18985667399693
 30
0.0
 11
10.94765915888422
 21
40.18985667399692
 31
0.0
  0
LINE
  5
16A0
330
169B
100
AcDbEntity
  8
V5
  6
Continuous
100
AcDbLine
 10
-17.55234084111578
 20
75.18985667399693
 30
0.0
 11
-17.55234084111578
 21
70.68985667399693
 31
0.0
  0
LINE
  5
16A1
330
169B
100
AcDbEntity
  8
V5
  6
Continuous
100
AcDbLine
 10
-17.55234084111578
 20
70.68985667399693
 30
0.0
 11
6.447659158884221
 21
70.68985667399693
 31
0.0
  0
LINE
  5
16A2
330
169B
100
AcDbEntity
  8
V5
  6
Continuous
100
AcDbLine
 10
6.447659158884221
 20
70.68985667399693
 30
0.0
 11
6.447659158884221
 21
40.18985667399692
 31
0.0
  0
LINE
  5
16A3
330
169B
100
AcDbEntity
  8
V5
  6
Continuous
100
AcDbLine
 10
-0.0523408411157789
 20
12.18985667399693
 30
0.0
 11
10.94765915888422
 21
40.18985667399692
 31
0.0
  0
LINE
  5
16A4
330
169B
100
AcDbEntity
  8
V5
  6
Continuous
100
AcDbLine
 10
-0.0523408411157789
 20
-8.810143326003071
 30
0.0
 11
-3.052340841115778
 21
-5.810143326003071
 31
0.0
  0
LINE
  5
16A5
330
169B
100
AcDbEntity
  8
V5
  6
Continuous
100
AcDbLine
 10
-3.952340841115869
 20
9.489856673996996
 30
0.0
 11
-3.052340841115778
 21
-5.810143326003071
 31
0.0
  0
LINE
  5
16A6
330
169B
100
AcDbEntity
  8
V5
  6
Continuous
100
AcDbLine
 10
-3.952340841115869
 20
9.489856673996996
 30
0.0
 11
6.447659158884221
 21
40.18985667399692
 31
0.0
  0
LINE
  5
16A7
330
169B
100
AcDbEntity
  8
V5
  6
Continuous
100
AcDbLine
 10
-0.0523408411157789
 20
-8.810143326003071
 30
0.0
 11
-0.0523408411157789
 21
12.18985667399693
 31
0.0
  0
LWPOLYLINE
  5
16A8
330
169B
100
AcDbEntity
  8
V5
  6
Continuous
100
AcDbPolyline
 90
       11
 70
     0
 43
0.0
 10
-17.55234084111578
 20
75.18985667399693
 10
10.94765915888422
 20
75.18985667399693
 10
10.94765915888422
 20
40.18985667399692
 10
-0.0523408411157789
 20
12.18985667399693
 10
-0.0523408411157789
 20
-8.810143326003071
 10
-3.052340841115778
 20
-5.810143326002958
 10
-3.952340841115869
 20
9.489856673996882
 10
6.447659158884221
 20
40.18985667399704
 10
6.447659158884221
 20
70.68985667399693
 10
-17.55234084111578
 20
70.68985667399693
 10
-17.55234084111578
 20
75.18985667399693
  0
ENDBLK
  5
16AA
330
169B
100
AcDbEntity
  8
0
100
AcDbBlockEnd
  0
BLOCK
  5
1756
330
1737
100
AcDbEntity
  8
0
100
AcDbBlockBegin
  2
L25
 70
     0
 10
0.0
 20
0.0
 30
0.0
  3
L25
  1

  0
LINE
  5
1738
330
1737
100
AcDbEntity
  8
V5
 62
     7
100
AcDbLine
 10
29.79268579799634
 20
0.9181486771002482
 30
0.0
 11
29.79268579799634
 21
6.918148677100248
 31
0.0
  0
ARC
  5
1739
330
1737
100
AcDbEntity
  8
V5
 62
     7
100
AcDbCircle
 10
-0.2073042020036837
 20
78.91814867710002
 30
0.0
 40
3.0
100
AcDbArc
 50
0.0
 51
90.0
  0
ARC
  5
173A
330
1737
100
AcDbEntity
  8
V5
 62
     7
100
AcDbCircle
 10
-0.2073042020036837
 20
78.91814867710002
 30
0.0
 40
3.0
100
AcDbArc
 50
90.0
 51
180.0
  0
ARC
  5
173B
330
1737
100
AcDbEntity
  8
V5
 62
     7
100
AcDbCircle
 10
4.792687797996109
 20
74.50393867710011
 30
0.0
 40
1.0
100
AcDbArc
 50
359.9948
 51
43.71048
  0
ARC
  5
173C
330
1737
100
AcDbEntity
  8
V5
 62
     7
100
AcDbCircle
 10
4.792687797996109
 20
71.91815067710002
 30
0.0
 40
1.0
100
AcDbArc
 50
270.0
 51
0.000008651422
  0
LINE
  5
173D
330
1737
100
AcDbEntity
  8
V5
 62
     7
100
AcDbLine
 10
5.792691797996326
 20
71.91815067710002
 30
0.0
 11
5.792691797996326
 21
74.50393867710011
 31
0.0
  0
LINE
  5
173E
330
1737
100
AcDbEntity
  8
V5
 62
     7
100
AcDbLine
 10
2.042686797996225
 20
70.9181476770999
 30
0.0
 11
4.792687797996109
 21
70.9181476770999
 31
0.0
  0
ARC
  5
173F
330
1737
100
AcDbEntity
  8
V5
 62
     7
100
AcDbCircle
 10
2.042686797996225
 20
69.91814867710002
 30
0.0
 40
1.0
100
AcDbArc
 50
90.00002
 51
180.0
  0
ARC
  5
1740
330
1737
100
AcDbEntity
  8
V5
 62
     7
100
AcDbCircle
 10
4.792687797996109
 20
74.50393867710011
 30
0.0
 40
1.0
100
AcDbArc
 50
45.0
 51
45.0
  0
LINE
  5
1741
330
1737
100
AcDbEntity
  8
V5
 62
     7
100
AcDbLine
 10
5.499798797996277
 20
75.21103867709996
 30
0.0
 11
2.792689797996104
 21
77.91814567710014
 31
0.0
  0
ARC
  5
1742
330
1737
100
AcDbEntity
  8
V5
 62
     7
100
AcDbCircle
 10
-5.20731220200389
 20
74.50393867710011
 30
0.0
 40
1.0
100
AcDbArc
 50
136.2895
 51
180.0052
  0
ARC
  5
1743
330
1737
100
AcDbEntity
  8
V5
 62
     7
100
AcDbCircle
 10
-5.20731220200389
 20
71.91815067710002
 30
0.0
 40
1.0
100
AcDbArc
 50
180.0
 51
270.0
  0
LINE
  5
1744
330
1737
100
AcDbEntity
  8
V5
 62
     7
100
AcDbLine
 10
-6.207311202003779
 20
71.91815067710002
 30
0.0
 11
-6.207311202003779
 21
74.50393867710011
 31
0.0
  0
LINE
  5
1745
330
1737
100
AcDbEntity
  8
V5
 62
     7
100
AcDbLine
 10
-2.457311202003779
 20
70.9181476770999
 30
0.0
 11
-5.20731220200389
 21
70.9181476770999
 31
0.0
  0
ARC
  5
1746
330
1737
100
AcDbEntity
  8
V5
 62
     7
100
AcDbCircle
 10
-2.457311202003779
 20
69.91814867710002
 30
0.0
 40
1.0
100
AcDbArc
 50
0.000006830186
 51
89.99998000000001
  0
ARC
  5
1747
330
1737
100
AcDbEntity
  8
V5
 62
     7
100
AcDbCircle
 10
-5.20731220200389
 20
74.50393867710011
 30
0.0
 40
1.0
100
AcDbArc
 50
135.0
 51
135.0
  0
LINE
  5
1748
330
1737
100
AcDbEntity
  8
V5
 62
     7
100
AcDbLine
 10
-5.914423202003831
 20
75.21103867709996
 30
0.0
 11
-3.207309202003671
 21
77.91814567710014
 31
0.0
  0
LINE
  5
1749
330
1737
100
AcDbEntity
  8
V5
 62
     7
100
AcDbLine
 10
2.792689797996104
 20
77.91814567710014
 30
0.0
 11
2.792689797996104
 21
78.91814867710002
 31
0.0
  0
LINE
  5
174A
330
1737
100
AcDbEntity
  8
V5
 62
     7
100
AcDbLine
 10
-3.207309202003671
 20
77.91814567710014
 30
0.0
 11
-3.207309202003671
 21
78.91814867710002
 31
0.0
  0
ARC
  5
174B
330
1737
100
AcDbEntity
  8
V5
 62
     7
100
AcDbCircle
 10
5.541646797996122
 20
9.91814867710002
 30
0.0
 40
2.999999
100
AcDbArc
 50
185.0006
 51
270.0
  0
ARC
  5
174C
330
1737
100
AcDbEntity
  8
V5
 62
     7
100
AcDbCircle
 10
-5.956271202003676
 20
9.91814867710002
 30
0.0
 40
2.999999
100
AcDbArc
 50
270.0
 51
354.9994
  0
LINE
  5
174D
330
1737
100
AcDbEntity
  8
V5
 62
     7
100
AcDbLine
 10
2.553069797996158
 20
9.656648677099951
 30
0.0
 11
1.042687797996109
 21
26.91814867710025
 31
0.0
  0
LINE
  5
174E
330
1737
100
AcDbEntity
  8
V5
 62
     7
100
AcDbLine
 10
-2.967694202003713
 20
9.656648677099951
 30
0.0
 11
-1.45731220200389
 21
26.91814867710025
 31
0.0
  0
LINE
  5
174F
330
1737
100
AcDbEntity
  8
V5
 62
     7
100
AcDbLine
 10
-30.20731420200366
 20
0.9181486771002482
 30
0.0
 11
-30.20731420200366
 21
6.918148677100248
 31
0.0
  0
LINE
  5
1750
330
1737
100
AcDbEntity
  8
V5
 62
     7
100
AcDbLine
 10
-30.20731420200366
 20
6.918148677100248
 30
0.0
 11
-5.956271202003676
 21
6.918148677100248
 31
0.0
  0
LINE
  5
1751
330
1737
100
AcDbEntity
  8
V5
 62
     7
100
AcDbLine
 10
-30.20731420200366
 20
0.9181486771002482
 30
0.0
 11
-0.2073042020036837
 21
0.9181486771002482
 31
0.0
  0
LINE
  5
1752
330
1737
100
AcDbEntity
  8
V5
 62
     7
100
AcDbLine
 10
1.042687797996109
 20
69.91814867710002
 30
0.0
 11
1.042687797996109
 21
26.91814867710025
 31
0.0
  0
LINE
  5
1753
330
1737
100
AcDbEntity
  8
V5
 62
     7
100
AcDbLine
 10
-1.45731220200389
 20
69.91814867710002
 30
0.0
 11
-1.45731220200389
 21
26.91814867710025
 31
0.0
  0
LINE
  5
1754
330
1737
100
AcDbEntity
  8
V5
 62
     7
100
AcDbLine
 10
29.79268579799634
 20
6.918148677100248
 30
0.0
 11
5.541646797996122
 21
6.918148677100248
 31
0.0
  0
LINE
  5
1755
330
1737
100
AcDbEntity
  8
V5
 62
     7
100
AcDbLine
 10
29.79268579799634
 20
0.9181486771002482
 30
0.0
 11
-0.2073042020036837
 21
0.9181486771002482
 31
0.0
  0
ENDBLK
  5
1757
330
1737
100
AcDbEntity
  8
0
100
AcDbBlockEnd
  0
BLOCK
  5
27A9
330
27A7
100
AcDbEntity
  8
0
 48
5.0
100
AcDbBlockBegin
  2
DAEMM
 70
     0
 10
0.0
 20
0.0
 30
0.0
  3
DAEMM
  1

  0
LWPOLYLINE
  5
27A8
330
27A7
100
AcDbEntity
  8
INSULATION
100
AcDbPolyline
 90
        6
 70
     0
 43
0.0
 10
0.0
 20
0.0
 42
0.5249926553343702
 10
1.869693845669928
 20
2.710102051443413
 10
0.1303061543300714
 20
7.289897948556586
 42
-1.449489742783175
 10
3.869693845669928
 20
7.289897948556586
 10
2.130306154330071
 20
2.710102051443413
 42
0.5249926553343702
 10
4.0
 20
0.0
  0
ENDBLK
  5
27AA
330
27A7
100
AcDbEntity
  8
0
 48
5.0
100
AcDbBlockEnd
  0
BLOCK
  5
3F76
330
3F53
100
AcDbEntity
  8
0
 62
     6
 48
10.0
100
AcDbBlockBegin
  2
e140
 70
     0
 10
0.0
 20
0.0
 30
0.0
  3
e140
  1

  0
LINE
  5
3F54
330
3F53
100
AcDbEntity
  8
0
 62
     3
100
AcDbLine
 10
1.761882177941579
 20
146.0000000000004
 30
0.0
 11
25.48733180248865
 21
11.0
 31
0.0
  0
LINE
  5
3F55
330
3F53
100
AcDbEntity
  8
0
 62
     3
100
AcDbLine
 10
-1.761882177942503
 20
146.0000000000001
 30
0.0
 11
-25.48733180248864
 21
11.0
 31
0.0
  0
LINE
  5
3F56
330
3F53
100
AcDbEntity
  8
0
 62
     3
100
AcDbLine
 10
-4.705591908087658
 20
12.70737123184409
 30
0.0
 11
-2.000000000000454
 21
29.0
 31
0.0
  0
LINE
  5
3F57
330
3F53
100
AcDbEntity
  8
0
 62
     3
100
AcDbLine
 10
4.705591908087637
 20
12.70737123184401
 30
0.0
 11
1.999999999999545
 21
29.0
 31
0.0
  0
LINE
  5
3F58
330
3F53
100
AcDbEntity
  8
0
 62
     4
100
AcDbLine
 10
-21.99999999999864
 20
18.45272980605568
 30
0.0
 11
-21.99999999999973
 21
-19.91791965098093
 31
0.0
  0
LINE
  5
3F59
330
3F53
100
AcDbEntity
  8
0
 62
     4
100
AcDbLine
 10
21.99999999999954
 20
18.45272980605341
 30
0.0
 11
21.99999999999954
 21
-19.91791965098093
 31
0.0
  0
LINE
  5
3F5A
330
3F53
100
AcDbEntity
  8
0
 62
     3
100
AcDbLine
 10
-32.50000000000046
 20
0.0
 30
0.0
 11
32.50000000000046
 21
0.0
 31
0.0
  0
LINE
  5
3F5B
330
3F53
100
AcDbEntity
  8
0
 62
     3
100
AcDbLine
 10
-6.684068191505676
 20
10.99999999999997
 30
0.0
 11
-32.00000000000045
 21
11.0
 31
0.0
  0
LINE
  5
3F5C
330
3F53
100
AcDbEntity
  8
0
 62
     3
100
AcDbLine
 10
-32.50000000000046
 20
10.5
 30
0.0
 11
-32.50000000000046
 21
0.0
 31
0.0
  0
ARC
  5
3F5D
330
3F53
100
AcDbEntity
  8
0
 62
     3
100
AcDbCircle
 10
-32.00000000000045
 20
10.5
 30
0.0
 40
0.5
100
AcDbArc
 50
90.0
 51
180.0
  0
LINE
  5
3F5E
330
3F53
100
AcDbEntity
  8
0
 62
     3
100
AcDbLine
 10
6.684068191505641
 20
10.99999999999997
 30
0.0
 11
32.00000000000045
 21
11.0
 31
0.0
  0
ARC
  5
3F5F
330
3F53
100
AcDbEntity
  8
0
 62
     3
100
AcDbCircle
 10
-6.684068191505676
 20
12.99999999999997
 30
0.0
 40
2.0
100
AcDbArc
 50
270.0
 51
351.5866003291716
  0
ARC
  5
3F60
330
3F53
100
AcDbEntity
  8
0
 62
     3
100
AcDbCircle
 10
6.684068191505641
 20
12.99999999999997
 30
0.0
 40
2.0
100
AcDbArc
 50
188.4133996708317
 51
270.0
  0
LINE
  5
3F61
330
3F53
100
AcDbEntity
  8
0
 62
     3
100
AcDbLine
 10
32.50000000000046
 20
10.5
 30
0.0
 11
32.50000000000046
 21
0.0
 31
0.0
  0
ARC
  5
3F62
330
3F53
100
AcDbEntity
  8
0
 62
     3
100
AcDbCircle
 10
32.00000000000045
 20
10.5
 30
0.0
 40
0.5
100
AcDbArc
 50
0.0
 51
90.0
  0
LINE
  5
3F63
330
3F53
100
AcDbEntity
  8
0
 62
     3
100
AcDbLine
 10
1.761882177941579
 20
146.0000000000004
 30
0.0
 11
1.999999999999545
 21
29.0
 31
0.0
  0
LINE
  5
3F64
330
3F53
100
AcDbEntity
  8
0
 62
     3
100
AcDbLine
 10
-1.761882177942503
 20
146.0000000000001
 30
0.0
 11
-2.000000000000454
 21
29.0
 31
0.0
  0
ARC
  5
3F65
330
3F53
100
AcDbEntity
  8
0
 62
     3
100
AcDbCircle
 10
-2.549919279120675
 20
189.2
 30
0.0
 40
0.8
100
AcDbArc
 50
359.9768564758476
 51
90.0
  0
ARC
  5
3F66
330
3F53
100
AcDbEntity
  8
0
 62
     3
100
AcDbCircle
 10
2.54991927911977
 20
189.2
 30
0.0
 40
0.8
100
AcDbArc
 50
90.0
 51
180.0231435241524
  0
LINE
  5
3F67
330
3F53
100
AcDbEntity
  8
0
 62
     3
100
AcDbLine
 10
1.749919344383773
 20
189.1996768554512
 30
0.0
 11
1.761882177941579
 21
146.0000000000004
 31
0.0
  0
LINE
  5
3F68
330
3F53
100
AcDbEntity
  8
0
 62
     3
100
AcDbLine
 10
-1.749919344384679
 20
189.1996768554512
 30
0.0
 11
-1.761882177942503
 21
146.0000000000001
 31
0.0
  0
ARC
  5
3F69
330
3F53
100
AcDbEntity
  8
0
 62
     3
100
AcDbCircle
 10
-0.0000000000004547
 20
198.0
 30
0.0
 40
3.0
100
AcDbArc
 50
0.0
 51
180.0
  0
LINE
  5
3F6A
330
3F53
100
AcDbEntity
  8
0
 62
     3
100
AcDbLine
 10
-2.549919279120675
 20
190.0
 30
0.0
 11
-6.000000000000454
 21
190.0
 31
0.0
  0
LINE
  5
3F6B
330
3F53
100
AcDbEntity
  8
0
 62
     3
100
AcDbLine
 10
-5.597271020094954
 20
193.5344394073002
 30
0.0
 11
-3.100682244976724
 21
196.847524613036
 31
0.0
  0
ARC
  5
3F6C
330
3F53
100
AcDbEntity
  8
0
 62
     3
100
AcDbCircle
 10
-4.000000000000451
 20
192.330809360996
 30
0.0
 40
2.0
100
AcDbArc
 50
142.9999999999953
 51
180.0
  0
LINE
  5
3F6D
330
3F53
100
AcDbEntity
  8
0
 62
     3
100
AcDbLine
 10
-6.000000000000454
 20
190.0
 30
0.0
 11
-6.000000000000451
 21
192.330809360996
 31
0.0
  0
LINE
  5
3F6E
330
3F53
100
AcDbEntity
  8
0
 62
     3
100
AcDbLine
 10
-3.000000000000454
 20
197.1484321246121
 30
0.0
 11
-3.000000000000454
 21
198.0
 31
0.0
  0
ARC
  5
3F6F
330
3F53
100
AcDbEntity
  8
0
 62
     3
100
AcDbCircle
 10
-3.500000000000454
 20
197.1484321246121
 30
0.0
 40
0.5
100
AcDbArc
 50
322.9999999999953
 51
0.0000000000032569
  0
ARC
  5
3F70
330
3F53
100
AcDbEntity
  8
0
 62
     3
100
AcDbCircle
 10
3.999999999999545
 20
192.330809360996
 30
0.0
 40
2.0
100
AcDbArc
 50
0.0
 51
37.00000000000466
  0
LINE
  5
3F71
330
3F53
100
AcDbEntity
  8
0
 62
     3
100
AcDbLine
 10
2.54991927911977
 20
190.0
 30
0.0
 11
5.999999999999545
 21
190.0
 31
0.0
  0
LINE
  5
3F72
330
3F53
100
AcDbEntity
  8
0
 62
     3
100
AcDbLine
 10
5.597271020094048
 20
193.5344394073003
 30
0.0
 11
3.100682244975814
 21
196.847524613036
 31
0.0
  0
ARC
  5
3F73
330
3F53
100
AcDbEntity
  8
0
 62
     3
100
AcDbCircle
 10
3.499999999999545
 20
197.1484321246121
 30
0.0
 40
0.5
100
AcDbArc
 50
179.9999999999967
 51
217.0000000000047
  0
LINE
  5
3F74
330
3F53
100
AcDbEntity
  8
0
 62
     3
100
AcDbLine
 10
2.999999999999545
 20
197.1484321246121
 30
0.0
 11
2.999999999999545
 21
198.0
 31
0.0
  0
LINE
  5
3F75
330
3F53
100
AcDbEntity
  8
0
 62
     3
100
AcDbLine
 10
5.999999999999545
 20
190.0
 30
0.0
 11
5.999999999999545
 21
192.330809360996
 31
0.0
  0
ENDBLK
  5
3F77
330
3F53
100
AcDbEntity
  8
0
 62
     6
 48
10.0
100
AcDbBlockEnd
  0
BLOCK
  5
4DD6
330
4DD4
100
AcDbEntity
  8
0
 48
5.0
100
AcDbBlockBegin
  2
Ortgangprofil65
 70
     0
 10
0.0
 20
0.0
 30
0.0
  3
Ortgangprofil65
  1

  0
LWPOLYLINE
  5
4DD5
330
4DD4
100
AcDbEntity
  8
1
 62
     7
100
AcDbPolyline
 90
       26
 70
     1
 43
1.0
 10
-4.050000000000011
 20
17.0
 42
0.4142135623730919
 10
-6.5
 20
19.44999999999998
 10
-18.42759112632694
 20
19.45
 10
-25.11646857029615
 20
17.65772069061769
 42
0.3394542588634101
 10
-25.44999999999999
 20
17.22305406878764
 42
0.4931454260312771
 10
-24.88353142970385
 20
16.78838744695751
 10
-18.30910387849832
 20
18.55
 10
-6.5
 20
18.55
 42
-0.4142135623730964
 10
-4.949999999999988
 20
17.0
 10
-4.949999999999988
 20
1.450000000000002
 10
-40.94999999999998
 20
1.450000000000002
 10
-40.94999999999998
 20
0.5500000000000007
 10
42.94999999999999
 20
0.5500000000000043
 10
42.94999999999999
 20
1.449999999999992
 10
12.94999999999999
 20
1.450000000000002
 10
12.94999999999999
 20
86.44999999999999
 10
-35.94999999999999
 20
86.45000000000001
 10
-35.94999999999999
 20
85.55000000000001
 10
-12.94999999999999
 20
85.55000000000001
 10
-12.94999999999999
 20
66.0
 42
0.4142135623730896
 10
-12.5
 20
65.54999999999999
 42
0.4142135623730943
 10
-12.05000000000001
 20
66.0
 10
-12.05000000000001
 20
85.55000000000001
 10
12.05000000000001
 20
85.55000000000001
 10
12.05000000000001
 20
1.450000000000009
 10
-4.050000000000011
 20
1.450000000000002
  0
ENDBLK
  5
4DD7
330
4DD4
100
AcDbEntity
  8
0
 48
5.0
100
AcDbBlockEnd
  0
ENDSEC
  0
SECTION
  2
ENTITIES
  0
LINE
  5
1CDE
330
18
100
AcDbEntity
  8
V5
100
AcDbLine
 10
565.9688614504581
 20
515.6642957210006
 30
0.0
 11
901.4285714285712
 21
515.6642957210003
 31
0.0
  0
LINE
  5
1CE1
330
18
100
AcDbEntity
  8
V5
100
AcDbLine
 10
565.9688614504581
 20
405.6642957210005
 30
0.0
 11
901.4285714285712
 21
405.6642957210004
 31
0.0
  0
LINE
  5
1CE4
330
18
100
AcDbEntity
  8
ACHS
 62
     3
 48
3.5
100
AcDbLine
 10
901.4285714285714
 20
692.0674903365487
 30
0.0
 11
901.4285714285714
 21
390.4074922417618
 31
0.0
  0
LINE
  5
1CE6
102
{ACAD_REACTORS
330
2DC4
102
}
330
18
100
AcDbEntity
  8
V25
100
AcDbLine
 10
654.6716544152908
 20
413.645644282296
 30
0.0
 11
654.6716544152908
 21
382.5583825710502
 31
0.0
  0
LINE
  5
1CE8
330
18
100
AcDbEntity
  8
V5
100
AcDbLine
 10
565.9688614504581
 20
405.6642957210004
 30
0.0
 11
565.9688614504581
 21
515.6642957210006
 31
0.0
  0
TEXT
  5
1CEC
330
18
100
AcDbEntity
  8
TXT-D
 62
     7
100
AcDbText
 10
745.0517970846425
 20
839.4087783370155
 30
0.0
 40
14.0
  1
poplastovaná klipsa*
  7
ROMANS
100
AcDbText
  0
TEXT
  5
1CED
330
18
100
AcDbEntity
  8
TXT-D
 62
     7
100
AcDbText
 10
778.1019046913752
 20
734.7526375138508
 30
0.0
 40
14.0
  1
parotěsná vrstva
  7
ROMANS
100
AcDbText
  0
TEXT
  5
1CEE
330
18
100
AcDbEntity
  8
TXT-D
 62
     7
100
AcDbText
 10
744.7191469299233
 20
816.7127351893261
 30
0.0
 40
14.0
  1
alternativa: Al klipsa
  7
ROMANS
100
AcDbText
  0
TEXT
  5
1CEF
330
18
100
AcDbEntity
  8
TXT-D
 62
     7
100
AcDbText
 10
745.2838224893157
 20
879.7782919957283
 30
0.0
 40
14.0
  1
minerální tepelná izolace
  7
ROMANS
100
AcDbText
  0
TEXT
  5
1CF0
330
18
100
AcDbEntity
  8
TXT-D
 62
     7
100
AcDbText
 10
745.2838224893157
 20
914.1553349740611
 30
0.0
 40
14.0
  1
Kalzip
  7
ROMANS
100
AcDbText
  0
TEXT
  5
1CF1
330
18
100
AcDbEntity
  8
TXT-D
 62
     7
100
AcDbText
 10
744.5402040570268
 20
948.9471479598423
 30
0.0
 40
14.0
  1
dřevěný nosník
  7
ROMANS
100
AcDbText
  0
TEXT
  5
1CF3
330
18
100
AcDbEntity
  8
TXT-D
 62
     7
100
AcDbText
 10
115.6953784518387
 20
882.6088881134504
 30
0.0
 40
14.0
  1
výztužný U profil
  7
ROMANS
100
AcDbText
  0
TEXT
  5
1CF4
330
18
100
AcDbEntity
  8
TXT-D
 62
     7
100
AcDbText
 10
115.1138959045989
 20
842.8188883245592
 30
0.0
 40
14.0
  1
příchyt ve štítu
  7
ROMANS
100
AcDbText
  0
TEXT
  5
1CF5
330
18
100
AcDbEntity
  8
TXT-D
 62
     7
100
AcDbText
 10
115.560308126327
 20
807.6712179071982
 30
0.0
 40
14.0
  1
oplechování štítu
  7
ROMANS
100
AcDbText
  0
TEXT
  5
1CF6
330
18
100
AcDbEntity
  8
TXT-D
 62
     7
100
AcDbText
 10
778.3435355464288
 20
371.5851737551434
 30
0.0
 40
14.0
  1
trapézový plech
  7
ROMANS
100
AcDbText
  0
TEXT
  5
1CF7
330
18
100
AcDbEntity
  8
TXT-D
 62
     7
100
AcDbText
 10
777.5500750158633
 20
298.6996553822773
 30
0.0
 40
14.0
  1
vazník
  7
ROMANS
100
AcDbText
  0
LINE
  5
1CF8
330
18
100
AcDbEntity
  8
TXT-D
100
AcDbLine
 10
301.3513895914097
 20
813.0240972313252
 30
0.0
 11
268.8560545987002
 21
813.0240972313252
 31
0.0
  0
LINE
  5
1CF9
330
18
100
AcDbEntity
  8
TXT-D
100
AcDbLine
 10
328.0853544379569
 20
847.335904531458
 30
0.0
 11
268.8560545987002
 21
847.335904531458
 31
0.0
  0
LINE
  5
1CFA
330
18
100
AcDbEntity
  8
TXT-D
100
AcDbLine
 10
354.8193192845042
 20
888.1380325054495
 30
0.0
 11
268.8560545987002
 21
888.1380325054495
 31
0.0
  0
LINE
  5
1CFC
330
18
100
AcDbEntity
  8
TXT-D
100
AcDbLine
 10
734.9758981048471
 20
955.0386620743113
 30
0.0
 11
541.9267564458706
 21
955.0386620743115
 31
0.0
  0
LINE
  5
1CFD
330
18
100
AcDbEntity
  8
TXT-D
100
AcDbLine
 10
735.9759669693557
 20
922.4498398055841
 30
0.0
 11
597.3615921010272
 21
922.4498398055841
 31
0.0
  0
LINE
  5
1CFE
330
18
100
AcDbEntity
  8
TXT-D
100
AcDbLine
 10
736.9760484203143
 20
888.1380325054495
 30
0.0
 11
642.9502740432531
 21
888.1380325054495
 31
0.0
  0
LINE
  5
1CFF
330
18
100
AcDbEntity
  8
TXT-D
100
AcDbLine
 10
734.9758981048471
 20
847.335904531458
 30
0.0
 11
713.6707418549478
 21
847.335904531458
 31
0.0
  0
LINE
  5
1D00
330
18
100
AcDbEntity
  8
TXT-D
100
AcDbLine
 10
768.9015008834363
 20
740.9178918381625
 30
0.0
 11
757.3928920680586
 21
740.9178918381625
 31
0.0
  0
LINE
  5
1D01
330
18
100
AcDbEntity
  8
TXT-D
100
AcDbLine
 10
772.6187860238399
 20
305.0013220980696
 30
0.0
 11
627.1428571428571
 21
305.0013220980696
 31
0.0
  0
LINE
  5
1D02
330
18
100
AcDbEntity
  8
TXT-D
100
AcDbLine
 10
772.6187860238399
 20
339.5013220980696
 30
0.0
 11
705.2078202690925
 21
339.5013220980696
 31
0.0
  0
LINE
  5
1D03
330
18
100
AcDbEntity
  8
TXT-D
100
AcDbLine
 10
757.3928920680586
 20
527.1014120837697
 30
0.0
 11
757.3928920680586
 21
736.3162130430167
 31
0.0
  0
LINE
  5
1D04
330
18
100
AcDbEntity
  8
TXT-D
100
AcDbLine
 10
757.3928920680586
 20
740.9178918381625
 30
0.0
 11
757.3928920680586
 21
595.1522546725607
 31
0.0
  0
LINE
  5
1D05
330
18
100
AcDbEntity
  8
TXT-D
100
AcDbLine
 10
642.9502740432531
 20
580.8903860317068
 30
0.0
 11
642.9502740432531
 21
888.1380325054495
 31
0.0
  0
LINE
  5
1D06
330
18
100
AcDbEntity
  8
TXT-D
100
AcDbLine
 10
713.6707418549478
 20
726.099576927445
 30
0.0
 11
713.6707418549478
 21
847.335904531458
 31
0.0
  0
LINE
  5
1D07
330
18
100
AcDbEntity
  8
TXT-D
100
AcDbLine
 10
705.2078202690926
 20
417.2471693950191
 30
0.0
 11
705.2078202690925
 21
339.5013220980696
 31
0.0
  0
LWPOLYLINE
  5
1D13
330
18
100
AcDbEntity
  8
V5
100
AcDbPolyline
 90
        4
 70
     0
 43
0.0
 10
556.3672709515961
 20
230.4509096129514
 10
556.3672709515961
 20
580.3490365130655
 10
356.3672709515962
 20
580.3490365130658
 10
356.3672709515962
 20
230.4509096129514
  0
LINE
  5
1D1F
330
18
100
AcDbEntity
  8
ACHS
 62
     3
 48
3.5
100
AcDbLine
 10
341.9462393976739
 20
230.4509096129514
 30
0.0
 11
569.9648300970923
 21
230.4509096129514
 31
0.0
  0
LWPOLYLINE
  5
1D20
102
{ACAD_REACTORS
330
2DC4
102
}
330
18
100
AcDbEntity
  8
V35
100
AcDbPolyline
 90
       18
 70
     1
 43
0.0
 10
565.7142857142856
 20
400.9579265766235
 10
685.7142857142856
 20
400.9579265766235
 10
685.7142857142856
 20
392.9579265766235
 10
640.2142857142856
 20
392.9579265766235
 42
0.4142135623730951
 10
628.2142857142856
 20
380.9579265766235
 10
628.2142857142856
 20
343.9579265766235
 10
628.2142857142856
 20
306.9579265766235
 42
0.4142135623730951
 10
640.2142857142856
 20
294.9579265766235
 10
685.7142857142856
 20
294.9579265766235
 10
685.7142857142856
 20
286.9579265766235
 10
565.7142857142856
 20
286.9579265766235
 10
565.7142857142856
 20
294.9579265766235
 10
611.2142857142856
 20
294.9579265766235
 42
0.4142135623730951
 10
623.2142857142856
 20
306.9579265766235
 10
623.2142857142856
 20
343.9579265766235
 10
623.2142857142856
 20
380.9579265766235
 42
0.4142135623730951
 10
611.2142857142856
 20
392.9579265766235
 10
565.7142857142856
 20
392.9579265766235
  0
ARC
  5
1D73
330
18
100
AcDbEntity
  8
ISO
100
AcDbCircle
 10
901.3066767816781
 20
542.6430893622412
 30
0.0
 40
12.0
100
AcDbArc
 50
270.0000000000001
 51
270.5820140769388
  0
LINE
  5
1DDD
330
18
100
AcDbEntity
  8
TXT-D
100
AcDbLine
 10
597.3615921010271
 20
670.396353838409
 30
0.0
 11
597.3615921010272
 21
922.4498398055841
 31
0.0
  0
LWPOLYLINE
  5
2B7C
102
{ACAD_REACTORS
330
2B7D
102
}
330
18
100
AcDbEntity
  8
SV35
  6
AUSGEZOGEN
 48
5.0
100
AcDbPolyline
 90
        4
 70
     1
 43
0.0
 10
526.3672709515961
 20
580.3490365130655
 10
556.3672709515961
 20
580.3490365130655
 10
556.3672709515961
 20
585.3490365130656
 10
526.3672709515961
 20
585.3490365130656
  0
HATCH
  5
2B7D
330
18
100
AcDbEntity
  8
V25
 48
5.0
100
AcDbHatch
 10
0.0
 20
0.0
 30
0.0
210
0.0
220
0.0
230
1.0
  2
ANSI37
 70
     0
 71
     1
 91
        1
 92
        7
 72
     0
 73
     1
 93
        4
 10
526.3672709515959
 20
585.3490365130656
 10
526.3672709515961
 20
580.3490365130655
 10
556.3672709515961
 20
580.3490365130655
 10
556.3672709515961
 20
585.3490365130656
 97
        1
330
2B7C
 75
     0
 76
     1
 52
-0.0000000000000127
 41
1.0
 77
     0
 78
     2
 53
44.99999999999999
 43
42.05124698360191
 44
-71.83372847379712
 45
-2.245064030267287
 46
2.245064030267288
 79
     0
 53
134.9999999999999
 43
42.05124698360191
 44
-71.83372847379712
 45
-2.245064030267288
 46
-2.245064030267287
 79
     0
 47
0.1149827854136383
 98
        1
 10
544.6430346059569
 20
583.6795484954509
  0
LWPOLYLINE
  5
2B7F
330
18
100
AcDbEntity
  8
V5
100
AcDbPolyline
 90
        4
 70
     0
 43
0.0
 10
556.1767860412799
 20
641.6956739142106
 10
556.1767860412799
 20
589.3958001530116
 10
356.1767860412797
 20
589.3958001530116
 10
356.1767860412797
 20
641.6956739142106
  0
LINE
  5
2B80
330
18
100
AcDbEntity
  8
V5
100
AcDbLine
 10
356.1767860412797
 20
641.6956739142106
 30
0.0
 11
556.1767860412794
 21
641.6956739142106
 31
0.0
  0
LINE
  5
2B81
330
18
100
AcDbEntity
  8
V25
100
AcDbLine
 10
501.2977738247837
 20
640.6480814884055
 30
0.0
 11
506.741918888046
 21
634.8452885225417
 31
0.0
  0
LINE
  5
2B82
330
18
100
AcDbEntity
  8
V25
100
AcDbLine
 10
504.1739259336771
 20
631.9695681146799
 30
0.0
 11
517.3220498600467
 21
638.3885868822285
 31
0.0
  0
LINE
  5
2B83
330
18
100
AcDbEntity
  8
V25
100
AcDbLine
 10
501.2977738247837
 20
601.6731717373026
 30
0.0
 11
506.741918888046
 21
595.8703787714389
 31
0.0
  0
LINE
  5
2B84
330
18
100
AcDbEntity
  8
V25
100
AcDbLine
 10
504.1739259336771
 20
590.5790951349615
 30
0.0
 11
517.3220498600467
 21
599.4136771311254
 31
0.0
  0
LINE
  5
2B85
330
18
100
AcDbEntity
  8
V25
100
AcDbLine
 10
423.8471063210122
 20
637.7723610805437
 30
0.0
 11
432.9585393107556
 21
641.6956739142106
 31
0.0
  0
LINE
  5
2B86
330
18
100
AcDbEntity
  8
V25
100
AcDbLine
 10
426.0555802617695
 20
617.3355775301206
 30
0.0
 11
434.3758774339256
 21
609.684107159203
 31
0.0
  0
LINE
  5
2B87
330
18
100
AcDbEntity
  8
V25
100
AcDbLine
 10
423.8471063210122
 20
598.7974513294409
 30
0.0
 11
437.9197077109547
 21
604.8570050460066
 31
0.0
  0
LINE
  5
2B88
330
18
100
AcDbEntity
  8
V25
100
AcDbLine
 10
394.3665472048554
 20
619.90318503714
 30
0.0
 11
399.5025331135935
 21
622.4707925441594
 31
0.0
  0
LINE
  5
2B89
330
18
100
AcDbEntity
  8
V25
100
AcDbLine
 10
382.1942606011459
 20
613.4841662695917
 30
0.0
 11
391.490395095962
 21
618.6193812836304
 31
0.0
  0
LINE
  5
2B8A
330
18
100
AcDbEntity
  8
V25
100
AcDbLine
 10
376.4419563833592
 20
607.1164996521836
 30
0.0
 11
381.8861014466215
 21
601.6731717373026
 31
0.0
  0
LINE
  5
2B8B
330
18
100
AcDbEntity
  8
V25
100
AcDbLine
 10
378.0341120150679
 20
610.6084458617299
 30
0.0
 11
382.1942606011459
 21
613.4841662695917
 31
0.0
  0
LINE
  5
2B8C
330
18
100
AcDbEntity
  8
V25
100
AcDbLine
 10
371.3059704746211
 20
607.7327254538683
 30
0.0
 11
378.0341120150679
 21
610.6084458617299
 31
0.0
  0
LINE
  5
2B8D
330
18
100
AcDbEntity
  8
V25
100
AcDbLine
 10
381.8861014466215
 20
601.6731717373026
 30
0.0
 11
386.7139282008354
 21
595.5622658705965
 31
0.0
  0
LINE
  5
2B8E
330
18
100
AcDbEntity
  8
V25
100
AcDbLine
 10
386.7139282008354
 20
634.5371756216994
 30
0.0
 11
390.0489434950041
 21
627.8330036453958
 31
0.0
  0
LINE
  5
2B8F
330
18
100
AcDbEntity
  8
V25
100
AcDbLine
 10
381.8861014466215
 20
640.6480814884055
 30
0.0
 11
386.7139282008354
 21
634.5371756216994
 31
0.0
  0
LINE
  5
2B90
330
18
100
AcDbEntity
  8
V25
100
AcDbLine
 10
391.490395095962
 20
618.6193812836304
 30
0.0
 11
394.3665472048554
 21
619.90318503714
 31
0.0
  0
LINE
  5
2B91
330
18
100
AcDbEntity
  8
V25
100
AcDbLine
 10
412.0629477874713
 20
627.8330036453958
 30
0.0
 11
417.4271239350896
 21
623.8932434646869
 31
0.0
  0
LINE
  5
2B92
330
18
100
AcDbEntity
  8
V25
100
AcDbLine
 10
399.5025331135935
 20
622.4707925441594
 30
0.0
 11
402.0705260679624
 21
623.4464833968267
 31
0.0
  0
LINE
  5
2B93
330
18
100
AcDbEntity
  8
V25
100
AcDbLine
 10
417.4271239350896
 20
623.8932434646869
 30
0.0
 11
426.0555802617695
 21
617.3355775301206
 31
0.0
  0
LINE
  5
2B94
330
18
100
AcDbEntity
  8
V25
100
AcDbLine
 10
457.4364541641598
 20
613.4841662695917
 30
0.0
 11
466.0649104908397
 21
617.3355775301206
 31
0.0
  0
LINE
  5
2B95
330
18
100
AcDbEntity
  8
V25
100
AcDbLine
 10
466.0649104908397
 20
617.3355775301206
 30
0.0
 11
465.7567513363155
 21
617.0274646292784
 31
0.0
  0
LINE
  5
2B96
330
18
100
AcDbEntity
  8
V25
100
AcDbLine
 10
449.4243161465283
 20
609.9922200600453
 30
0.0
 11
454.8684612097907
 21
612.2003625160819
 31
0.0
  0
LINE
  5
2B97
330
18
100
AcDbEntity
  8
V25
100
AcDbLine
 10
445.623686574062
 20
597.1541825249484
 30
0.0
 11
449.4882697658065
 21
589.3958001530116
 31
0.0
  0
LINE
  5
2B98
330
18
100
AcDbEntity
  8
V25
100
AcDbLine
 10
440.1795415107996
 20
602.5975104398296
 30
0.0
 11
445.623686574062
 21
597.1541825249484
 31
0.0
  0
LINE
  5
2B99
330
18
100
AcDbEntity
  8
V25
100
AcDbLine
 10
441.1040189743723
 20
605.4732308476912
 30
0.0
 11
449.4243161465283
 21
609.9922200600453
 31
0.0
  0
LINE
  5
2B9A
330
18
100
AcDbEntity
  8
V25
100
AcDbLine
 10
437.9197077109547
 20
604.8570050460066
 30
0.0
 11
441.1040189743723
 21
605.4732308476912
 31
0.0
  0
LINE
  5
2B9B
330
18
100
AcDbEntity
  8
V25
100
AcDbLine
 10
434.3758774339256
 20
609.684107159203
 30
0.0
 11
440.1795415107996
 21
602.5975104398296
 31
0.0
  0
LINE
  5
2B9C
330
18
100
AcDbEntity
  8
V25
100
AcDbLine
 10
454.8684612097907
 20
612.2003625160819
 30
0.0
 11
457.4364541641598
 21
613.4841662695917
 31
0.0
  0
LINE
  5
2B9D
330
18
100
AcDbEntity
  8
V25
100
AcDbLine
 10
440.1795415107996
 20
641.5724201909324
 30
0.0
 11
445.623686574062
 21
636.1290922760513
 31
0.0
  0
LINE
  5
2B9E
330
18
100
AcDbEntity
  8
V25
100
AcDbLine
 10
449.7838351601399
 20
628.9243819729938
 30
0.0
 11
450.5260838320063
 21
627.8330036453958
 31
0.0
  0
LINE
  5
2B9F
330
18
100
AcDbEntity
  8
V25
100
AcDbLine
 10
445.623686574062
 20
636.1290922760513
 30
0.0
 11
449.7838351601399
 21
628.9243819729938
 31
0.0
  0
LINE
  5
2BA0
330
18
100
AcDbEntity
  8
V25
100
AcDbLine
 10
481.4728682170543
 20
622.7789054450018
 30
0.0
 11
489.4336463755985
 21
614.7679700231012
 31
0.0
  0
LINE
  5
2BA1
330
18
100
AcDbEntity
  8
V25
100
AcDbLine
 10
495.5454696069969
 20
607.7327254538683
 30
0.0
 11
501.2977738247837
 21
601.6731717373026
 31
0.0
  0
LINE
  5
2BA2
330
18
100
AcDbEntity
  8
V25
100
AcDbLine
 10
489.4336463755985
 20
614.7679700231012
 30
0.0
 11
495.5454696069969
 21
607.7327254538683
 31
0.0
  0
LINE
  5
2BA3
330
18
100
AcDbEntity
  8
V25
100
AcDbLine
 10
474.7041898653178
 20
627.8330036453958
 30
0.0
 11
481.4728682170543
 21
622.7789054450018
 31
0.0
  0
LINE
  5
2BA4
330
18
100
AcDbEntity
  8
V25
100
AcDbLine
 10
497.3209119183338
 20
627.8330036453958
 30
0.0
 11
504.1739259336771
 21
631.9695681146799
 31
0.0
  0
LINE
  5
2BA5
330
18
100
AcDbEntity
  8
V25
100
AcDbLine
 10
521.7903576006488
 20
601.0055937854774
 30
0.0
 11
525.9505061867266
 21
602.2893975389872
 31
0.0
  0
LINE
  5
2BA6
330
18
100
AcDbEntity
  8
V25
100
AcDbLine
 10
506.741918888046
 20
595.8703787714389
 30
0.0
 11
509.5273548315806
 21
589.3958001530116
 31
0.0
  0
LINE
  5
2BA7
330
18
100
AcDbEntity
  8
V25
100
AcDbLine
 10
517.3220498600467
 20
599.4136771311254
 30
0.0
 11
521.7903576006488
 21
601.0055937854774
 31
0.0
  0
LINE
  5
2BA8
330
18
100
AcDbEntity
  8
V25
100
AcDbLine
 10
506.741918888046
 20
634.8452885225417
 30
0.0
 11
510.5567064141809
 21
627.833003645396
 31
0.0
  0
LINE
  5
2BA9
330
18
100
AcDbEntity
  8
V25
100
AcDbLine
 10
517.3220498600467
 20
638.3885868822285
 30
0.0
 11
521.7903576006488
 21
639.9805035365805
 31
0.0
  0
LINE
  5
2BAA
330
18
100
AcDbEntity
  8
V25
100
AcDbLine
 10
364.577828934174
 20
617.643690430963
 30
0.0
 11
371.6654894882327
 21
612.2003625160819
 31
0.0
  0
LINE
  5
2BAC
330
18
100
AcDbEntity
  8
V25
100
AcDbLine
 10
358.517365561863
 20
623.7545962976692
 30
0.0
 11
364.577828934174
 21
617.643690430963
 31
0.0
  0
LINE
  5
2BAD
330
18
100
AcDbEntity
  8
V25
100
AcDbLine
 10
358.8255247163872
 20
639.9805035365805
 30
0.0
 11
371.2195368556506
 21
641.6956739142106
 31
0.0
  0
LINE
  5
2BAE
330
18
100
AcDbEntity
  8
V25
100
AcDbLine
 10
358.8255247163872
 20
601.0055937854774
 30
0.0
 11
371.3059704746211
 21
607.7327254538683
 31
0.0
  0
LINE
  5
2BB0
330
18
100
AcDbEntity
  8
V25
100
AcDbLine
 10
356.1767860412794
 20
600.2665218483364
 30
0.0
 11
358.8255247163872
 21
601.0055937854774
 31
0.0
  0
LINE
  5
2BB1
330
18
100
AcDbEntity
  8
V25
100
AcDbLine
 10
356.1767860412794
 20
639.2414315994392
 30
0.0
 11
358.8255247163872
 21
639.9805035365805
 31
0.0
  0
LINE
  5
2BB2
330
18
100
AcDbEntity
  8
V25
100
AcDbLine
 10
356.1767860412794
 20
624.087760556325
 30
0.0
 11
358.517365561863
 21
623.7545962976692
 31
0.0
  0
LINE
  5
2BB4
330
18
100
AcDbEntity
  8
V25
100
AcDbLine
 10
371.6654894882327
 20
612.2003625160819
 30
0.0
 11
376.4419563833592
 21
607.1164996521836
 31
0.0
  0
LINE
  5
2BB5
330
18
100
AcDbEntity
  8
V25
100
AcDbLine
 10
386.7139282008354
 20
595.5622658705965
 30
0.0
 11
389.0962457536612
 21
589.3958001530116
 31
0.0
  0
LINE
  5
2BB7
330
18
100
AcDbEntity
  8
V25
100
AcDbLine
 10
376.4419563833592
 20
641.0914094032864
 30
0.0
 11
381.8861014466215
 21
640.6480814884055
 31
0.0
  0
LINE
  5
2BBA
330
18
100
AcDbEntity
  8
V25
100
AcDbLine
 10
375.874228749944
 20
641.6956739142106
 30
0.0
 11
376.4419563833592
 21
641.0914094032864
 31
0.0
  0
LINE
  5
2BCC
330
18
100
AcDbEntity
  8
V25
100
AcDbLine
 10
531.3349563482351
 20
627.8330036453958
 30
0.0
 11
549.9869202396212
 21
611.5841367143973
 31
0.0
  0
LINE
  5
2BCD
330
18
100
AcDbEntity
  8
V25
100
AcDbLine
 10
527.2345026639113
 20
622.7789054450018
 30
0.0
 11
546.7512491171162
 21
627.7446547252159
 31
0.0
  0
LINE
  5
2BCE
330
18
100
AcDbEntity
  8
V25
100
AcDbLine
 10
525.9505061867266
 20
602.2893975389872
 30
0.0
 11
526.6181843548626
 21
602.5975104398296
 31
0.0
  0
LINE
  5
2BCF
330
18
100
AcDbEntity
  8
V25
100
AcDbLine
 10
549.9869202396212
 20
611.5841367143973
 30
0.0
 11
556.1767860412799
 21
604.265831976214
 31
0.0
  0
LINE
  5
2BD0
330
18
100
AcDbEntity
  8
V25
100
AcDbLine
 10
546.7512491171162
 20
627.7446547252159
 30
0.0
 11
547.0092096837759
 21
627.8330036453958
 31
0.0
  0
LINE
  5
2BD1
330
18
100
AcDbEntity
  8
V25
100
AcDbLine
 10
521.7903576006488
 20
639.9805035365805
 30
0.0
 11
525.9505061867266
 21
641.26430729009
 31
0.0
  0
LWPOLYLINE
  5
2BD6
330
18
100
AcDbEntity
  8
V5
100
AcDbPolyline
 90
        3
 70
     0
 43
1.5
 10
450.4659323476723
 20
749.4049636821221
 10
385.0256665768966
 20
749.4049636821221
 10
385.0256665768966
 20
741.6549636821221
  0
INSERT
  5
2BD9
330
18
100
AcDbEntity
  8
V5
100
AcDbBlockReference
  2
OKAPPE
 10
399.218588160597
 20
670.4009537243803
 30
0.0
 41
-1.0
  0
LWPOLYLINE
  5
2BDA
330
18
100
AcDbEntity
  8
V5
100
AcDbPolyline
 90
        4
 70
     0
 43
1.5
 10
415.4597124660945
 20
699.9232958782451
 10
421.8875885629599
 20
692.2628514470554
 42
0.7002075382097236
 10
424.9781663384083
 20
693.3877297640067
 10
424.9781663384201
 20
749.4049636821221
  0
LWPOLYLINE
  5
2BDC
330
18
100
AcDbEntity
  8
V5
100
AcDbPolyline
 90
        4
 70
     0
 10
421.0974473072883
 20
697.7561791225392
 40
1.5
 41
1.5
 10
421.0974473072883
 20
736.7561791225393
 40
2.0
 41
2.0
 10
395.5974473072883
 20
736.7561791225393
 40
1.5
 41
1.5
 10
395.5974473072883
 20
717.7561791225392
 40
1.5
 41
1.5
  0
SOLID
  5
2C78
330
18
100
AcDbEntity
  8
TXT-D
 62
     1
100
AcDbTrace
 10
502.3784669670353
 20
778.7258109332825
 30
0.0
 11
502.3784669670353
 21
784.5591442666159
 31
0.0
 12
484.8784669670354
 22
781.642477599949
 32
0.0
 13
484.8784669670354
 23
781.642477599949
 33
0.0
  0
TEXT
  5
2C79
330
18
100
AcDbEntity
  8
TXT-D
 62
     7
100
AcDbText
 10
433.0463279007085
 20
801.9592566714567
 30
0.0
 40
14.0
  1
tolerance
  7
ROMANS
100
AcDbText
  0
LINE
  5
2C7B
330
18
100
AcDbEntity
  8
TXT-D
 62
     1
100
AcDbLine
 10
450.4659323476723
 20
757.5841468310454
 30
0.0
 11
450.4659323476723
 21
790.6424775999489
 31
0.0
  0
POINT
  5
2C7C
330
18
100
AcDbEntity
  8
TXT-D
 62
     1
100
AcDbPoint
 10
450.4659323476723
 20
781.642477599949
 30
0.0
  0
SOLID
  5
2C7D
330
18
100
AcDbEntity
  8
TXT-D
 62
     1
100
AcDbTrace
 10
432.9659323476723
 20
778.7258109332825
 30
0.0
 11
432.9659323476723
 21
784.5591442666159
 31
0.0
 12
450.4659323476723
 22
781.642477599949
 32
0.0
 13
450.4659323476723
 23
781.642477599949
 33
0.0
  0
LINE
  5
2C7E
330
18
100
AcDbEntity
  8
TXT-D
 62
     1
100
AcDbLine
 10
484.8062573936495
 20
757.5841468310454
 30
0.0
 11
484.8784669670354
 21
790.6424775999489
 31
0.0
  0
LINE
  5
2C7F
330
18
100
AcDbEntity
  8
TXT-D
100
AcDbLine
 10
423.692891029711
 20
781.642477599949
 30
0.0
 11
450.4659323476722
 21
781.642477599949
 31
0.0
  0
TEXT
  5
2C80
330
18
100
AcDbEntity
  8
TXT-D
 62
     7
100
AcDbText
 10
778.3435355464288
 20
332.1663470157163
 30
0.0
 40
14.0
  1
těsnící pásek
  7
ROMANS
100
AcDbText
  0
LINE
  5
2C81
330
18
100
AcDbEntity
  8
TXT-D
100
AcDbLine
 10
772.6187860238399
 20
375.5013220980696
 30
0.0
 11
727.173600691662
 21
375.5013220980696
 31
0.0
  0
LINE
  5
2C82
330
18
100
AcDbEntity
  8
TXT-D
100
AcDbLine
 10
727.173600691662
 20
454.9969779971643
 30
0.0
 11
727.173600691662
 21
375.5013220980696
 31
0.0
  0
TEXT
  5
2C87
330
18
100
AcDbEntity
  8
TXT-D
 62
     7
100
AcDbText
 10
115.560308126327
 20
773.3594106070655
 30
0.0
 40
14.0
  1
výztužné 
  7
ROMANS
100
AcDbText
  0
LINE
  5
2C88
330
18
100
AcDbEntity
  8
TXT-D
100
AcDbLine
 10
274.6174247448625
 20
778.7122899311927
 30
0.0
 11
225.8395974056921
 21
778.7122899311921
 31
0.0
  0
TEXT
  5
2C89
330
18
100
AcDbEntity
  8
TXT-D
 62
     7
100
AcDbText
 10
115.6953784518387
 20
916.9206954135832
 30
0.0
 40
14.0
  1
toleranční T profil
  7
ROMANS
100
AcDbText
  0
LINE
  5
2C8A
330
18
100
AcDbEntity
  8
TXT-D
100
AcDbLine
 10
381.5532841310514
 20
922.4498398055825
 30
0.0
 11
268.8560545987002
 21
922.4498398055816
 31
0.0
  0
TEXT
  5
2C8B
330
18
100
AcDbEntity
  8
TXT-D
 62
     7
100
AcDbText
 10
115.6953784518387
 20
951.2325027137162
 30
0.0
 40
14.0
  1
hliníková klipsa
  7
ROMANS
100
AcDbText
  0
LINE
  5
2C8C
330
18
100
AcDbEntity
  8
TXT-D
100
AcDbLine
 10
408.2872489775986
 20
956.7616471057151
 30
0.0
 11
257.6313320912222
 21
956.7616471057153
 31
0.0
  0
LINE
  5
2C8D
330
18
100
AcDbEntity
  8
TXT-D
 62
     1
100
AcDbLine
 10
328.085354437957
 20
773.5050555145643
 30
0.0
 11
328.0853544379569
 21
847.335904531458
 31
0.0
  0
LINE
  5
2C8E
330
18
100
AcDbEntity
  8
TXT-D
 62
     1
100
AcDbLine
 10
354.8193192845042
 20
790.3436131603911
 30
0.0
 11
354.8193192845042
 21
888.1380325054495
 31
0.0
  0
LINE
  5
2C8F
330
18
100
AcDbEntity
  8
TXT-D
 62
     1
100
AcDbLine
 10
381.5532841310515
 20
790.3436131603913
 30
0.0
 11
381.5532841310514
 21
922.4498398055825
 31
0.0
  0
LINE
  5
2C90
330
18
100
AcDbEntity
  8
TXT-D
 62
     1
100
AcDbLine
 10
408.2872489775986
 20
723.0293358904467
 30
0.0
 11
408.2872489775986
 21
956.7616471057151
 31
0.0
  0
LINE
  5
2C91
330
18
100
AcDbEntity
  8
TXT-D
 62
     1
100
AcDbLine
 10
354.8193192845042
 20
790.3436131603911
 30
0.0
 11
395.5641300651371
 21
737.8673100929841
 31
0.0
  0
LINE
  5
2C92
330
18
100
AcDbEntity
  8
TXT-D
 62
     1
100
AcDbLine
 10
392.1942804030593
 20
703.7525714422535
 30
0.0
 11
328.085354437957
 21
773.5050555145643
 31
0.0
  0
LINE
  5
2C93
330
18
100
AcDbEntity
  8
TXT-D
 62
     1
100
AcDbLine
 10
381.5532841310515
 20
790.3436131603913
 30
0.0
 11
399.5467447845385
 21
749.4049636821221
 31
0.0
  0
LINE
  5
2C94
330
18
100
AcDbEntity
  8
TXT-D
 62
     1
100
AcDbLine
 10
301.3513895914098
 20
757.227783881614
 30
0.0
 11
301.3513895914097
 21
813.0240972313252
 31
0.0
  0
LINE
  5
2C95
330
18
100
AcDbEntity
  8
TXT-D
 62
     1
100
AcDbLine
 10
274.6174247448625
 20
708.8349223698536
 30
0.0
 11
274.6174247448625
 21
778.7122899311927
 31
0.0
  0
LINE
  5
2C9C
330
18
100
AcDbEntity
  8
TXT-D
  6
VERDECKTX2
 48
5.0
100
AcDbLine
 10
301.3513895914098
 20
757.227783881614
 30
0.0
 11
321.284345966068
 21
738.9844699795276
 31
0.0
  0
LINE
  5
2C9D
330
18
100
AcDbEntity
  8
TXT-D
  6
VERDECKTX2
 48
5.0
100
AcDbLine
 10
339.4822392726446
 20
643.9701078420712
 30
0.0
 11
274.6174247448625
 21
708.8349223698536
 31
0.0
  0
LINE
  5
2CB3
330
18
100
AcDbEntity
  8
V25
100
AcDbLine
 10
436.0225540819904
 20
763.1328072712023
 30
0.0
 11
436.0225540819901
 21
741.1095607769884
 31
0.0
  0
LINE
  5
2CB5
330
18
100
AcDbEntity
  8
TXT-D
100
AcDbLine
 10
484.8529834148548
 20
781.642477599949
 30
0.0
 11
511.364258359441
 21
781.642477599949
 31
0.0
  0
LWPOLYLINE
  5
2CC6
330
18
100
AcDbEntity
  8
V35
100
AcDbPolyline
 90
        2
 70
     1
 43
2.9
 10
337.9322392726447
 20
643.9701078420712
 42
1.0
 10
341.0322392726446
 20
643.9701078420712
 42
1.0
  0
LWPOLYLINE
  5
2CC7
330
18
100
AcDbEntity
  8
V35
100
AcDbPolyline
 90
        2
 70
     1
 43
2.9
 10
319.7343459660681
 20
738.9844699795276
 42
1.0
 10
322.834345966068
 20
738.9844699795276
 42
1.0
  0
LWPOLYLINE
  5
2CC8
330
18
100
AcDbEntity
  8
V35
100
AcDbPolyline
 90
        2
 70
     1
 43
2.9
 10
390.6442804030594
 20
703.7525714422535
 42
1.0
 10
393.7442804030593
 20
703.7525714422535
 42
1.0
  0
LWPOLYLINE
  5
2CC9
330
18
100
AcDbEntity
  8
V35
100
AcDbPolyline
 90
        2
 70
     1
 43
2.9
 10
394.0141300651371
 20
737.8673100929841
 42
1.0
 10
397.114130065137
 20
737.8673100929841
 42
1.0
  0
LWPOLYLINE
  5
2CCA
330
18
100
AcDbEntity
  8
V35
100
AcDbPolyline
 90
        2
 70
     1
 43
2.9
 10
397.9967447845386
 20
749.4049636821221
 42
1.0
 10
401.0967447845384
 20
749.4049636821221
 42
1.0
  0
LWPOLYLINE
  5
2CCB
330
18
100
AcDbEntity
  8
V35
100
AcDbPolyline
 90
        2
 70
     1
 43
2.9
 10
406.7372489775987
 20
723.0293358904467
 42
1.0
 10
409.8372489775986
 20
723.0293358904467
 42
1.0
  0
LWPOLYLINE
  5
2CCC
330
18
100
AcDbEntity
  8
V35
100
AcDbPolyline
 90
        2
 70
     1
 43
2.9
 10
540.2142285952542
 20
634.4031888361037
 42
1.0
 10
543.3142285952542
 20
634.4031888361037
 42
1.0
  0
LWPOLYLINE
  5
2CCD
330
18
100
AcDbEntity
  8
V35
100
AcDbPolyline
 90
        2
 70
     1
 43
2.9
 10
594.6064899878916
 20
671.0696811214878
 42
1.0
 10
597.7064899878914
 20
671.0696811214878
 42
1.0
  0
LWPOLYLINE
  5
2CCE
330
18
100
AcDbEntity
  8
V35
100
AcDbPolyline
 90
        2
 70
     1
 43
2.9
 10
641.4002740432531
 20
580.8903860317068
 42
1.0
 10
644.500274043253
 20
580.8903860317068
 42
1.0
  0
LWPOLYLINE
  5
2CCF
330
18
100
AcDbEntity
  8
V35
100
AcDbPolyline
 90
        2
 70
     1
 43
2.9
 10
755.8428920680586
 20
527.1014120837697
 42
1.0
 10
758.9428920680585
 20
527.1014120837697
 42
1.0
  0
LWPOLYLINE
  5
2CD0
330
18
100
AcDbEntity
  8
V35
100
AcDbPolyline
 90
        2
 70
     1
 43
2.9
 10
712.1207418549478
 20
726.099576927445
 42
1.0
 10
715.2207418549477
 20
726.099576927445
 42
1.0
  0
LWPOLYLINE
  5
2CD1
330
18
100
AcDbEntity
  8
V35
100
AcDbPolyline
 90
        2
 70
     1
 43
2.9
 10
536.2872730346815
 20
581.9922528202105
 42
1.0
 10
539.3872730346815
 20
581.9922528202105
 42
1.0
  0
LWPOLYLINE
  5
2CD2
330
18
100
AcDbEntity
  8
V35
100
AcDbPolyline
 90
        2
 70
     1
 43
2.9
 10
725.6236006916621
 20
456.2135749608648
 42
1.0
 10
728.723600691662
 20
456.2135749608648
 42
1.0
  0
LWPOLYLINE
  5
2CD3
102
{ACAD_REACTORS
330
2DC4
102
}
330
18
100
AcDbEntity
  8
V35
100
AcDbPolyline
 90
        2
 70
     1
 43
2.9
 10
625.5928571428571
 20
305.0013220980696
 42
1.0
 10
628.692857142857
 20
305.0013220980696
 42
1.0
  0
HATCH
  5
2DC4
330
18
100
AcDbEntity
  8
V35
  6
VERDECKTX2
 62
     1
 48
5.0
100
AcDbHatch
 10
0.0
 20
0.0
 30
0.0
210
0.0
220
0.0
230
1.0
  2
ANSI31
 70
     0
 71
     1
 91
        2
 92
        7
 72
     1
 73
     1
 93
       21
 10
640.2142857142857
 20
392.9579265766235
 42
0.0
 10
654.6716544152909
 20
392.9579265766234
 42
0.0
 10
654.6716544152911
 20
400.9579265766235
 42
0.0
 10
565.7142857142856
 20
400.9579265766235
 42
0.0
 10
565.7142857142856
 20
392.9579265766236
 42
0.0
 10
611.2142857142856
 20
392.9579265766235
 42
-0.4142135623730951
 10
623.2142857142856
 20
380.9579265766235
 42
0.0
 10
623.2142857142856
 20
343.9579265766235
 42
0.0
 10
623.2142857142856
 20
306.9579265766235
 42
-0.4142135623730951
 10
611.2142857142856
 20
294.9579265766235
 42
0.0
 10
565.7142857142856
 20
294.9579265766235
 42
0.0
 10
565.7142857142856
 20
286.9579265766235
 42
0.0
 10
685.7142857142856
 20
286.9579265766235
 42
0.0
 10
685.7142857142856
 20
294.9579265766235
 42
0.0
 10
640.2142857142856
 20
294.9579265766235
 42
-0.3497984505957079
 10
628.5162621641839
 20
304.2828106873084
 42
-0.7839818452222915
 10
625.5928571428571
 20
305.0013220980696
 42
-0.6704336070279241
 10
628.2456787790662
 20
306.090488953381
 42
-0.0180893653558932
 10
628.2142857142856
 20
306.9579265766238
 42
0.0
 10
628.2142857142856
 20
343.9579265766235
 42
0.0
 10
628.2142857142856
 20
380.9579265766235
 42
-0.4142135623730979
 97
        3
330
1D20
330
2CD3
330
1CE6
 92
       23
 72
     0
 73
     1
 93
        4
 10
685.7142857142856
 20
392.9579265766235
 10
685.7142857142856
 20
400.9579265766235
 10
654.6716544152908
 20
400.9579265766235
 10
654.6716544152907
 20
392.9579265766236
 97
        2
330
1D20
330
1CE6
 75
     0
 76
     1
 52
0.0
 41
5.0
 77
     0
 78
     1
 53
45.0
 43
0.0
 44
-2.2352799508526
 45
-11.22532015133644
 46
11.22532015133644
 79
     0
 47
0.351170427065755
 98
        2
 10
627.0344675018596
 20
393.0032628411191
 10
666.7367614685763
 20
395.1102836135483
  0
LINE
  5
3D96
330
18
100
AcDbEntity
  8
V5
 62
     4
100
AcDbLine
 10
901.428569032353
 20
440.7251588599717
 30
0.0
 11
565.9688590542398
 21
440.7251588599716
 31
0.0
  0
LINE
  5
3D97
330
18
100
AcDbEntity
  8
V5
 62
     4
100
AcDbLine
 10
901.4285690323529
 20
480.6642963122998
 30
0.0
 11
565.9688590542398
 21
480.6642963122998
 31
0.0
  0
LINE
  5
49AA
330
18
100
AcDbEntity
  8
TXT-D
 62
     7
100
AcDbLine
 10
611.8858859970478
 20
2116.095219037217
 30
0.0
 11
751.6309806527788
 21
2116.095219037217
 31
0.0
  0
TEXT
  5
49AB
330
18
100
AcDbEntity
  8
TXT-D
 62
     7
100
AcDbText
 10
614.6519888239672
 20
2122.154989340026
 30
0.0
 40
14.0
  1
ALTERNATIVA
  7
ROMANS
100
AcDbText
  0
INSERT
  5
4B0B
330
18
100
AcDbEntity
  8
INSULATION
  6
AUSGEZOGEN
 62
     6
 48
10.0
100
AcDbBlockReference
  2
DAEMM
 10
751.5416860253615
 20
529.9950473171807
 30
0.0
 41
13.70663284600277
 42
13.6084547927212
 43
13.70663284600277
  0
INSERT
  5
4B0C
330
18
100
AcDbEntity
  8
INSULATION
  6
AUSGEZOGEN
 62
     6
 48
10.0
100
AcDbBlockReference
  2
DAEMM
 10
806.3682174093726
 20
529.9950473171807
 30
0.0
 41
13.70663284600277
 42
13.6084547927212
 43
13.70663284600277
  0
INSERT
  5
4B0F
330
18
100
AcDbEntity
  8
V35
  6
AUSGEZOGEN
 62
     6
 48
10.0
100
AcDbBlockReference
  2
e140
 10
712.1410618411974
 20
530.3533988555793
 30
0.0
  0
ELLIPSE
  5
4B10
330
18
100
AcDbEntity
  8
INSULATION
  6
VERDECKT
 48
2.0
100
AcDbEllipse
 10
696.7151546413506
 20
557.2119569026233
 30
0.0
 11
-27.41326569200593
 21
0.000000000001006
 31
0.0
210
0.0
220
0.0
230
1.0
 40
0.9928371866099645
 41
1.570796326794936
 42
3.504561302195472
  0
ELLIPSE
  5
4B11
330
18
100
AcDbEntity
  8
INSULATION
  6
VERDECKT
 48
2.0
100
AcDbEllipse
 10
751.5416860253617
 20
557.2119569026233
 30
0.0
 11
-27.4132656920059
 21
0.0000000000049139
 31
0.0
210
0.0
220
0.0
230
1.0
 40
0.9928371866099659
 41
-0.3629686486054626
 42
1.570796326795071
  0
LINE
  5
4B12
330
18
100
AcDbEntity
  8
INSULATION
  6
VERDECKT
 48
2.0
100
AcDbLine
 10
722.3423617183792
 20
566.8753485679089
 30
0.0
 11
698.5012132563277
 21
629.1992939936633
 31
0.0
  0
INSERT
  5
4B13
330
18
100
AcDbEntity
  8
INSULATION
  6
AUSGEZOGEN
 62
     6
 48
10.0
100
AcDbBlockReference
  2
DAEMM
 10
641.8886232573397
 20
529.9950473171807
 30
0.0
 41
13.70663284600277
 42
13.6084547927212
 43
13.70663284600277
  0
LINE
  5
4B14
330
18
100
AcDbEntity
  8
INSULATION
100
AcDbLine
 10
749.7556274103848
 20
629.1992939936633
 30
0.0
 11
725.914478948333
 21
566.8753485679089
 31
0.0
  0
ELLIPSE
  5
4B15
330
18
100
AcDbEntity
  8
INSULATION
100
AcDbEllipse
 10
724.1284203333561
 20
638.8626856589489
 30
0.0
 11
27.41326569200578
 21
0.0000000000009634
 31
0.0
210
0.0
220
0.0
230
1.0
 40
0.9928371866099661
 41
-0.362968648605676
 42
3.504561302195398
  0
LINE
  5
4B17
330
18
100
AcDbEntity
  8
INSULATION
100
AcDbLine
 10
585.2760332583523
 20
629.1992939936631
 30
0.0
 11
567.5627151318693
 21
582.8943152724778
 31
0.0
  0
INSERT
  5
4B18
330
18
100
AcDbEntity
  8
INSULATION
  6
AUSGEZOGEN
 62
     6
 48
10.0
100
AcDbBlockReference
  2
DAEMM
 10
587.0620918733289
 20
529.9950473171807
 30
0.0
 41
13.70663284600277
 42
13.6084547927212
 43
13.70663284600277
  0
ELLIPSE
  5
4B19
330
18
100
AcDbEntity
  8
INSULATION
100
AcDbEllipse
 10
587.0620918733292
 20
557.2119569026233
 30
0.0
 11
-27.41326569200604
 21
0.0000000000042443
 31
0.0
210
0.0
220
0.0
230
1.0
 40
0.9928371866099601
 41
0.7529650940021908
 42
1.570796326795045
  0
ELLIPSE
  5
4B1A
330
18
100
AcDbEntity
  8
INSULATION
100
AcDbEllipse
 10
559.6488261813235
 20
638.8626856589489
 30
0.0
 11
-27.41326569200593
 21
0.0000000000001052
 31
0.0
210
0.0
220
0.0
230
0.9999999999999998
 40
0.992837186609956
 41
2.778624004984155
 42
4.663426967219121
  0
LWPOLYLINE
  5
4B1B
330
18
100
AcDbEntity
  8
V35
100
AcDbPolyline
 90
       20
 70
     0
 43
0.0
 10
707.2145390396453
 20
713.6479056512814
 42
-0.8518717637873479
 10
713.9424019885504
 20
733.9608283822112
 42
-0.3441842485073744
 10
717.2900053406102
 20
730.3502698169316
 10
717.3197107304663
 20
729.9948656965975
 42
0.3077507175483973
 10
720.1648727042929
 20
726.5110334390938
 42
-0.3559174951861054
 10
723.010695556631
 20
722.3339204583317
 42
-0.2401758746392449
 10
717.8051789623927
 20
713.9798159835975
 42
0.2629884054316376
 10
716.3530784333447
 20
711.4099896805482
 10
716.353078433375
 20
679.6706053417681
 42
0.2931365125316157
 10
716.9473784020515
 20
678.7589295864818
 10
717.2116266233985
 20
678.6386690896379
 42
-0.2939859278524366
 10
720.4333908277251
 20
673.6328083800454
 42
0.4142135623730951
 10
724.5333908277252
 20
669.5328083800454
 10
804.2730725634482
 20
669.5328083800452
 42
0.2446984432290329
 10
807.6315959450329
 20
671.2811449910061
 10
810.297004945033
 20
675.0877439910063
 42
-0.5205670505517518
 10
819.3076774322118
 20
675.0877452491334
 10
821.973087432212
 20
671.2811462491333
 42
0.2446984432290355
 10
825.3316099641306
 20
669.5328100059789
 10
901.4285714285714
 20
669.5328100059789
  0
LWPOLYLINE
  5
4B1C
330
18
100
AcDbEntity
  8
V35
100
AcDbPolyline
 90
       33
 70
     0
 43
0.0
 10
402.2145390396453
 20
713.6479056512814
 42
-0.8518717637873237
 10
408.9424019885504
 20
733.9608283822112
 42
-0.3441842485073744
 10
412.2900053406101
 20
730.3502698169316
 10
412.3197107304663
 20
729.9948656965975
 42
0.3077507175483973
 10
415.1648727042929
 20
726.5110334390938
 42
-0.3559174951861054
 10
418.0106955566311
 20
722.3339204583317
 42
-0.2401758746392449
 10
412.8051789623928
 20
713.9798159835975
 42
0.2629884054316376
 10
411.3530784333447
 20
711.4099896805482
 10
411.3530784333749
 20
679.6706053417681
 42
0.2931365125316157
 10
411.9473784020515
 20
678.7589295864818
 10
412.2116266233986
 20
678.6386690896379
 42
-0.2939859278524366
 10
415.4333908277251
 20
673.6328083800454
 42
0.4142135623730951
 10
419.5333908277253
 20
669.5328083800454
 10
499.2730725634483
 20
669.5328083800452
 42
0.2446984432290329
 10
502.631595945033
 20
671.2811449910061
 10
505.297004945033
 20
675.0877439910063
 42
-0.5205670505517518
 10
514.3076774322117
 20
675.0877452491334
 10
516.9730874322119
 20
671.2811462491333
 42
0.2446984432290355
 10
520.3316099641305
 20
669.5328100059789
 10
601.2716099641306
 20
669.5328100059789
 42
0.2446984432290357
 10
604.6301324960491
 20
671.2811462491333
 10
607.2955424960492
 20
675.0877452491334
 42
-0.5205670505517466
 10
616.306214983228
 20
675.0877439910062
 10
618.971623983228
 20
671.2811449910061
 42
0.2446984432290353
 10
622.3301473648129
 20
669.5328083800454
 10
699.8941713269337
 20
669.5328083800454
 42
0.4142135623731031
 10
703.9940713269336
 20
673.6327083800453
 42
-0.2939817751607098
 10
707.2158355324884
 20
678.6386690896379
 10
707.4800837538354
 20
678.7589295864818
 42
0.2931365125316157
 10
708.074383722512
 20
679.6706053417681
 10
708.0743837225404
 20
706.7261745239038
 42
0.2992947414849744
 10
706.2634886473965
 20
709.480449288284
 42
-3.892127811935753
 10
720.670244692496
 20
710.8593400856912
  0
INSERT
  5
4B1D
330
18
100
AcDbEntity
  8
V35
 48
15.0
100
AcDbBlockReference
  2
L25
 10
406.6609262206744
 20
648.2734958328778
 30
0.0
  0
LINE
  5
4B2F
330
18
100
AcDbEntity
  8
V5
100
AcDbLine
 10
437.1629198718181
 20
644.2065736646932
 30
0.0
 11
325.4625149135418
 21
644.2065736646933
 31
0.0
  0
LINE
  5
4B30
330
18
100
AcDbEntity
  8
V5
100
AcDbLine
 10
325.4625149135418
 20
644.2065736646933
 30
0.0
 11
325.4625149135418
 21
531.1493417580585
 31
0.0
  0
LINE
  5
4B31
330
18
100
AcDbEntity
  8
V5
100
AcDbLine
 10
351.2388659556436
 20
752.7650852508104
 30
0.0
 11
325.4625149135418
 21
753.4282828632186
 31
0.0
  0
LINE
  5
4B32
330
18
100
AcDbEntity
  8
V5
100
AcDbLine
 10
325.4625149135418
 20
753.4282828632186
 30
0.0
 11
325.4625149135418
 21
646.6593283892766
 31
0.0
  0
LINE
  5
4B33
330
18
100
AcDbEntity
  8
V5
100
AcDbLine
 10
325.4625149135418
 20
646.6593283892766
 30
0.0
 11
437.1629198718181
 21
646.6593283892766
 31
0.0
  0
LINE
  5
4B3C
330
18
100
AcDbEntity
  8
V25
  6
Continuous
100
AcDbLine
 10
556.6842199423958
 20
589.1672001723827
 30
0.0
 11
357.2157039762965
 21
589.1672001723827
 31
0.0
  0
LINE
  5
4B3D
330
18
100
AcDbEntity
  8
V25
  6
Continuous
100
AcDbLine
 10
556.6842199423958
 20
585.1672001723827
 30
0.0
 11
357.2157039762964
 21
585.1672001723827
 31
0.0
  0
ARC
  5
4B3E
330
18
100
AcDbEntity
  8
V25
  6
Continuous
100
AcDbCircle
 10
556.6842199423958
 20
581.1672001723827
 30
0.0
 40
8.0
100
AcDbArc
 50
0.0
 51
90.0
  0
ARC
  5
4B40
330
18
100
AcDbEntity
  8
V25
  6
Continuous
100
AcDbCircle
 10
556.6842199423958
 20
581.1672001723827
 30
0.0
 40
4.0
100
AcDbArc
 50
0.0
 51
90.0
  0
ARC
  5
4B46
330
18
100
AcDbEntity
  8
V25
  6
Continuous
100
AcDbCircle
 10
568.818724265569
 20
530.6118311275572
 30
0.0
 40
4.0
100
AcDbArc
 50
180.0
 51
270.0
  0
ARC
  5
4B47
330
18
100
AcDbEntity
  8
V25
  6
Continuous
100
AcDbCircle
 10
568.818724265569
 20
530.6118311275572
 30
0.0
 40
8.0
100
AcDbArc
 50
180.0
 51
270.0
  0
LINE
  5
4B4A
330
18
100
AcDbEntity
  8
V25
  6
Continuous
100
AcDbLine
 10
901.4285714285714
 20
522.6118311275572
 30
0.0
 11
568.818724265569
 21
522.6118311275572
 31
0.0
  0
LINE
  5
4B4B
330
18
100
AcDbEntity
  8
V25
  6
Continuous
100
AcDbLine
 10
901.4285714285714
 20
526.6118311275572
 30
0.0
 11
568.818724265569
 21
526.6118311275572
 31
0.0
  0
LINE
  5
4B4E
330
18
100
AcDbEntity
  8
V25
  6
Continuous
100
AcDbLine
 10
560.818724265569
 20
530.6118311275572
 30
0.0
 11
560.6842199423958
 21
581.1672001723827
 31
0.0
  0
LINE
  5
4B50
330
18
100
AcDbEntity
  8
V25
  6
Continuous
100
AcDbLine
 10
564.818724265569
 20
530.6118311275572
 30
0.0
 11
564.6842199423958
 21
581.1672001723827
 31
0.0
  0
ELLIPSE
  5
4B59
330
18
100
AcDbEntity
  8
INSULATION
100
AcDbEllipse
 10
861.1947487933834
 20
557.2119569026235
 30
0.0
 11
27.41326569200607
 21
0.0000000000026921
 31
0.0
210
0.0
220
0.0
230
1.0
 40
0.9928371866099679
 41
4.712388980384595
 42
6.646153955785132
  0
LINE
  5
4B5A
330
18
100
AcDbEntity
  8
INSULATION
100
AcDbLine
 10
886.8219558704122
 20
566.8753485679094
 30
0.0
 11
862.9808074083603
 21
629.199293993664
 31
0.0
  0
ELLIPSE
  5
4B5B
330
18
100
AcDbEntity
  8
INSULATION
100
AcDbEllipse
 10
888.608014485389
 20
638.8626856589497
 30
0.0
 11
-27.41326569200596
 21
0.0000000000003243
 31
0.0
210
0.0
220
0.0
230
1.0
 40
0.9928371866099638
 41
4.225728034963465
 42
6.646153955785241
  0
LINE
  5
4B5C
330
18
100
AcDbEntity
  8
INSULATION
100
AcDbLine
 10
901.4285714285714
 20
595.7210005591419
 30
0.0
 11
890.3940731003658
 21
566.8753485679094
 31
0.0
  0
ELLIPSE
  5
4B5D
330
18
100
AcDbEntity
  8
INSULATION
100
AcDbEllipse
 10
916.0212801773948
 20
557.2119569026235
 30
0.0
 11
-27.41326569200608
 21
0.0000000000028565
 31
0.0
210
0.0
220
0.0
230
1.0
 40
0.9928371866099675
 41
-0.3629686486055397
 42
1.009454147383241
  0
LINE
  5
4B5F
330
18
100
AcDbEntity
  8
0
  6
VERDECKTX2
 48
5.0
100
AcDbLine
 10
423.6238204500605
 20
661.1215808848119
 30
0.0
 11
423.6238204500605
 21
620.1690842605903
 31
0.0
  0
LINE
  5
4B60
330
18
100
AcDbEntity
  8
0
  6
VERDECKTX2
 48
5.0
100
AcDbLine
 10
423.6238204500605
 20
620.1690842605903
 30
0.0
 11
423.6238204500605
 21
632.1457559288501
 31
0.0
  0
LINE
  5
4B61
330
18
100
AcDbEntity
  8
0
  6
VERDECKTX2
 48
5.0
100
AcDbLine
 10
388.0522769350246
 20
620.1690842605903
 30
0.0
 11
388.0522769350246
 21
632.1457559288501
 31
0.0
  0
LINE
  5
4B62
330
18
100
AcDbEntity
  8
0
  6
VERDECKTX2
 48
5.0
100
AcDbLine
 10
388.0522769350246
 20
661.1215808848119
 30
0.0
 11
388.0522769350246
 21
620.1690842605903
 31
0.0
  0
INSERT
  5
4B63
330
18
100
AcDbEntity
  8
INSULATION
  6
VERDECKTX2
 48
5.0
100
AcDbBlockReference
  2
DAEMM
 10
410.4778207297295
 20
642.963401436622
 30
0.0
 41
2.435877161768288
 42
2.395334333651954
 43
2.435877161768288
  0
INSERT
  5
4B64
330
18
100
AcDbEntity
  8
INSULATION
  6
VERDECKTX2
 48
5.0
100
AcDbBlockReference
  2
DAEMM
 10
420.2213293768026
 20
642.963401436622
 30
0.0
 41
2.435877161768288
 42
2.395334333651954
 43
2.435877161768288
  0
INSERT
  5
4B65
330
18
100
AcDbEntity
  8
INSULATION
  6
VERDECKTX2
 48
5.0
100
AcDbBlockReference
  2
DAEMM
 10
429.9648380238758
 20
642.963401436622
 30
0.0
 41
2.435877161768288
 42
2.395334333651954
 43
2.435877161768288
  0
INSERT
  5
4B66
330
18
100
AcDbEntity
  8
INSULATION
  6
VERDECKTX2
 48
5.0
100
AcDbBlockReference
  2
DAEMM
 10
439.708346670949
 20
642.963401436622
 30
0.0
 41
2.435877161768288
 42
2.395334333651954
 43
2.435877161768288
  0
INSERT
  5
4B67
330
18
100
AcDbEntity
  8
INSULATION
  6
VERDECKTX2
 48
5.0
100
AcDbBlockReference
  2
DAEMM
 10
449.451855318022
 20
642.963401436622
 30
0.0
 41
2.435877161768288
 42
2.395334333651954
 43
2.435877161768288
  0
INSERT
  5
4B68
330
18
100
AcDbEntity
  8
INSULATION
  6
VERDECKTX2
 48
5.0
100
AcDbBlockReference
  2
DAEMM
 10
459.1953639650952
 20
642.963401436622
 30
0.0
 41
2.435877161768288
 42
2.395334333651954
 43
2.435877161768288
  0
INSERT
  5
4B69
330
18
100
AcDbEntity
  8
INSULATION
  6
VERDECKTX2
 48
5.0
100
AcDbBlockReference
  2
DAEMM
 10
468.9388726121684
 20
642.963401436622
 30
0.0
 41
2.435877161768288
 42
2.395334333651954
 43
2.435877161768288
  0
INSERT
  5
4B6A
330
18
100
AcDbEntity
  8
INSULATION
  6
VERDECKTX2
 48
5.0
100
AcDbBlockReference
  2
DAEMM
 10
478.6823812592415
 20
642.963401436622
 30
0.0
 41
2.435877161768288
 42
2.395334333651954
 43
2.435877161768288
  0
INSERT
  5
4B6B
330
18
100
AcDbEntity
  8
INSULATION
  6
VERDECKTX2
 48
5.0
100
AcDbBlockReference
  2
DAEMM
 10
488.4258899063147
 20
642.963401436622
 30
0.0
 41
2.435877161768288
 42
2.395334333651954
 43
2.435877161768288
  0
INSERT
  5
4B6C
330
18
100
AcDbEntity
  8
INSULATION
  6
VERDECKTX2
 48
5.0
100
AcDbBlockReference
  2
DAEMM
 10
498.1693985533879
 20
642.963401436622
 30
0.0
 41
2.435877161768288
 42
2.395334333651954
 43
2.435877161768288
  0
INSERT
  5
4B6D
330
18
100
AcDbEntity
  8
INSULATION
  6
VERDECKTX2
 48
5.0
100
AcDbBlockReference
  2
DAEMM
 10
507.9129072004611
 20
642.963401436622
 30
0.0
 41
2.435877161768288
 42
2.395334333651954
 43
2.435877161768288
  0
INSERT
  5
4B6E
330
18
100
AcDbEntity
  8
INSULATION
  6
VERDECKTX2
 48
5.0
100
AcDbBlockReference
  2
DAEMM
 10
517.6564158475342
 20
642.963401436622
 30
0.0
 41
2.435877161768288
 42
2.395334333651954
 43
2.435877161768288
  0
INSERT
  5
4B6F
330
18
100
AcDbEntity
  8
INSULATION
  6
VERDECKTX2
 48
5.0
100
AcDbBlockReference
  2
DAEMM
 10
527.3999244946073
 20
642.963401436622
 30
0.0
 41
2.435877161768288
 42
2.395334333651954
 43
2.435877161768288
  0
INSERT
  5
4B70
330
18
100
AcDbEntity
  8
INSULATION
  6
VERDECKTX2
 48
5.0
100
AcDbBlockReference
  2
DAEMM
 10
537.1434331416804
 20
642.963401436622
 30
0.0
 41
2.435877161768288
 42
2.395334333651954
 43
2.435877161768288
  0
INSERT
  5
4B71
330
18
100
AcDbEntity
  8
INSULATION
  6
VERDECKTX2
 48
5.0
100
AcDbBlockReference
  2
DAEMM
 10
546.8869417887535
 20
642.963401436622
 30
0.0
 41
2.435877161768288
 42
2.395334333651954
 43
2.435877161768288
  0
TEXT
  5
4B72
330
18
100
AcDbEntity
  8
0
  6
VERDECKTX2
 62
     7
100
AcDbText
 10
766.1384867593413
 20
794.9595468764851
 30
0.0
 40
14.0
  1
s termopodložkou
  7
ROMANS
100
AcDbText
  0
LINE
  5
4B74
330
18
100
AcDbEntity
  8
0
  6
VERDECKTX2
 48
5.0
100
AcDbLine
 10
600.126320741363
 20
525.6356494456304
 30
0.0
 11
600.126320741363
 21
510.1255044031041
 31
0.0
  0
LWPOLYLINE
  5
4B75
330
18
100
AcDbEntity
  8
V5
 62
     7
100
AcDbPolyline
 90
        3
 70
     0
 43
2.0
 10
627.9348779995652
 20
518.970410295592
 10
558.1449158829164
 20
518.970410295592
 10
558.1449158829164
 20
569.5076888640024
  0
LWPOLYLINE
  5
4B76
330
18
100
AcDbEntity
  8
V5
  6
GESTRICHELT
 48
5.0
100
AcDbPolyline
 90
        6
 70
     0
 43
4.0
 10
901.4285714285714
 20
524.6118311275572
 10
568.818724265569
 20
524.6118311275572
 42
-0.4142135623730951
 10
562.818724265569
 20
530.6118311275572
 10
562.6842199423959
 20
581.1672001723827
 42
0.4142135623730951
 10
556.6842199423958
 20
587.1672001723827
 10
357.2157039762964
 20
587.1672001723831
  0
LINE
  5
4B80
330
18
100
AcDbEntity
  8
TXT-D
100
AcDbLine
 10
538.1066228439922
 20
581.5147766658055
 30
0.0
 11
524.7976239286963
 21
521.6712189941772
 31
0.0
  0
LINE
  5
4B81
330
18
100
AcDbEntity
  8
TXT-D
100
AcDbLine
 10
524.7976239286963
 20
521.6712189941772
 30
0.0
 11
705.2078202690926
 21
417.2471693950191
 31
0.0
  0
LINE
  5
4B83
330
18
100
AcDbEntity
  8
TXT-D
100
AcDbLine
 10
541.9267564458707
 20
637.8840076135896
 30
0.0
 11
541.9267564458706
 21
955.0386620743115
 31
0.0
  0
LINE
  5
4B94
330
18
100
AcDbEntity
  8
V5
100
AcDbLine
 10
332.3480066862303
 20
531.0807542176844
 30
0.0
 11
321.284345966068
 21
520.0170934975221
 31
0.0
  0
LINE
  5
4B95
330
18
100
AcDbEntity
  8
V5
100
AcDbLine
 10
321.284345966068
 20
520.0170934975221
 30
0.0
 11
321.284345966068
 21
756.9894137492199
 31
0.0
  0
LINE
  5
4B96
330
18
100
AcDbEntity
  8
V5
100
AcDbLine
 10
321.284345966068
 20
756.9894137492199
 30
0.0
 11
484.8062573936495
 21
752.3674733691834
 31
0.0
  0
LINE
  5
4B97
330
18
100
AcDbEntity
  8
V5
100
AcDbLine
 10
484.8062573936495
 20
752.3674733691834
 30
0.0
 11
502.0773226008873
 21
742.2823205886179
 31
0.0
  0
LINE
  5
4BA1
330
18
100
AcDbEntity
  8
0
  6
STRICHPUNKT
 62
     4
 48
5.0
100
AcDbLine
 10
457.5172431290503
 20
641.4160257346793
 30
0.0
 11
457.5172431290503
 21
490.1321671940269
 31
0.0
  0
HATCH
  5
4BB9
330
18
100
AcDbEntity
  8
V35
 48
15.0
100
AcDbHatch
 10
0.0
 20
0.0
 30
0.0
210
0.0
220
0.0
230
1.0
  2
DOTS
 70
     0
 71
     0
 91
        1
 92
        1
 93
        4
 72
     1
 10
358.4687031950551
 20
1879.389396922652
 11
556.5906508826254
 21
1879.389396922652
 72
     1
 10
556.5906508826254
 20
1879.389396922652
 11
556.5906508826254
 21
1437.085939918324
 72
     1
 10
556.5906508826254
 20
1437.085939918324
 11
358.468703195055
 21
1437.085939918324
 72
     1
 10
358.4687031950551
 20
1437.085939918324
 11
358.4687031950551
 21
1879.389396922652
 97
        0
 75
     0
 76
     1
 52
0.0
 41
8.0
 77
     0
 78
     1
 53
0.0
 43
-25.01635550583996
 44
1334.286989292422
 45
6.349999999999999
 46
12.7
 79
     2
 49
0.0
 49
-12.7
 98
        1
 10
-25.01635550583996
 20
1334.286989292422
  0
LWPOLYLINE
  5
4BBA
330
18
100
AcDbEntity
  8
V5
  6
GESTRICHELT
 48
5.0
100
AcDbPolyline
 90
        6
 70
     0
 43
4.0
 10
901.4285714285714
 20
1819.306995237622
 10
568.818724265569
 20
1819.306995237622
 42
-0.4142135623730951
 10
562.818724265569
 20
1825.306995237622
 10
562.6842199423959
 20
1875.862364282448
 42
0.4142135623730951
 10
556.6842199423958
 20
1881.862364282447
 10
357.2157039762965
 20
1881.862364282448
  0
INSERT
  5
4BBB
330
18
100
AcDbEntity
  8
INSULATION
  6
VERDECKTX2
 48
5.0
100
AcDbBlockReference
  2
DAEMM
 10
507.9129072004611
 20
1937.658565546687
 30
0.0
 41
2.435877161768288
 42
2.395334333651954
 43
2.435877161768288
  0
LINE
  5
4BBC
330
18
100
AcDbEntity
  8
V25
  6
Continuous
100
AcDbLine
 10
556.6842199423958
 20
1879.862364282448
 30
0.0
 11
357.2157039762965
 21
1879.862364282448
 31
0.0
  0
LINE
  5
4BBD
330
18
100
AcDbEntity
  8
V25
  6
Continuous
100
AcDbLine
 10
556.6842199423958
 20
1883.862364282447
 30
0.0
 11
357.2157039762966
 21
1883.862364282447
 31
0.0
  0
LWPOLYLINE
  5
4BBE
330
18
100
AcDbEntity
  8
V35
100
AcDbPolyline
 90
       33
 70
     0
 43
0.0
 10
402.2145390396454
 20
2008.343069761346
 42
-0.8518717637873237
 10
408.9424019885505
 20
2028.655992492276
 42
-0.3441842485073744
 10
412.2900053406102
 20
2025.045433926996
 10
412.3197107304664
 20
2024.690029806663
 42
0.3077507175483973
 10
415.164872704293
 20
2021.206197549159
 42
-0.3559174951861054
 10
418.0106955566312
 20
2017.029084568397
 42
-0.2401758746392449
 10
412.8051789623929
 20
2008.674980093663
 42
0.2629884054316376
 10
411.3530784333447
 20
2006.105153790613
 10
411.353078433375
 20
1974.365769451833
 42
0.2931365125316157
 10
411.9473784020516
 20
1973.454093696547
 10
412.2116266233986
 20
1973.333833199703
 42
-0.2939859278524366
 10
415.4333908277251
 20
1968.32797249011
 42
0.4142135623730951
 10
419.5333908277253
 20
1964.22797249011
 10
499.2730725634483
 20
1964.22797249011
 42
0.2446984432290329
 10
502.6315959450331
 20
1965.976309101071
 10
505.297004945033
 20
1969.782908101071
 42
-0.5205670505517518
 10
514.3076774322117
 20
1969.782909359198
 10
516.9730874322119
 20
1965.976310359198
 42
0.2446984432290355
 10
520.3316099641305
 20
1964.227974116044
 10
601.2716099641306
 20
1964.227974116044
 42
0.2446984432290357
 10
604.6301324960491
 20
1965.976310359198
 10
607.2955424960492
 20
1969.782909359198
 42
-0.5205670505517466
 10
616.306214983228
 20
1969.782908101071
 10
618.971623983228
 20
1965.976309101071
 42
0.2446984432290353
 10
622.3301473648129
 20
1964.22797249011
 10
699.8941713269337
 20
1964.22797249011
 42
0.4142135623731031
 10
703.9940713269336
 20
1968.32787249011
 42
-0.2939817751607098
 10
707.2158355324884
 20
1973.333833199703
 10
707.4800837538354
 20
1973.454093696547
 42
0.2931365125316157
 10
708.074383722512
 20
1974.365769451833
 10
708.0743837225404
 20
2001.421338633969
 42
0.2992947414849744
 10
706.2634886473965
 20
2004.175613398349
 42
-3.892127811935753
 10
720.670244692496
 20
2005.554504195756
  0
LINE
  5
4BBF
330
18
100
AcDbEntity
  8
V25
100
AcDbLine
 10
504.1739259336771
 20
1885.274259245026
 30
0.0
 11
517.3220498600467
 21
1894.10884124119
 31
0.0
  0
LINE
  5
4BC0
330
18
100
AcDbEntity
  8
V25
100
AcDbLine
 10
504.1739259336771
 20
1926.664732224745
 30
0.0
 11
517.3220498600467
 21
1933.083750992294
 31
0.0
  0
LINE
  5
4BC1
330
18
100
AcDbEntity
  8
V5
100
AcDbLine
 10
356.1767860412798
 20
1936.390838024275
 30
0.0
 11
556.1767860412794
 21
1936.390838024275
 31
0.0
  0
LWPOLYLINE
  5
4BC2
330
18
100
AcDbEntity
  8
V5
100
AcDbPolyline
 90
        4
 70
     0
 43
0.0
 10
556.1767860412799
 20
1936.390838024275
 10
556.1767860412799
 20
1884.090964263076
 10
356.1767860412798
 20
1884.090964263076
 10
356.1767860412798
 20
1936.390838024275
  0
LWPOLYLINE
  5
4BC3
330
18
100
AcDbEntity
  8
V5
100
AcDbPolyline
 90
        4
 70
     0
 43
0.0
 10
556.3672709515962
 20
1448.230050945421
 10
556.3672709515962
 20
1875.044200623131
 10
356.3672709515963
 20
1875.044200623131
 10
356.3672709515963
 20
1448.230050945421
  0
LINE
  5
4BCC
330
18
100
AcDbEntity
  8
V5
100
AcDbLine
 10
321.2843459660681
 20
1814.712257607587
 30
0.0
 11
321.2843459660681
 21
2036.666136138759
 31
0.0
  0
LINE
  5
4BCD
330
18
100
AcDbEntity
  8
V5
100
AcDbLine
 10
325.4625149135419
 20
2033.105005252757
 30
0.0
 11
325.4625149135419
 21
1941.354492499342
 31
0.0
  0
LINE
  5
4BD0
330
18
100
AcDbEntity
  8
V5
100
AcDbLine
 10
325.4625149135419
 20
1941.354492499342
 30
0.0
 11
448.8276733367729
 21
1941.354492499342
 31
0.0
  0
LINE
  5
4BD1
330
18
100
AcDbEntity
  8
V5
100
AcDbLine
 10
448.8276733367729
 20
1938.901737774758
 30
0.0
 11
325.4625149135419
 21
1938.901737774758
 31
0.0
  0
LINE
  5
4BD2
330
18
100
AcDbEntity
  8
V5
100
AcDbLine
 10
325.4625149135419
 20
1938.901737774758
 30
0.0
 11
325.4625149135419
 21
1825.844505868123
 31
0.0
  0
LINE
  5
4BD3
330
18
100
AcDbEntity
  8
V5
100
AcDbLine
 10
332.3480066862304
 20
1825.775918327749
 30
0.0
 11
321.2843459660681
 21
1814.712257607587
 31
0.0
  0
LINE
  5
4BD5
330
18
100
AcDbEntity
  8
V15
  6
VERDECKTX2
 48
5.0
100
AcDbLine
 10
377.2464876089453
 20
1955.816744994877
 30
0.0
 11
377.2464876089453
 21
1914.864248370655
 31
0.0
  0
LINE
  5
4BD7
330
18
100
AcDbEntity
  8
V25
100
AcDbLine
 10
356.1767860412795
 20
1918.78292466639
 30
0.0
 11
358.5173655618631
 21
1918.449760407734
 31
0.0
  0
LINE
  5
4BD8
330
18
100
AcDbEntity
  8
V25
100
AcDbLine
 10
381.8861014466216
 20
1896.368335847368
 30
0.0
 11
386.7139282008355
 21
1890.257429980661
 31
0.0
  0
LINE
  5
4BD9
330
18
100
AcDbEntity
  8
V25
100
AcDbLine
 10
378.034112015068
 20
1905.303609971795
 30
0.0
 11
382.1942606011461
 21
1908.179330379656
 31
0.0
  0
LINE
  5
4BDA
330
18
100
AcDbEntity
  8
V25
100
AcDbLine
 10
371.6654894882327
 20
1906.895526626147
 30
0.0
 11
376.4419563833592
 21
1901.811663762249
 31
0.0
  0
LINE
  5
4BDB
330
18
100
AcDbEntity
  8
V25
100
AcDbLine
 10
356.1767860412795
 20
1894.961685958401
 30
0.0
 11
358.8255247163873
 21
1895.700757895542
 31
0.0
  0
LINE
  5
4BDC
330
18
100
AcDbEntity
  8
V25
100
AcDbLine
 10
358.8255247163873
 20
1895.700757895542
 30
0.0
 11
371.3059704746211
 21
1902.427889563933
 31
0.0
  0
LINE
  5
4BDD
330
18
100
AcDbEntity
  8
V25
100
AcDbLine
 10
358.5173655618631
 20
1918.449760407734
 30
0.0
 11
364.5778289341741
 21
1912.338854541028
 31
0.0
  0
LINE
  5
4BDE
330
18
100
AcDbEntity
  8
V25
100
AcDbLine
 10
364.5778289341741
 20
1912.338854541028
 30
0.0
 11
371.6654894882327
 21
1906.895526626147
 31
0.0
  0
LINE
  5
4BDF
330
18
100
AcDbEntity
  8
V25
100
AcDbLine
 10
371.3059704746211
 20
1902.427889563933
 30
0.0
 11
378.034112015068
 21
1905.303609971795
 31
0.0
  0
LINE
  5
4BE0
330
18
100
AcDbEntity
  8
V25
100
AcDbLine
 10
376.4419563833592
 20
1901.811663762249
 30
0.0
 11
381.8861014466216
 21
1896.368335847368
 31
0.0
  0
LINE
  5
4BE1
330
18
100
AcDbEntity
  8
V25
100
AcDbLine
 10
386.7139282008355
 20
1890.257429980661
 30
0.0
 11
389.0962457536612
 21
1884.090964263076
 31
0.0
  0
LINE
  5
4BE2
330
18
100
AcDbEntity
  8
V25
100
AcDbLine
 10
399.5025331135935
 20
1917.165956654224
 30
0.0
 11
402.0705260679624
 21
1918.141647506892
 31
0.0
  0
LINE
  5
4BE3
330
18
100
AcDbEntity
  8
V25
100
AcDbLine
 10
391.490395095962
 20
1913.314545393695
 30
0.0
 11
394.3665472048554
 21
1914.598349147205
 31
0.0
  0
LINE
  5
4BE4
330
18
100
AcDbEntity
  8
V25
100
AcDbLine
 10
382.1942606011461
 20
1908.179330379656
 30
0.0
 11
391.490395095962
 21
1913.314545393695
 31
0.0
  0
LINE
  5
4BE5
330
18
100
AcDbEntity
  8
V25
100
AcDbLine
 10
394.3665472048554
 20
1914.598349147205
 30
0.0
 11
399.5025331135935
 21
1917.165956654224
 31
0.0
  0
LINE
  5
4BE6
330
18
100
AcDbEntity
  8
V25
100
AcDbLine
 10
381.8861014466216
 20
1935.34324559847
 30
0.0
 11
386.7139282008355
 21
1929.232339731764
 31
0.0
  0
LINE
  5
4BE8
330
18
100
AcDbEntity
  8
V25
100
AcDbLine
 10
376.4419563833592
 20
1935.786573513351
 30
0.0
 11
381.8861014466216
 21
1935.34324559847
 31
0.0
  0
LINE
  5
4BE9
330
18
100
AcDbEntity
  8
V25
100
AcDbLine
 10
356.1767860412795
 20
1933.936595709504
 30
0.0
 11
358.8255247163873
 21
1934.675667646645
 31
0.0
  0
LINE
  5
4BEA
330
18
100
AcDbEntity
  8
V25
100
AcDbLine
 10
358.8255247163873
 20
1934.675667646645
 30
0.0
 11
371.2195368556507
 21
1936.390838024275
 31
0.0
  0
LINE
  5
4BEB
330
18
100
AcDbEntity
  8
V25
100
AcDbLine
 10
386.7139282008355
 20
1929.232339731764
 30
0.0
 11
390.0489434950042
 21
1922.528167755461
 31
0.0
  0
LINE
  5
4BEC
330
18
100
AcDbEntity
  8
0
  6
STRICHPUNKT
 62
     4
 48
5.0
100
AcDbLine
 10
457.5172431290503
 20
1936.111189844744
 30
0.0
 11
457.5172431290503
 21
1784.827331304091
 31
0.0
  0
INSERT
  5
4BED
330
18
100
AcDbEntity
  8
INSULATION
  6
VERDECKTX2
 48
5.0
100
AcDbBlockReference
  2
DAEMM
 10
459.1953639650953
 20
1937.658565546687
 30
0.0
 41
2.435877161768288
 42
2.395334333651954
 43
2.435877161768288
  0
LINE
  5
4BEE
330
18
100
AcDbEntity
  8
V25
100
AcDbLine
 10
457.4364541641599
 20
1908.179330379656
 30
0.0
 11
466.0649104908398
 21
1912.030741640186
 31
0.0
  0
LINE
  5
4BF0
330
18
100
AcDbEntity
  8
V15
  6
VERDECKTX2
 48
5.0
100
AcDbLine
 10
438.6961327781483
 20
1955.816744994877
 30
0.0
 11
438.6961327781483
 21
1914.864248370655
 31
0.0
  0
LINE
  5
4BF1
330
18
100
AcDbEntity
  8
V25
100
AcDbLine
 10
417.4271239350897
 20
1918.588407574752
 30
0.0
 11
426.0555802617696
 21
1912.030741640186
 31
0.0
  0
LINE
  5
4BF2
330
18
100
AcDbEntity
  8
V25
100
AcDbLine
 10
434.3758774339256
 20
1904.379271269268
 30
0.0
 11
440.1795415107997
 21
1897.292674549894
 31
0.0
  0
LINE
  5
4BF3
330
18
100
AcDbEntity
  8
V25
100
AcDbLine
 10
423.8471063210123
 20
1893.492615439506
 30
0.0
 11
437.9197077109548
 21
1899.552169156072
 31
0.0
  0
LINE
  5
4BF4
330
18
100
AcDbEntity
  8
V25
100
AcDbLine
 10
426.0555802617696
 20
1912.030741640186
 30
0.0
 11
434.3758774339256
 21
1904.379271269268
 31
0.0
  0
LINE
  5
4BF5
330
18
100
AcDbEntity
  8
V25
100
AcDbLine
 10
454.8684612097907
 20
1906.895526626147
 30
0.0
 11
457.4364541641599
 21
1908.179330379656
 31
0.0
  0
LINE
  5
4BF6
330
18
100
AcDbEntity
  8
V25
100
AcDbLine
 10
437.9197077109548
 20
1899.552169156072
 30
0.0
 11
441.1040189743724
 21
1900.168394957756
 31
0.0
  0
LINE
  5
4BF7
330
18
100
AcDbEntity
  8
V25
100
AcDbLine
 10
441.1040189743724
 20
1900.168394957756
 30
0.0
 11
449.4243161465283
 21
1904.68738417011
 31
0.0
  0
LINE
  5
4BF8
330
18
100
AcDbEntity
  8
V25
100
AcDbLine
 10
440.1795415107997
 20
1897.292674549894
 30
0.0
 11
445.6236865740621
 21
1891.849346635013
 31
0.0
  0
LINE
  5
4BF9
330
18
100
AcDbEntity
  8
V25
100
AcDbLine
 10
445.6236865740621
 20
1891.849346635013
 30
0.0
 11
449.4882697658066
 21
1884.090964263076
 31
0.0
  0
LINE
  5
4BFA
330
18
100
AcDbEntity
  8
V25
100
AcDbLine
 10
449.4243161465283
 20
1904.68738417011
 30
0.0
 11
454.8684612097907
 21
1906.895526626147
 31
0.0
  0
INSERT
  5
4BFB
330
18
100
AcDbEntity
  8
INSULATION
  6
VERDECKTX2
 48
5.0
100
AcDbBlockReference
  2
DAEMM
 10
429.9648380238759
 20
1937.658565546687
 30
0.0
 41
2.435877161768288
 42
2.395334333651954
 43
2.435877161768288
  0
INSERT
  5
4BFC
330
18
100
AcDbEntity
  8
INSULATION
  6
VERDECKTX2
 48
5.0
100
AcDbBlockReference
  2
DAEMM
 10
420.2213293768027
 20
1937.658565546687
 30
0.0
 41
2.435877161768288
 42
2.395334333651954
 43
2.435877161768288
  0
INSERT
  5
4BFD
330
18
100
AcDbEntity
  8
INSULATION
  6
VERDECKTX2
 48
5.0
100
AcDbBlockReference
  2
DAEMM
 10
410.4778207297295
 20
1937.658565546687
 30
0.0
 41
2.435877161768288
 42
2.395334333651954
 43
2.435877161768288
  0
LINE
  5
4BFE
330
18
100
AcDbEntity
  8
V25
100
AcDbLine
 10
412.0629477874714
 20
1922.528167755461
 30
0.0
 11
417.4271239350897
 21
1918.588407574752
 31
0.0
  0
LINE
  5
4BFF
330
18
100
AcDbEntity
  8
V25
100
AcDbLine
 10
423.8471063210123
 20
1932.467525190608
 30
0.0
 11
432.9585393107556
 21
1936.390838024275
 31
0.0
  0
INSERT
  5
4C00
330
18
100
AcDbEntity
  8
INSULATION
  6
VERDECKTX2
 48
5.0
100
AcDbBlockReference
  2
DAEMM
 10
449.4518553180221
 20
1937.658565546687
 30
0.0
 41
2.435877161768288
 42
2.395334333651954
 43
2.435877161768288
  0
INSERT
  5
4C01
330
18
100
AcDbEntity
  8
INSULATION
  6
VERDECKTX2
 48
5.0
100
AcDbBlockReference
  2
DAEMM
 10
439.708346670949
 20
1937.658565546687
 30
0.0
 41
2.435877161768288
 42
2.395334333651954
 43
2.435877161768288
  0
LINE
  5
4C02
330
18
100
AcDbEntity
  8
V25
100
AcDbLine
 10
445.6236865740621
 20
1930.824256386116
 30
0.0
 11
449.78383516014
 21
1923.619546083059
 31
0.0
  0
LINE
  5
4C03
330
18
100
AcDbEntity
  8
V25
100
AcDbLine
 10
449.78383516014
 20
1923.619546083059
 30
0.0
 11
450.5260838320064
 21
1922.528167755461
 31
0.0
  0
LINE
  5
4C04
330
18
100
AcDbEntity
  8
V25
100
AcDbLine
 10
440.1795415107997
 20
1936.267584300997
 30
0.0
 11
445.6236865740621
 21
1930.824256386116
 31
0.0
  0
LINE
  5
4C05
330
18
100
AcDbEntity
  8
V25
100
AcDbLine
 10
474.7041898653178
 20
1922.528167755461
 30
0.0
 11
481.4728682170544
 21
1917.474069555067
 31
0.0
  0
LINE
  5
4C06
330
18
100
AcDbEntity
  8
V25
100
AcDbLine
 10
489.4336463755985
 20
1909.463134133166
 30
0.0
 11
495.545469606997
 21
1902.427889563933
 31
0.0
  0
LINE
  5
4C07
330
18
100
AcDbEntity
  8
V25
100
AcDbLine
 10
481.4728682170544
 20
1917.474069555067
 30
0.0
 11
489.4336463755985
 21
1909.463134133166
 31
0.0
  0
LINE
  5
4C08
330
18
100
AcDbEntity
  8
V25
100
AcDbLine
 10
466.0649104908398
 20
1912.030741640186
 30
0.0
 11
465.7567513363156
 21
1911.722628739343
 31
0.0
  0
LINE
  5
4C09
330
18
100
AcDbEntity
  8
V25
100
AcDbLine
 10
506.741918888046
 20
1890.565542881503
 30
0.0
 11
509.5273548315806
 21
1884.090964263076
 31
0.0
  0
LINE
  5
4C0A
330
18
100
AcDbEntity
  8
V25
100
AcDbLine
 10
495.545469606997
 20
1902.427889563933
 30
0.0
 11
501.2977738247837
 21
1896.368335847368
 31
0.0
  0
LINE
  5
4C0B
330
18
100
AcDbEntity
  8
V25
100
AcDbLine
 10
501.2977738247837
 20
1896.368335847368
 30
0.0
 11
506.741918888046
 21
1890.565542881503
 31
0.0
  0
INSERT
  5
4C0C
330
18
100
AcDbEntity
  8
INSULATION
  6
VERDECKTX2
 48
5.0
100
AcDbBlockReference
  2
DAEMM
 10
488.4258899063148
 20
1937.658565546687
 30
0.0
 41
2.435877161768288
 42
2.395334333651954
 43
2.435877161768288
  0
INSERT
  5
4C0D
330
18
100
AcDbEntity
  8
INSULATION
  6
VERDECKTX2
 48
5.0
100
AcDbBlockReference
  2
DAEMM
 10
478.6823812592416
 20
1937.658565546687
 30
0.0
 41
2.435877161768288
 42
2.395334333651954
 43
2.435877161768288
  0
INSERT
  5
4C0E
330
18
100
AcDbEntity
  8
INSULATION
  6
VERDECKTX2
 48
5.0
100
AcDbBlockReference
  2
DAEMM
 10
468.9388726121684
 20
1937.658565546687
 30
0.0
 41
2.435877161768288
 42
2.395334333651954
 43
2.435877161768288
  0
INSERT
  5
4C0F
330
18
100
AcDbEntity
  8
INSULATION
  6
VERDECKTX2
 48
5.0
100
AcDbBlockReference
  2
DAEMM
 10
498.1693985533879
 20
1937.658565546687
 30
0.0
 41
2.435877161768288
 42
2.395334333651954
 43
2.435877161768288
  0
LINE
  5
4C10
330
18
100
AcDbEntity
  8
V25
100
AcDbLine
 10
506.741918888046
 20
1929.540452632607
 30
0.0
 11
510.556706414181
 21
1922.528167755461
 31
0.0
  0
LINE
  5
4C11
330
18
100
AcDbEntity
  8
V25
100
AcDbLine
 10
497.3209119183339
 20
1922.528167755461
 30
0.0
 11
504.1739259336771
 21
1926.664732224745
 31
0.0
  0
LINE
  5
4C12
330
18
100
AcDbEntity
  8
V25
100
AcDbLine
 10
501.2977738247837
 20
1935.34324559847
 30
0.0
 11
506.741918888046
 21
1929.540452632607
 31
0.0
  0
LINE
  5
4C13
330
18
100
AcDbEntity
  8
V5
100
AcDbLine
 10
321.2843459660681
 20
2036.666136138759
 30
0.0
 11
484.8062573936495
 21
2032.044195758722
 31
0.0
  0
LINE
  5
4C1B
330
18
100
AcDbEntity
  8
V5
100
AcDbLine
 10
351.2388659556437
 20
2032.441807640349
 30
0.0
 11
325.4625149135419
 21
2033.105005252757
 31
0.0
  0
LINE
  5
4C22
330
18
100
AcDbEntity
  8
TXT-D
 62
     1
100
AcDbLine
 10
484.8062573936495
 20
2037.260869220584
 30
0.0
 11
484.8784669670354
 21
2070.319199989488
 31
0.0
  0
LINE
  5
4C23
330
18
100
AcDbEntity
  8
TXT-D
 62
     1
100
AcDbLine
 10
450.4659323476724
 20
2037.260869220584
 30
0.0
 11
450.4659323476724
 21
2070.319199989488
 31
0.0
  0
LINE
  5
4C25
330
18
100
AcDbEntity
  8
V25
100
AcDbLine
 10
436.0225540819904
 20
2042.809529660741
 30
0.0
 11
436.0225540819902
 21
2020.786283166527
 31
0.0
  0
LINE
  5
4C26
330
18
100
AcDbEntity
  8
V5
100
AcDbLine
 10
484.8062573936495
 20
2032.044195758722
 30
0.0
 11
502.0773226008873
 21
2021.959042978156
 31
0.0
  0
TEXT
  5
4C28
330
18
100
AcDbEntity
  8
TXT-D
 62
     7
100
AcDbText
 10
433.0463279007085
 20
2081.671077655419
 30
0.0
 40
14.0
  1
tolerance
  7
ROMANS
100
AcDbText
  0
LINE
  5
4C29
330
18
100
AcDbEntity
  8
TXT-D
100
AcDbLine
 10
423.6928910297111
 20
2061.319199989488
 30
0.0
 11
450.4659323476723
 21
2061.319199989488
 31
0.0
  0
SOLID
  5
4C2A
330
18
100
AcDbEntity
  8
TXT-D
 62
     1
100
AcDbTrace
 10
432.9659323476724
 20
2058.402533322821
 30
0.0
 11
432.9659323476724
 21
2064.235866656154
 31
0.0
 12
450.4659323476724
 22
2061.319199989488
 32
0.0
 13
450.4659323476724
 23
2061.319199989488
 33
0.0
  0
POINT
  5
4C2B
330
18
100
AcDbEntity
  8
TXT-D
 62
     1
100
AcDbPoint
 10
450.4659323476724
 20
2061.319199989488
 30
0.0
  0
LINE
  5
4C2C
330
18
100
AcDbEntity
  8
TXT-D
100
AcDbLine
 10
484.8529834148548
 20
2061.319199989488
 30
0.0
 11
511.364258359441
 21
2061.319199989488
 31
0.0
  0
SOLID
  5
4C2D
330
18
100
AcDbEntity
  8
TXT-D
 62
     1
100
AcDbTrace
 10
502.3784669670354
 20
2058.402533322821
 30
0.0
 11
502.3784669670354
 21
2064.235866656154
 31
0.0
 12
484.8784669670354
 22
2061.319199989488
 32
0.0
 13
484.8784669670354
 23
2061.319199989488
 33
0.0
  0
LINE
  5
4C34
330
18
100
AcDbEntity
  8
V5
100
AcDbLine
 10
565.9688614504582
 20
1700.359459831065
 30
0.0
 11
565.9688614504582
 21
1810.359459831065
 31
0.0
  0
LINE
  5
4C38
330
18
100
AcDbEntity
  8
V25
  6
Continuous
100
AcDbLine
 10
901.4285714285714
 20
1821.306995237622
 30
0.0
 11
568.818724265569
 21
1821.306995237622
 31
0.0
  0
LINE
  5
4C39
330
18
100
AcDbEntity
  8
V25
  6
Continuous
100
AcDbLine
 10
901.4285714285714
 20
1817.306995237622
 30
0.0
 11
568.818724265569
 21
1817.306995237622
 31
0.0
  0
INSERT
  5
4C3A
330
18
100
AcDbEntity
  8
V35
  6
AUSGEZOGEN
 62
     6
 48
10.0
100
AcDbBlockReference
  2
e140
 10
712.1410618411974
 20
1825.048562965644
 30
0.0
  0
LINE
  5
4C3B
330
18
100
AcDbEntity
  8
V5
 62
     4
100
AcDbLine
 10
901.4285690323529
 20
1775.359460422365
 30
0.0
 11
565.9688590542398
 21
1775.359460422365
 31
0.0
  0
LINE
  5
4C3C
330
18
100
AcDbEntity
  8
V5
100
AcDbLine
 10
565.9688614504582
 20
1810.359459831065
 30
0.0
 11
901.4285714285714
 21
1810.359459831065
 31
0.0
  0
LWPOLYLINE
  5
4C3E
330
18
100
AcDbEntity
  8
V5
 62
     7
100
AcDbPolyline
 90
        3
 70
     0
 43
2.0
 10
627.9348779995652
 20
1813.665574405657
 10
558.1449158829164
 20
1813.665574405657
 10
558.1449158829164
 20
1864.202852974067
  0
INSERT
  5
4C3F
330
18
100
AcDbEntity
  8
INSULATION
  6
AUSGEZOGEN
 62
     6
 48
10.0
100
AcDbBlockReference
  2
DAEMM
 10
587.0620918733289
 20
1824.690211427246
 30
0.0
 41
13.70663284600277
 42
13.6084547927212
 43
13.70663284600277
  0
LINE
  5
4C41
330
18
100
AcDbEntity
  8
V25
  6
Continuous
100
AcDbLine
 10
564.818724265569
 20
1825.306995237622
 30
0.0
 11
564.6842199423958
 21
1875.862364282448
 31
0.0
  0
LINE
  5
4C42
330
18
100
AcDbEntity
  8
V25
  6
Continuous
100
AcDbLine
 10
560.818724265569
 20
1825.306995237622
 30
0.0
 11
560.6842199423958
 21
1875.862364282448
 31
0.0
  0
ELLIPSE
  5
4C43
330
18
100
AcDbEntity
  8
INSULATION
100
AcDbEllipse
 10
587.0620918733293
 20
1851.907121012688
 30
0.0
 11
-27.41326569200604
 21
0.0000000000042443
 31
0.0
210
0.0
220
0.0
230
1.0
 40
0.9928371866099601
 41
0.7529650940021908
 42
1.570796326795045
  0
ARC
  5
4C44
330
18
100
AcDbEntity
  8
V25
  6
Continuous
100
AcDbCircle
 10
568.818724265569
 20
1825.306995237622
 30
0.0
 40
8.0
100
AcDbArc
 50
180.0
 51
270.0
  0
ARC
  5
4C45
330
18
100
AcDbEntity
  8
V25
  6
Continuous
100
AcDbCircle
 10
568.818724265569
 20
1825.306995237622
 30
0.0
 40
4.0
100
AcDbArc
 50
180.0
 51
270.0
  0
LINE
  5
4C46
330
18
100
AcDbEntity
  8
0
  6
VERDECKTX2
 48
5.0
100
AcDbLine
 10
600.126320741363
 20
1820.330813555695
 30
0.0
 11
600.126320741363
 21
1804.820668513169
 31
0.0
  0
ELLIPSE
  5
4C47
330
18
100
AcDbEntity
  8
INSULATION
100
AcDbEllipse
 10
559.6488261813235
 20
1933.557849769014
 30
0.0
 11
-27.41326569200593
 21
0.0000000000001052
 31
0.0
210
0.0
220
0.0
230
0.9999999999999998
 40
0.992837186609956
 41
2.778624004984155
 42
4.663426967219121
  0
LINE
  5
4C48
330
18
100
AcDbEntity
  8
INSULATION
100
AcDbLine
 10
585.2760332583523
 20
1923.894458103728
 30
0.0
 11
567.5627151318694
 21
1877.589479382543
 31
0.0
  0
LINE
  5
4C49
330
18
100
AcDbEntity
  8
V25
100
AcDbLine
 10
527.2345026639113
 20
1917.474069555067
 30
0.0
 11
546.7512491171162
 21
1922.439818835281
 31
0.0
  0
LINE
  5
4C4A
330
18
100
AcDbEntity
  8
V25
100
AcDbLine
 10
531.3349563482351
 20
1922.528167755461
 30
0.0
 11
549.9869202396212
 21
1906.279300824462
 31
0.0
  0
HATCH
  5
4C4B
330
18
100
AcDbEntity
  8
V25
 48
5.0
100
AcDbHatch
 10
0.0
 20
0.0
 30
0.0
210
0.0
220
0.0
230
1.0
  2
ANSI37
 70
     0
 71
     1
 91
        1
 92
        7
 72
     0
 73
     1
 93
        4
 10
526.3672709515961
 20
1880.044200623131
 10
526.3672709515961
 20
1875.044200623131
 10
556.3672709515961
 20
1875.044200623131
 10
556.3672709515961
 20
1880.044200623131
 97
        1
330
4C4C
 75
     0
 76
     1
 52
-0.0000000000000127
 41
1.0
 77
     0
 78
     2
 53
44.99999999999999
 43
42.05124698360196
 44
1222.861435636268
 45
-2.245064030267287
 46
2.245064030267288
 79
     0
 53
134.9999999999999
 43
42.05124698360196
 44
1222.861435636268
 45
-2.245064030267288
 46
-2.245064030267287
 79
     0
 47
0.1149827854136383
 98
        1
 10
544.6430346059569
 20
1878.374712605516
  0
LWPOLYLINE
  5
4C4C
102
{ACAD_REACTORS
330
4C4B
102
}
330
18
100
AcDbEntity
  8
SV35
  6
AUSGEZOGEN
 48
5.0
100
AcDbPolyline
 90
        4
 70
     1
 43
0.0
 10
526.3672709515961
 20
1875.044200623131
 10
556.3672709515961
 20
1875.044200623131
 10
556.3672709515961
 20
1880.044200623131
 10
526.3672709515961
 20
1880.044200623131
  0
LINE
  5
4C4E
330
18
100
AcDbEntity
  8
V25
100
AcDbLine
 10
525.9505061867266
 20
1896.984561649052
 30
0.0
 11
526.6181843548626
 21
1897.292674549894
 31
0.0
  0
LINE
  5
4C4F
330
18
100
AcDbEntity
  8
V25
100
AcDbLine
 10
517.3220498600467
 20
1894.10884124119
 30
0.0
 11
521.7903576006488
 21
1895.700757895542
 31
0.0
  0
LINE
  5
4C50
330
18
100
AcDbEntity
  8
V25
100
AcDbLine
 10
521.7903576006488
 20
1895.700757895542
 30
0.0
 11
525.9505061867266
 21
1896.984561649052
 31
0.0
  0
ARC
  5
4C51
330
18
100
AcDbEntity
  8
V25
  6
Continuous
100
AcDbCircle
 10
556.6842199423958
 20
1875.862364282448
 30
0.0
 40
4.0
100
AcDbArc
 50
0.0
 51
90.0
  0
ARC
  5
4C52
330
18
100
AcDbEntity
  8
V25
  6
Continuous
100
AcDbCircle
 10
556.6842199423958
 20
1875.862364282448
 30
0.0
 40
8.0
100
AcDbArc
 50
0.0
 51
90.0
  0
LINE
  5
4C53
330
18
100
AcDbEntity
  8
V25
100
AcDbLine
 10
549.9869202396212
 20
1906.279300824462
 30
0.0
 11
556.1767860412799
 21
1898.960996086279
 31
0.0
  0
INSERT
  5
4C54
330
18
100
AcDbEntity
  8
INSULATION
  6
VERDECKTX2
 48
5.0
100
AcDbBlockReference
  2
DAEMM
 10
537.1434331416804
 20
1937.658565546687
 30
0.0
 41
2.435877161768288
 42
2.395334333651954
 43
2.435877161768288
  0
INSERT
  5
4C56
330
18
100
AcDbEntity
  8
INSULATION
  6
VERDECKTX2
 48
5.0
100
AcDbBlockReference
  2
DAEMM
 10
527.3999244946073
 20
1937.658565546687
 30
0.0
 41
2.435877161768288
 42
2.395334333651954
 43
2.435877161768288
  0
INSERT
  5
4C57
330
18
100
AcDbEntity
  8
INSULATION
  6
VERDECKTX2
 48
5.0
100
AcDbBlockReference
  2
DAEMM
 10
517.6564158475342
 20
1937.658565546687
 30
0.0
 41
2.435877161768288
 42
2.395334333651954
 43
2.435877161768288
  0
LINE
  5
4C58
330
18
100
AcDbEntity
  8
V25
100
AcDbLine
 10
521.7903576006488
 20
1934.675667646645
 30
0.0
 11
525.9505061867266
 21
1935.959471400155
 31
0.0
  0
LINE
  5
4C59
330
18
100
AcDbEntity
  8
V25
100
AcDbLine
 10
517.3220498600467
 20
1933.083750992294
 30
0.0
 11
521.7903576006488
 21
1934.675667646645
 31
0.0
  0
INSERT
  5
4C5A
330
18
100
AcDbEntity
  8
INSULATION
  6
VERDECKTX2
 48
5.0
100
AcDbBlockReference
  2
DAEMM
 10
546.8869417887535
 20
1937.658565546687
 30
0.0
 41
2.435877161768288
 42
2.395334333651954
 43
2.435877161768288
  0
LINE
  5
4C5B
330
18
100
AcDbEntity
  8
V25
100
AcDbLine
 10
546.7512491171162
 20
1922.439818835281
 30
0.0
 11
547.0092096837759
 21
1922.528167755461
 31
0.0
  0
INSERT
  5
4C5C
330
18
100
AcDbEntity
  8
INSULATION
  6
AUSGEZOGEN
 62
     6
 48
10.0
100
AcDbBlockReference
  2
DAEMM
 10
641.8886232573397
 20
1824.690211427246
 30
0.0
 41
13.70663284600277
 42
13.6084547927212
 43
13.70663284600277
  0
INSERT
  5
4DD8
330
18
100
AcDbEntity
  8
0
  6
VERDECKTX2
 48
5.0
100
AcDbBlockReference
  2
Ortgangprofil65
 10
407.3801777888813
 20
1943.336808620043
 30
0.0
 41
-1.0
  0
TEXT
  5
4DDB
330
18
100
AcDbEntity
  8
TXT-D
 62
     7
100
AcDbText
 10
203.2130165686021
 20
2099.573253555987
 30
0.0
 40
14.0
  1
štítový profil
  7
ROMANS
100
AcDbText
  0
LINE
  5
4DDC
330
18
100
AcDbEntity
  8
TXT-D
 62
     1
100
AcDbLine
 10
414.5707986867801
 20
2029.786808620043
 30
0.0
 11
362.2701331871376
 21
2104.926132880114
 31
0.0
  0
LINE
  5
4DDD
330
18
100
AcDbEntity
  8
TXT-D
100
AcDbLine
 10
362.2701331871376
 20
2104.926132880114
 30
0.0
 11
326.3194651788381
 21
2104.926132880114
 31
0.0
  0
LWPOLYLINE
  5
4DDE
330
18
100
AcDbEntity
  8
V35
100
AcDbPolyline
 90
        2
 70
     1
 43
2.9
 10
413.0207986867801
 20
2029.786808620043
 42
1.0
 10
416.12079868678
 20
2029.786808620043
 42
1.0
  0
LWPOLYLINE
  5
4DE0
330
18
100
AcDbEntity
  8
V35
100
AcDbPolyline
 90
       20
 70
     0
 43
0.0
 10
707.2145390396453
 20
2008.343069761346
 42
-0.8518717637873479
 10
713.9424019885504
 20
2028.655992492276
 42
-0.3441842485073744
 10
717.2900053406102
 20
2025.045433926996
 10
717.3197107304663
 20
2024.690029806663
 42
0.3077507175483973
 10
720.1648727042929
 20
2021.206197549159
 42
-0.3559174951861054
 10
723.010695556631
 20
2017.029084568397
 42
-0.2401758746392449
 10
717.8051789623927
 20
2008.674980093663
 42
0.2629884054316376
 10
716.3530784333447
 20
2006.105153790613
 10
716.353078433375
 20
1974.365769451833
 42
0.2931365125316157
 10
716.9473784020515
 20
1973.454093696547
 10
717.2116266233985
 20
1973.333833199703
 42
-0.2939859278524366
 10
720.4333908277251
 20
1968.32797249011
 42
0.4142135623730951
 10
724.5333908277252
 20
1964.22797249011
 10
804.2730725634482
 20
1964.22797249011
 42
0.2446984432290329
 10
807.6315959450329
 20
1965.976309101071
 10
810.297004945033
 20
1969.782908101071
 42
-0.5205670505517518
 10
819.3076774322118
 20
1969.782909359198
 10
821.973087432212
 20
1965.976310359198
 42
0.2446984432290355
 10
825.3316099641306
 20
1964.227974116044
 10
901.4285714285714
 20
1964.227974116044
  0
ELLIPSE
  5
4DE1
330
18
100
AcDbEntity
  8
INSULATION
100
AcDbEllipse
 10
724.1284203333561
 20
1933.557849769014
 30
0.0
 11
27.41326569200578
 21
0.0000000000009634
 31
0.0
210
0.0
220
0.0
230
1.0
 40
0.9928371866099661
 41
-0.362968648605676
 42
3.504561302195398
  0
LINE
  5
4DE2
330
18
100
AcDbEntity
  8
INSULATION
100
AcDbLine
 10
749.7556274103848
 20
1923.894458103728
 30
0.0
 11
725.914478948333
 21
1861.570512677974
 31
0.0
  0
INSERT
  5
4DE3
330
18
100
AcDbEntity
  8
INSULATION
  6
AUSGEZOGEN
 62
     6
 48
10.0
100
AcDbBlockReference
  2
DAEMM
 10
751.5416860253615
 20
1824.690211427246
 30
0.0
 41
13.70663284600277
 42
13.6084547927212
 43
13.70663284600277
  0
LINE
  5
4DE4
330
18
100
AcDbEntity
  8
INSULATION
  6
VERDECKT
 48
2.0
100
AcDbLine
 10
722.3423617183792
 20
1861.570512677974
 30
0.0
 11
698.5012132563277
 21
1923.894458103728
 31
0.0
  0
ELLIPSE
  5
4DE5
330
18
100
AcDbEntity
  8
INSULATION
  6
VERDECKT
 48
2.0
100
AcDbEllipse
 10
751.5416860253617
 20
1851.907121012688
 30
0.0
 11
-27.4132656920059
 21
0.0000000000049139
 31
0.0
210
0.0
220
0.0
230
1.0
 40
0.9928371866099659
 41
-0.3629686486054626
 42
1.570796326795071
  0
ELLIPSE
  5
4DE6
330
18
100
AcDbEntity
  8
INSULATION
  6
VERDECKT
 48
2.0
100
AcDbEllipse
 10
696.7151546413506
 20
1851.907121012688
 30
0.0
 11
-27.41326569200593
 21
0.000000000001006
 31
0.0
210
0.0
220
0.0
230
1.0
 40
0.9928371866099645
 41
1.570796326794936
 42
3.504561302195472
  0
HATCH
  5
4F33
330
18
100
AcDbEntity
  8
V35
  6
VERDECKTX2
 48
5.0
100
AcDbHatch
 10
0.0
 20
0.0
 30
0.0
210
0.0
220
0.0
230
1.0
  2
DOTS
 70
     0
 71
     0
 91
        2
 92
        7
 72
     0
 73
     1
 93
        7
 10
556.3672709515961
 20
503.3982474359224
 10
524.7976239286962
 20
521.6712189941772
 10
537.8473662918756
 20
580.3490365130655
 10
526.3672709515961
 20
580.3490365130655
 10
356.3672709515962
 20
580.3490365130658
 10
356.3672709515962
 20
230.4509096129514
 10
556.3672709515961
 20
230.4509096129514
 97
        0
 92
       23
 72
     0
 73
     1
 93
        4
 10
556.3672709515961
 20
580.3490365130655
 10
537.8473662918756
 20
580.3490365130655
 10
524.7976239286963
 20
521.6712189941771
 10
556.3672709515961
 20
503.3982474359224
 97
        0
 75
     0
 76
     1
 52
0.0
 41
200.0
 77
     0
 78
     1
 53
0.0
 43
0.0
 44
0.0
 45
6.25
 46
12.5
 79
     2
 49
0.0
 49
-12.5
 47
0.9068946626981464
 98
        2
 10
461.2729357784173
 20
377.9468198686136
 10
543.8344797096524
 20
537.560279207757
  0
TEXT
  5
4F97
330
18
100
AcDbEntity
  8
TXT-D
 62
     7
100
AcDbText
 10
115.560308126327
 20
750.0279463504698
 30
0.0
 40
14.0
  1
oplechování
  7
ROMANS
100
AcDbText
  0
VIEWPORT
  5
2442
330
2441
100
AcDbEntity
 67
     1
  8
0
100
AcDbViewport
 10
313.1290596226968
 20
182.161364027879
 30
0.0
 40
1019.903961016631
 41
396.1480250126373
 68
     1
 69
     1
 12
313.1290596226968
 22
182.161364027879
 13
0.0
 23
0.0
 14
10.0
 24
10.0
 15
10.0
 25
10.0
 16
0.0
 26
0.0
 36
1.0
 17
0.0
 27
0.0
 37
0.0
 42
50.0
 43
0.0
 44
0.0
 45
396.1480250126373
 50
0.0
 51
0.0
 72
   100
 90
    32800
  1

281
     0
 71
     1
 74
     0
110
0.0
120
0.0
130
0.0
111
1.0
121
0.0
131
0.0
112
0.0
122
1.0
132
0.0
 79
     0
146
0.0
170
     0
  0
LINE
  5
2443
330
2441
100
AcDbEntity
 67
     1
  8
V5
 62
     1
100
AcDbLine
 10
7.378457057812568
 20
270.0663649349316
 30
0.0
 11
196.0315659403611
 21
270.0663649349316
 31
0.0
  0
LINE
  5
2444
330
2441
100
AcDbEntity
 67
     1
  8
V5
 62
     1
100
AcDbLine
 10
7.378457057812568
 20
20.03769334085069
 30
0.0
 11
196.031565940361
 21
20.03769334085069
 31
0.0
  0
TEXT
  5
2446
330
2441
100
AcDbEntity
 67
     1
  8
0
 62
     7
100
AcDbText
 10
7.378457057812568
 20
273.0276699878348
 30
0.0
 40
2.585627078393893
  1
Štít
  7
Stil1
100
AcDbText
  0
TEXT
  5
2447
330
2441
100
AcDbEntity
 67
     1
  8
0
 62
     7
100
AcDbText
 10
7.378457057812568
 20
277.6427615215756
 30
0.0
 40
2.585627078393893
  1
Detail - Vazníková střecha
  7
Stil1
100
AcDbText
  0
LWPOLYLINE
  5
2448
330
2441
100
AcDbEntity
 67
     1
  8
0
 62
     1
100
AcDbPolyline
 90
        7
 70
     1
 43
0.0
 10
171.1422090408042
 20
12.63776080342012
 10
170.2050257024468
 20
12.63776080342012
 10
170.2050257024468
 20
6.734358271736043
 42
0.3265321329225733
 10
171.3488330778545
 20
5.70730316541911
 10
172.0238877247735
 20
5.707308068730622
 10
172.0238877247735
 20
6.444913155378106
 42
-0.4142135623730951
 10
171.1422090408042
 20
7.326591839347472
  0
HATCH
  5
2449
330
2441
100
AcDbEntity
 67
     1
  8
0
 62
     1
100
AcDbHatch
 10
0.0
 20
0.0
 30
0.0
210
0.0
220
0.0
230
1.0
  2
SOLID
 70
     1
 71
     0
 91
        5
 92
        7
 72
     1
 73
     1
 93
       12
 10
171.8796336498064
 20
2.642657989685744
 42
0.0
 10
171.8796336498063
 20
3.097657989685743
 42
0.0
 10
157.5146336498063
 20
3.097657989685743
 42
-0.4142135623730816
 10
156.9946336498063
 20
3.617657989685748
 42
0.0
 10
156.9946336498063
 20
14.05618615838461
 42
-0.2659775848638894
 10
157.2513254801551
 20
14.50459312509557
 42
-0.2516648824931138
 10
171.7804130818904
 20
15.05508074642154
 42
0.0
 10
171.9804581211609
 20
15.46374562411875
 42
0.2516648824931142
 10
157.0209308317102
 20
14.89694922096762
 42
0.2659775848638745
 10
156.5396336498063
 20
14.0561861583846
 42
0.0
 10
156.5396336498064
 20
3.617657989685739
 42
0.4142135623731021
 10
157.5146336498064
 20
2.642657989685744
 42
0.0
 97
        0
 92
       23
 72
     0
 73
     1
 93
       12
 10
160.709003277192
 20
12.41897150711669
 10
159.6804467456753
 20
12.41897150711669
 10
159.6804467456753
 20
5.707406646944892
 10
160.7090032771921
 20
5.707406646944893
 10
160.709003277192
 20
7.607080171612842
 10
161.5130431441546
 20
8.678332632823781
 10
163.4601919451483
 20
5.707406646944897
 10
164.5976752693911
 20
5.707406646944889
 10
162.1455188436231
 20
9.521003721101157
 10
164.3206192214516
 20
12.41897150711669
 10
163.1711954901292
 20
12.41897150711669
 10
160.709003277192
 20
8.991742055666072
 97
        0
 92
       23
 72
     1
 73
     1
 93
       18
 10
165.1445005508302
 20
10.23961706042952
 42
0.0
 10
165.5281195918805
 20
9.541100142545243
 42
-0.125089082906134
 10
166.8508947376822
 20
9.896315450135563
 42
-0.2678367822511334
 10
167.6514983513533
 20
9.489295003113456
 42
-0.1602289575784415
 10
167.7751725929877
 20
8.957038322130811
 42
-0.4569276421982519
 10
167.6737361473992
 20
8.87707596321626
 42
0.0541248642832566
 10
166.8545842281447
 20
8.87465310032838
 42
0.1876748474912706
 10
165.2217741497835
 20
8.053594607004125
 42
0.1827818212654542
 10
164.9299426038108
 20
6.861926575029807
 42
0.3920539506815877
 10
166.0924338422075
 20
5.710316639618223
 42
0.0
 10
166.8156929190153
 20
5.710316639618223
 42
0.1547524270167677
 10
167.769549789679
 20
6.015676490084731
 42
-0.4453775332544872
 10
168.0864651616882
 20
6.01770787569677
 42
0.2086188919813744
 10
169.1484662592782
 20
5.700801680734331
 42
0.6162695522450458
 10
169.236042116871
 20
5.988683940491176
 42
-0.2171983840452063
 10
168.78703703196
 20
7.007375237320971
 42
0.0
 10
168.78703703196
 20
9.072944898722395
 42
0.2771818233459465
 10
167.7954665706382
 20
10.60509243797142
 42
0.2393084470231861
 97
        0
 92
       22
 72
     1
 73
     1
 93
        8
 10
166.878374397114
 20
8.181566853410675
 42
0.0
 10
167.6403751356195
 20
8.181566853410675
 42
-0.4387538430829223
 10
167.8564356003741
 20
7.951713556446768
 42
0.0
 10
167.8564356003743
 20
7.203942434941795
 42
-0.2315738025864622
 10
167.598567576182
 20
6.646133798496991
 42
-0.2231591289144174
 10
166.4019447442666
 20
6.32785133319538
 42
-0.245125819360461
 10
165.8679663364297
 20
6.72949961092434
 42
-0.1420187448230589
 10
165.8819046685782
 20
7.550617961830791
 42
-0.2899718709828802
 97
        0
 92
        7
 72
     1
 73
     1
 93
        7
 10
171.1422090408042
 20
12.63776080342012
 42
0.0
 10
170.2050257024468
 20
12.63776080342012
 42
0.0
 10
170.2050257024468
 20
6.734358271736073
 42
0.3265321329225785
 10
171.3488330778545
 20
5.70730316541911
 42
0.0
 10
172.0238877247735
 20
5.707308068730623
 42
0.0
 10
172.0238877247735
 20
6.444913155378106
 42
-0.4142135623730958
 10
171.1422090408042
 20
7.326591839347473
 42
0.0
 97
        0
 75
     0
 76
     1
 47
0.2105755737740495
 98
        5
 10
169.2860972871858
 20
16.30532310860333
 10
160.2456532181561
 20
11.21360576732915
 10
166.8205216882655
 20
10.33761137006547
 10
166.8205216882655
 20
10.33761137006547
 10
170.7928380169379
 20
8.339249177091296
450
        0
451
        0
460
0.0
461
0.0
452
        0
462
0.0
453
        0
470

  0
LWPOLYLINE
  5
244A
330
2441
100
AcDbEntity
 67
     1
  8
0
 62
     1
100
AcDbPolyline
 90
       12
 70
     1
 43
0.0
 10
157.5146336498064
 20
2.642657989685744
 42
-0.4142135623730951
 10
156.5396336498064
 20
3.617657989685744
 10
156.5396336498063
 20
14.05618615838464
 42
-0.2659775848638765
 10
157.0209308317103
 20
14.89694922096765
 42
-0.2516648824931137
 10
171.9804581211609
 20
15.46374562411874
 10
171.7804130818904
 20
15.05508074642154
 42
0.2516648824931138
 10
157.2513254801551
 20
14.50459312509557
 42
0.2659775848638775
 10
156.9946336498063
 20
14.05618615838464
 10
156.9946336498063
 20
3.617657989685744
 42
0.4142135623730951
 10
157.5146336498064
 20
3.097657989685743
 10
171.8796336498064
 20
3.097657989685743
 10
171.8796336498064
 20
2.642657989685744
  0
LWPOLYLINE
  5
244B
330
2441
100
AcDbEntity
 67
     1
  8
0
 62
     1
100
AcDbPolyline
 90
       13
 70
     0
 43
0.0
 10
160.709003277192
 20
8.991742055666069
 10
160.709003277192
 20
12.41897150711669
 10
159.6804467456753
 20
12.41897150711669
 10
159.6804467456753
 20
5.707406646944892
 10
160.709003277192
 20
5.707406646944892
 10
160.709003277192
 20
7.6070801716128
 10
161.5130431441546
 20
8.678332632823778
 10
163.4601919451483
 20
5.707406646944896
 10
164.5976752693911
 20
5.707406646944889
 10
162.1455188436231
 20
9.521003721101163
 10
164.3206192214516
 20
12.41897150711669
 10
163.1711954901292
 20
12.41897150711668
 10
160.6977260448776
 20
8.976044799165943
  0
LWPOLYLINE
  5
244C
330
2441
100
AcDbEntity
 67
     1
  8
0
 62
     1
100
AcDbPolyline
 90
        8
 70
     1
 43
0.0
 10
166.401944744267
 20
6.327851333195315
 42
-0.2451258193606399
 10
165.8679663364297
 20
6.729499610924428
 42
-0.1420187448230164
 10
165.8819046685781
 20
7.550617961830644
 42
-0.2899718709829171
 10
166.878374397114
 20
8.181566853410675
 10
167.6449213242718
 20
8.181566853410675
 42
-0.3900918559591556
 10
167.8564356003741
 20
7.982744937864822
 10
167.8564356003743
 20
7.173048935136726
 42
-0.2034436104283782
 10
167.6319582523418
 20
6.675082406628096
 42
-0.2311376311759479
  0
LWPOLYLINE
  5
244D
330
2441
100
AcDbEntity
 67
     1
  8
0
 62
     1
100
AcDbPolyline
 90
       18
 70
     1
 43
0.0
 10
167.7751725929877
 20
8.957038322131019
 42
0.1602289575782981
 10
167.6514983513534
 20
9.48929500311322
 42
0.2678367822512051
 10
166.8508947376822
 20
9.896315450135563
 42
0.1250890829061368
 10
165.5281195918805
 20
9.541100142545236
 10
165.1445005508302
 20
10.23961706042952
 42
-0.2393084470231862
 10
167.7954665706382
 20
10.60509243797143
 42
-0.2771818233458632
 10
168.78703703196
 20
9.072944898722962
 10
168.78703703196
 20
6.97355132321682
 42
0.2106080285028759
 10
169.2360421168713
 20
5.988683940490972
 42
-0.655875337136226
 10
169.1296033642075
 20
5.698632480071225
 42
-0.2140955845208337
 10
168.0503005494262
 20
6.049341431860447
 42
0.3793030021024653
 10
167.769549789679
 20
6.015676490084718
 42
-0.1547524270167758
 10
166.8156929190153
 20
5.710316639618223
 10
166.0924338422075
 20
5.710316639618223
 42
-0.3920539506815679
 10
164.9299426038108
 20
6.86192657502975
 42
-0.1827818212654531
 10
165.2217741497834
 20
8.053594607004075
 42
-0.1876748474912757
 10
166.8545842281447
 20
8.874653100328377
 42
-0.0541248642832585
 10
167.6737361473992
 20
8.87707596321626
 42
0.4569276421989473
  0
HATCH
  5
244E
330
2441
100
AcDbEntity
 67
     1
  8
0
 62
     1
100
AcDbHatch
 10
0.0
 20
0.0
 30
0.0
210
0.0
220
0.0
230
1.0
  2
SOLID
 70
     1
 71
     0
 91
        9
 92
       23
 72
     1
 73
     1
 93
       12
 10
172.5653492253768
 20
10.77490737173337
 42
0.0
 10
172.5653492253769
 20
9.815300931198191
 42
0.0
 10
175.0872837779416
 20
9.815300931198191
 42
-0.7299518516212804
 10
175.1617893235822
 20
9.676068307280827
 42
0.0
 10
172.4914556324585
 20
6.020268981102183
 42
0.50718022741599
 10
172.644211845655
 20
5.707312574502982
 42
0.0
 10
176.8000291350547
 20
5.707342760602259
 42
0.0
 10
176.8000291350547
 20
6.670566757922292
 42
0.0
 10
174.218227789512
 20
6.670566757922292
 42
-0.6989832493953289
 10
174.1827769958388
 20
6.747219420546859
 42
0.0
 10
176.7537482928729
 20
10.30088496212113
 42
0.0
 10
176.753748292873
 20
10.77490737173337
 42
0.0
 97
        0
 92
       23
 72
     0
 73
     1
 93
        6
 10
178.9666074401292
 20
10.76669905952824
 10
177.2426526430076
 20
10.76669905952825
 10
177.2426526430076
 20
9.838115706771706
 10
177.8903677725763
 20
9.838115706771713
 10
177.8903677725763
 20
5.707350680361073
 10
178.9666074401292
 20
5.707358497710934
 97
        0
 92
       23
 72
     1
 73
     1
 93
       11
 10
180.1922008356549
 20
3.799755387185153
 42
0.0
 10
181.349217316878
 20
3.799755387185154
 42
0.0
 10
181.3492173168779
 20
5.717742550126925
 42
-0.5640200146066899
 10
181.4641258853013
 20
5.804282531762956
 42
0.1631429899295819
 10
183.1864652238147
 20
5.705950674351199
 42
0.2143211476369445
 10
184.5317686669931
 20
7.118160369269403
 42
0.1454787830754844
 10
184.5671690122602
 20
9.452852759694209
 42
0.2090289610022575
 10
183.4179929142678
 20
10.71591071200417
 42
0.2509780114725508
 10
181.3269206730922
 20
10.56621036557223
 42
0.0
 10
181.3269206730922
 20
10.77826047763267
 42
0.0
 10
180.1922008356549
 20
10.77826047763267
 42
0.0
 97
        0
 92
       22
 72
     1
 73
     1
 93
        7
 10
181.3269206730922
 20
9.649303832430231
 42
-0.2989352106795097
 10
183.0383857367719
 20
9.813694992411338
 42
-0.1898212309736138
 10
183.6122246189639
 20
8.933127238281548
 42
-0.0659282931228529
 10
183.6127328290073
 20
7.566155516116743
 42
-0.1241286129051029
 10
183.2657642838722
 20
6.9662939946905
 42
-0.0600684322457551
 10
182.8753349192135
 20
6.666462805026003
 42
-0.2741033349168765
 10
181.3269206730922
 20
6.737411717605815
 42
0.0
 97
        0
 92
        7
 72
     1
 73
     1
 93
       14
 10
184.0996336498042
 20
13.30265798968572
 42
-0.0829624126767204
 10
172.6060630259369
 20
15.15561449868119
 42
0.0
 10
172.4606106007267
 20
14.72448970004339
 42
0.0829624126767251
 10
184.1022290769075
 20
12.84766539220951
 42
0.0
 10
186.7646336498064
 20
12.84766539220951
 42
-0.414213562373081
 10
187.2846336498064
 20
12.32766539220951
 42
0.0
 10
187.2846336498064
 20
3.617657989685748
 42
-0.4142135623730816
 10
186.7646336498064
 20
3.097657989685743
 42
0.0
 10
172.5296336498063
 20
3.097657989685743
 42
0.0
 10
172.5296336498063
 20
2.642657989685744
 42
0.0
 10
186.7646336498063
 20
2.642657989685744
 42
0.4142135623730996
 10
187.7396336498064
 20
3.617657989685759
 42
0.0
 10
187.7396336498063
 20
12.32766539220952
 42
0.4130726898721487
 10
186.7684329742931
 20
13.30265798968574
 42
0.0
 97
        0
 92
        7
 72
     1
 73
     1
 93
        2
 10
189.230709588015
 20
14.48202895398631
 42
1.0
 10
187.5667493853671
 20
14.48202895398631
 42
1.0
 97
        0
 92
       22
 72
     1
 73
     1
 93
        2
 10
189.0917517292717
 20
14.48202895398631
 42
1.0
 10
187.7057072441104
 20
14.48202895398631
 42
1.0
 97
        0
 92
        6
 72
     1
 73
     1
 93
       17
 10
188.0891795167577
 20
14.04344269414814
 42
0.0
 10
188.0891795167577
 20
14.87685082043882
 42
-0.430292598095628
 10
188.1602238038721
 20
14.95062377538656
 42
0.0
 10
188.4261557316127
 20
14.95062377538655
 42
-0.1568897140508004
 10
188.7006785950414
 20
14.8834518751411
 42
-0.315341775502797
 10
188.7752715668388
 20
14.73776382093931
 42
0.0
 10
188.7752715668388
 20
14.6714272046255
 42
-0.214053362091937
 10
188.7212103793381
 20
14.42411548719076
 42
-0.1964805591713776
 10
188.7752715668388
 20
14.11867514764511
 42
0.0
 10
188.7752715668388
 20
14.043442694148
 42
0.0
 10
188.5773064487483
 20
14.04344269414801
 42
0.1689517444768469
 10
188.6343570292176
 20
14.13848483333379
 42
0.0
 10
188.6343570292176
 20
14.20746020516914
 42
0.3344300509710908
 10
188.4816798184333
 20
14.34121969975355
 42
0.0
 10
188.3510013364867
 20
14.34121969975355
 42
0.33200365023858
 10
188.2485746924039
 20
14.2209106453635
 42
0.0
 10
188.2485746924039
 20
14.04344269414801
 42
0.0
 97
        0
 92
        6
 72
     1
 73
     1
 93
        2
 10
188.5931590162751
 20
14.66258826751255
 42
0.0283389187032986
 10
188.5931590162751
 20
14.67490823679968
 42
0.0
 97
        0
 75
     0
 76
     1
 47
0.2105755736759934
 98
        9
 10
175.6453618172754
 20
10.2800670495476
 10
178.4944714567078
 20
9.705195731500037
 10
180.7682801127427
 20
9.842069878418275
 10
180.7682801127427
 20
9.842069878418275
 10
187.4253344155173
 20
12.79855093480507
 10
188.0554259540249
 20
13.78404458359732
 10
188.0554259540249
 20
13.78404458359732
 10
188.0554259540249
 20
13.78404458359732
 10
188.0554259540249
 20
13.78404458359732
450
        0
451
        0
460
0.0
461
0.0
452
        0
462
0.0
453
        0
470

  0
LWPOLYLINE
  5
244F
330
2441
100
AcDbEntity
 67
     1
  8
0
 62
     1
100
AcDbPolyline
 90
       15
 70
     0
 43
0.0
 10
186.7646336498063
 20
13.30266539220951
 42
-0.4142135623730951
 10
187.7396336498063
 20
12.32766539220951
 10
187.7396336498064
 20
3.617657989685744
 42
-0.4142135623730951
 10
186.7646336498063
 20
2.642657989685744
 10
172.5296336498063
 20
2.642657989685744
 10
172.5296336498063
 20
3.097657989685743
 10
186.7646336498063
 20
3.097657989685743
 42
0.4142135623730951
 10
187.2846336498064
 20
3.617657989685744
 10
187.2846336498064
 20
12.32766539220951
 42
0.4142135623730951
 10
186.7646336498063
 20
12.84766539220951
 10
184.1022290769089
 20
12.84766539220951
 42
-0.0829624126767354
 10
172.4606106007267
 20
14.72448970004339
 10
172.6060630259369
 20
15.15561449868119
 42
0.0829624126767356
 10
184.0996336498063
 20
13.30265798968572
 10
186.768432974293
 20
13.30265798968574
  0
LWPOLYLINE
  5
2450
330
2441
100
AcDbEntity
 67
     1
  8
0
 62
     1
100
AcDbPolyline
 90
       13
 70
     0
 43
0.0
 10
174.2108190769815
 20
6.670566757922292
 10
176.8000291350547
 20
6.670566757922292
 10
176.8000291350547
 20
5.707342760602259
 10
172.644211845655
 20
5.707312574502982
 42
-0.5071802274160878
 10
172.4914556324586
 20
6.020268981102255
 10
175.1753283020242
 20
9.694603739174606
 42
0.5083225216873333
 10
175.1172347781356
 20
9.815300931198191
 10
172.5653492253769
 20
9.815300931198191
 10
172.5653492253769
 20
10.77490737173337
 10
176.753748292873
 20
10.77490737173337
 10
176.753748292873
 20
10.30088496212111
 10
174.1743482512912
 20
6.735568983573102
 42
0.5855768765223777
 10
174.218227789512
 20
6.670566757922292
  0
LWPOLYLINE
  5
2451
330
2441
100
AcDbEntity
 67
     1
  8
0
 62
     1
100
AcDbPolyline
 90
        6
 70
     1
 43
0.0
 10
177.2426526430076
 20
9.838115706771706
 10
177.2426526430076
 20
10.76669905952824
 10
178.9666074401292
 20
10.76669905952824
 10
178.9666074401292
 20
5.707358497710934
 10
177.8903677725763
 20
5.707350680361074
 10
177.8903677725763
 20
9.838115706771713
  0
LWPOLYLINE
  5
2452
330
2441
100
AcDbEntity
 67
     1
  8
0
 62
     1
100
AcDbPolyline
 90
        2
 70
     1
 43
0.5199938194713205
 10
178.1684970925114
 20
12.09962512678654
 42
1.0
 10
178.6884909119828
 20
12.09962512678654
 42
1.0
  0
LWPOLYLINE
  5
2453
330
2441
100
AcDbEntity
 67
     1
  8
0
 62
     1
100
AcDbPolyline
 90
        7
 70
     1
 43
0.0
 10
183.6122246189638
 20
8.933127238281983
 42
0.1898212309735227
 10
183.038385736772
 20
9.813694992411306
 42
0.2989352106795207
 10
181.3269206730922
 20
9.649303832430234
 10
181.3269206730922
 20
6.737411717605818
 42
0.2741033349168594
 10
182.8753349192135
 20
6.666462805025961
 42
0.0600684322456349
 10
183.2657642838714
 20
6.96629399468974
 42
0.1241286129052769
 10
183.6127328290073
 20
7.566155516116644
 42
0.0659282931228788
  0
LWPOLYLINE
  5
2454
330
2441
100
AcDbEntity
 67
     1
  8
0
 62
     1
100
AcDbPolyline
 90
       12
 70
     1
 43
0.0
 10
181.3269206730922
 20
10.64075346765235
 10
181.3269206730922
 20
10.77826047763267
 10
180.1922008356549
 20
10.77826047763267
 10
180.1922008356549
 20
3.799755387185154
 10
181.3492173168779
 20
3.799755387185154
 10
181.3492173168779
 20
5.734822214632103
 42
-0.4980732597277929
 10
181.4639555954105
 20
5.80435064655672
 42
0.1631603344019285
 10
183.1864652238147
 20
5.70595067435121
 42
0.2143211476370474
 10
184.5317686669934
 20
7.118160369270324
 42
0.1454787830754339
 10
184.5671690122602
 20
9.452852759694359
 42
0.209028960994081
 10
183.4179929143287
 20
10.71591071197696
 42
0.2333951007146881
 10
181.4541309634565
 20
10.64075346765236
  0
CIRCLE
  5
2455
330
2441
100
AcDbEntity
 67
     1
  8
0
 62
     1
100
AcDbCircle
 10
188.398729486691
 20
14.48202895398631
 30
0.0
 40
0.8319801013239141
  0
CIRCLE
  5
2456
330
2441
100
AcDbEntity
 67
     1
  8
0
 62
     1
100
AcDbCircle
 10
188.398729486691
 20
14.48202895398631
 30
0.0
 40
0.6930222425806165
  0
LWPOLYLINE
  5
2457
330
2441
100
AcDbEntity
 67
     1
  8
0
 62
     1
100
AcDbPolyline
 90
       10
 70
     1
 43
0.0
 10
188.5749871489375
 20
14.72920109052687
 42
0.2024912017590097
 10
188.4928765106515
 20
14.78863575978702
 10
188.3412479398487
 20
14.78863575978702
 42
0.3605152320615398
 10
188.2730582352929
 20
14.72412753393324
 10
188.2730582352929
 20
14.5952765909802
 42
0.3656960469701174
 10
188.3460633056111
 20
14.51927846821619
 10
188.4969397317304
 20
14.51927846821619
 42
0.143350963341212
 10
188.5775063805282
 20
14.54442567510559
 42
0.2365834905846161
 10
188.5931590162751
 20
14.57619629999332
 10
188.5931590162751
 20
14.67490823679983
 42
0.133951748517549
  0
HATCH
  5
2458
330
2441
100
AcDbEntity
 67
     1
  8
0
 62
     1
100
AcDbHatch
 10
0.0
 20
0.0
 30
0.0
210
0.0
220
0.0
230
1.0
  2
SOLID
 70
     1
 71
     0
 91
        2
 92
        7
 72
     1
 73
     1
 93
       16
 10
188.6343570292176
 20
14.20746020516914
 42
0.0
 10
188.6343570292176
 20
14.04344269414801
 42
0.0
 10
188.7752715668388
 20
14.043442694148
 42
0.0
 10
188.7752715668388
 20
14.29185258888377
 42
0.0878146924641936
 10
188.7212103793381
 20
14.42411548719076
 42
0.1080222927165532
 10
188.7752715668388
 20
14.54460919492257
 42
0.0
 10
188.7752715668388
 20
14.77693979931692
 42
0.192215680109946
 10
188.7229380317306
 20
14.86886648353821
 42
0.171699417140815
 10
188.4261557316127
 20
14.95062377538655
 42
0.0
 10
188.1590317123538
 20
14.95062377538656
 42
0.3983152836439984
 10
188.0891795167577
 20
14.88335522903354
 42
0.0
 10
188.0891795167577
 20
14.043442694148
 42
0.0
 10
188.2485746924039
 20
14.043442694148
 42
0.0
 10
188.2485746924039
 20
14.20396741150131
 42
-0.3680258038893664
 10
188.3510013364867
 20
14.34121969975355
 42
0.0
 10
188.4567423536045
 20
14.34121969975355
 42
-0.3760883100637826
 97
        0
 92
       22
 72
     1
 73
     1
 93
       10
 10
188.4915967925483
 20
14.51927846821619
 42
0.0
 10
188.3630709943212
 20
14.51927846821619
 42
-0.4644547038390189
 10
188.2730582352929
 20
14.60574623298982
 42
0.0
 10
188.2730582352929
 20
14.70635490265327
 42
-0.4700313181861818
 10
188.3508968496409
 20
14.78863575978702
 42
0.0
 10
188.4928765106515
 20
14.78863575978702
 42
-0.2024912017596684
 10
188.5749871489377
 20
14.72920109052658
 42
-0.1629090778538176
 10
188.5931590162751
 20
14.66258826751202
 42
0.0
 10
188.5931590162751
 20
14.57619629999126
 42
-0.2807969913979313
 10
188.5719823350275
 20
14.54091967679401
 42
-0.1413133624004751
 97
        0
 75
     0
 76
     1
 47
0.025620434889365
 98
        2
 10
188.5750173726398
 20
14.44298061465923
 10
188.5750173726398
 20
14.44298061465923
450
        0
451
        0
460
0.0
461
0.0
452
        0
462
0.0
453
        0
470

  0
LWPOLYLINE
  5
2459
330
2441
100
AcDbEntity
 67
     1
  8
0
 62
     1
100
AcDbPolyline
 90
       17
 70
     0
 43
0.0
 10
188.0891795167577
 20
14.88335522903302
 10
188.0891795167577
 20
14.043442694148
 10
188.2485746924039
 20
14.04344269414801
 10
188.2485746924039
 20
14.22091064536369
 42
-0.3320036502381971
 10
188.3510013364867
 20
14.34121969975355
 10
188.4816798184333
 20
14.34121969975355
 42
-0.3344300509710546
 10
188.6343570292176
 20
14.20746020516917
 10
188.6343570292176
 20
14.04344269414801
 10
188.7752715668388
 20
14.043442694148
 10
188.7752715668388
 20
14.29185258888386
 42
0.0878146924641325
 10
188.7212103793381
 20
14.42411548719077
 42
0.1080222927165679
 10
188.7752715668388
 20
14.54460919492261
 10
188.7752715668388
 20
14.77693979931685
 42
0.2411188226969047
 10
188.7006785950415
 20
14.88345187514104
 42
0.1568897140508559
 10
188.4261557316127
 20
14.95062377538655
 10
188.1590317123538
 20
14.95062377538656
 42
0.4252932903388871
 10
188.0891795167577
 20
14.87685082043922
  0
TEXT
  5
245A
330
2441
100
AcDbEntity
 67
     1
  8
0
 62
     7
100
AcDbText
 10
109.8439966605646
 20
277.6427615215756
 30
0.0
 40
2.872918975993215
  1
05.05.04
  7
Stil1
100
AcDbText
  0
TEXT
  5
245B
330
2441
100
AcDbEntity
 67
     1
  8
0
 62
     7
100
AcDbText
 10
109.8439966605646
 20
273.0276699878348
 30
0.0
 40
2.872918975993215
  1
M1:5
  7
Stil1
100
AcDbText
  0
TEXT
  5
245C
330
2441
100
AcDbEntity
 67
     1
  8
0
 62
     7
100
AcDbText
 10
179.0801538615955
 20
277.7560524838962
 30
0.0
 40
2.872918975993215
  1
střecha
  7
Stil1
100
AcDbText
  0
TEXT
  5
245D
330
2441
100
AcDbEntity
 67
     1
  8
0
 62
     7
100
AcDbText
 10
185.5805356958195
 20
273.0276699878348
 30
0.0
 40
2.872918975993215
  1
162
  7
Stil1
100
AcDbText
  0
VIEWPORT
  5
245E
330
2441
100
AcDbEntity
 67
     1
  8
Mansfen
100
AcDbViewport
 10
101.7050114990867
 20
99.21794989869784
 30
0.0
 40
188.6531088825485
 41
158.3605131156943
 68
     2
 69
     2
 12
554.0857304140861
 22
601.1426676593677
 13
0.0
 23
0.0
 14
10.0
 24
10.0
 15
10.0
 25
10.0
 16
0.0
 26
0.0
 36
1.0
 17
0.0
 27
0.0
 37
0.0
 42
50.0
 43
0.0
 44
0.0
 45
791.8025625775342
 50
0.0
 51
0.0
 72
 20000
 90
    32768
  1

281
     0
 71
     1
 74
     0
110
0.0
120
0.0
130
0.0
111
1.0
121
0.0
131
0.0
112
0.0
122
1.0
132
0.0
 79
     0
146
0.0
170
     0
  0
VIEWPORT
  5
4DE8
330
2441
100
AcDbEntity
 67
     1
  8
Mansfen
100
AcDbViewport
 10
101.2786231203936
 20
227.6942320793783
 30
0.0
 40
122.1708422730596
 41
84.74426571110667
 68
     3
 69
     3
 12
461.9949830253485
 22
1958.696420625466
 13
0.0
 23
0.0
 14
10.0
 24
10.0
 15
10.0
 25
10.0
 16
0.0
 26
0.0
 36
1.0
 17
0.0
 27
0.0
 37
0.0
 42
50.0
 43
0.0
 44
0.0
 45
423.7213288162177
 50
0.0
 51
0.0
 72
 20000
 90
    32768
  1

281
     0
 71
     1
 74
     0
110
0.0
120
0.0
130
0.0
111
1.0
121
0.0
131
0.0
112
0.0
122
1.0
132
0.0
 79
     0
146
0.0
170
     0
  0
MTEXT
  5
5059
102
{ACAD_XDICTIONARY
360
513A
102
}
330
2441
100
AcDbEntity
 67
     1
  8
TXT-D
100
AcDbMText
 10
8.183432252185223
 20
17.50990918543465
 30
0.0
 40
2.8
 41
106.1716
 71
     1
 72
     5
  1
{\C7;* Poplastovan\U+00E9 klipsy nejsou vyr\U+00E1b\U+011Bny ve v\U+0161ech rozm\U+011Brech}
  7
ROMANS
 73
     1
 44
1.0
  0
ENDSEC
  0
SECTION
  2
OBJECTS
  0
DICTIONARY
  5
C
330
0
100
AcDbDictionary
281
     1
  3
ACAD_CIP_PREVIOUS_PRODUCT_INFO
350
4FF1
  3
ACAD_COLOR
350
4FD1
  3
ACAD_DETAILVIEWSTYLE
350
4FEB
  3
ACAD_GROUP
350
D
  3
ACAD_IMAGE_DICT
350
6C4
  3
ACAD_IMAGE_VARS
350
6C5
  3
ACAD_LAYOUT
350
5E9
  3
ACAD_MATERIAL
350
4F9F
  3
ACAD_MLEADERSTYLE
350
4FE6
  3
ACAD_MLINESTYLE
350
1B
  3
ACAD_PLOTSETTINGS
350
5EA
  3
ACAD_PLOTSTYLENAME
350
5E7
  3
ACAD_SCALELIST
350
4FD4
  3
ACAD_SECTIONVIEWSTYLE
350
4FE8
  3
ACAD_TABLESTYLE
350
4FD2
  3
ACAD_VISUALSTYLE
350
4FB8
  3
ACDB_RECOMPOSE_DATA
350
50FA
  3
AcDbVariableDictionary
350
7F0
  3
AcDsDecomposeData
350
5100
  0
DICTIONARY
  5
5017
330
2
100
AcDbDictionary
280
     1
281
     1
  3
ACAD_LAYERSTATES
360
5018
  0
DICTIONARY
  5
4FF2
330
E
100
AcDbDictionary
280
     1
281
     1
  3
ADSK_XREC_LAYER_RECONCILED
360
4FF3
  0
DICTIONARY
  5
4FF4
330
B7
100
AcDbDictionary
280
     1
281
     1
  3
ADSK_XREC_LAYER_RECONCILED
360
4FF5
  0
DICTIONARY
  5
4FF6
330
8F4
100
AcDbDictionary
280
     1
281
     1
  3
ADSK_XREC_LAYER_RECONCILED
360
4FF7
  0
DICTIONARY
  5
4FF8
330
120A
100
AcDbDictionary
280
     1
281
     1
  3
ADSK_XREC_LAYER_RECONCILED
360
4FF9
  0
DICTIONARY
  5
4FFA
330
120B
100
AcDbDictionary
280
     1
281
     1
  3
ADSK_XREC_LAYER_RECONCILED
360
4FFB
  0
DICTIONARY
  5
4FFC
330
120C
100
AcDbDictionary
280
     1
281
     1
  3
ADSK_XREC_LAYER_RECONCILED
360
4FFD
  0
DICTIONARY
  5
4FFE
330
120D
100
AcDbDictionary
280
     1
281
     1
  3
ADSK_XREC_LAYER_RECONCILED
360
4FFF
  0
DICTIONARY
  5
5000
330
120E
100
AcDbDictionary
280
     1
281
     1
  3
ADSK_XREC_LAYER_RECONCILED
360
5001
  0
DICTIONARY
  5
5002
330
1211
100
AcDbDictionary
280
     1
281
     1
  3
ADSK_XREC_LAYER_RECONCILED
360
5003
  0
DICTIONARY
  5
5004
330
27C1
100
AcDbDictionary
280
     1
281
     1
  3
ADSK_XREC_LAYER_RECONCILED
360
5005
  0
DICTIONARY
  5
5006
330
4315
100
AcDbDictionary
280
     1
281
     1
  3
ADSK_XREC_LAYER_RECONCILED
360
5007
  0
DICTIONARY
  5
5008
330
4DC3
100
AcDbDictionary
280
     1
281
     1
  3
ADSK_XREC_LAYER_RECONCILED
360
5009
  0
DICTIONARY
  5
81C
330
18
100
AcDbDictionary
280
     1
281
     1
  3
ACAD_LAYOUTSELFREF
360
1EEC
  0
DICTIONARY
  5
513A
330
5059
100
AcDbDictionary
280
     1
281
     1
  3
ACAD_MTEXT_2008_RT
360
513B
  0
XRECORD
  5
4FF1
102
{ACAD_REACTORS
330
C
102
}
330
C
100
AcDbXrecord
280
     1
300
ACD
300
2013
300
ACD_F_S
  0
DICTIONARY
  5
4FD1
102
{ACAD_REACTORS
330
C
102
}
330
C
100
AcDbDictionary
281
     1
  0
DICTIONARY
  5
4FEB
102
{ACAD_REACTORS
330
C
102
}
330
C
100
AcDbDictionary
281
     1
  3
Imperial24
350
4FEC
  0
DICTIONARY
  5
D
102
{ACAD_REACTORS
330
C
102
}
330
C
100
AcDbDictionary
281
     1
  0
DICTIONARY
  5
6C4
102
{ACAD_REACTORS
330
C
102
}
330
C
100
AcDbDictionary
281
     1
  3
Kalzip
350
6C6
  0
RASTERVARIABLES
  5
6C5
102
{ACAD_REACTORS
330
C
102
}
330
C
100
AcDbRasterVariables
 90
        0
 70
     1
 71
     1
 72
     0
  0
DICTIONARY
  5
5E9
102
{ACAD_REACTORS
330
C
102
}
330
C
100
AcDbDictionary
281
     1
  3
A4
350
2440
  3
Model
350
5EB
  0
DICTIONARY
  5
4F9F
102
{ACAD_REACTORS
330
C
102
}
330
C
100
AcDbDictionary
281
     1
  3
ByBlock
350
4FA8
  3
ByLayer
350
4FA0
  3
Global
350
4FB0
  0
DICTIONARY
  5
4FE6
102
{ACAD_REACTORS
330
C
102
}
330
C
100
AcDbDictionary
281
     1
  3
Standard
350
4FE7
  0
DICTIONARY
  5
1B
102
{ACAD_REACTORS
330
C
102
}
330
C
100
AcDbDictionary
281
     1
  3
STANDARD
350
1C
  0
DICTIONARY
  5
5EA
102
{ACAD_REACTORS
330
C
102
}
330
C
100
AcDbDictionary
281
     1
  3
kzform
350
4320
  0
ACDBDICTIONARYWDFLT
  5
5E7
102
{ACAD_REACTORS
330
C
102
}
330
C
100
AcDbDictionary
281
     1
  3
Normal
350
5E8
100
AcDbDictionaryWithDefault
340
5E8
  0
DICTIONARY
  5
4FD4
102
{ACAD_REACTORS
330
C
102
}
330
C
100
AcDbDictionary
281
     1
  3
A0
350
4FD5
  3
A1
350
4FD6
  3
A2
350
4FD7
  3
A3
350
4FD8
  3
A4
350
4FD9
  3
A5
350
4FDA
  3
A6
350
4FDB
  3
A7
350
4FDC
  3
A8
350
4FDD
  3
A9
350
4FDE
  3
B0
350
4FDF
  3
B1
350
4FE0
  3
B2
350
4FE1
  3
B3
350
4FE2
  3
B4
350
4FE3
  3
B5
350
4FE4
  3
B6
350
4FE5
  0
DICTIONARY
  5
4FE8
102
{ACAD_REACTORS
330
C
102
}
330
C
100
AcDbDictionary
281
     1
  3
Imperial24
350
4FEA
  0
DICTIONARY
  5
4FD2
102
{ACAD_REACTORS
330
C
102
}
330
C
100
AcDbDictionary
281
     1
  3
Standard
350
4FD3
  0
DICTIONARY
  5
4FB8
102
{ACAD_REACTORS
330
C
102
}
330
C
100
AcDbDictionary
281
     1
  3
2dWireframe
350
4FBE
  3
Basic
350
4FBD
  3
Brighten
350
4FC4
  3
ColorChange
350
4FC8
  3
Conceptual
350
4FC1
  3
Dim
350
4FC3
  3
EdgeColorOff
350
4FD0
  3
Facepattern
350
4FC7
  3
Flat
350
4FB9
  3
FlatWithEdges
350
4FBA
  3
Gouraud
350
4FBB
  3
GouraudWithEdges
350
4FBC
  3
Hidden
350
4FC0
  3
JitterOff
350
4FCE
  3
Linepattern
350
4FC6
  3
OverhangOff
350
4FCF
  3
Realistic
350
4FC2
  3
Shaded
350
4FCD
  3
Shaded with edges
350
4FCC
  3
Shades of Gray
350
4FC9
  3
Sketchy
350
4FCA
  3
Thicken
350
4FC5
  3
Wireframe
350
4FBF
  3
X-Ray
350
4FCB
  0
XRECORD
  5
50FA
102
{ACAD_REACTORS
330
C
102
}
330
C
100
AcDbXrecord
280
     1
 90
        1
330
4FD3
  0
DICTIONARY
  5
7F0
102
{ACAD_REACTORS
330
C
102
}
330
C
100
AcDbDictionary
281
     1
  3
CANNOSCALE
350
5076
  3
CMLEADERSTYLE
350
5072
  3
CTABLESTYLE
350
5071
  3
CVIEWDETAILSTYLE
350
5073
  3
CVIEWSECTIONSTYLE
350
5074
  3
DIMASSOC
350
2466
  3
LAYEREVAL
350
5078
  3
LAYERNOTIFY
350
5079
  3
LIGHTINGUNITS
350
5077
  3
MSLTSCALE
350
5075
  3
SORTENTS
350
7F1
  3
XCLIPFRAME
350
50F7
  0
DICTIONARY
  5
5100
102
{ACAD_REACTORS
330
C
102
}
330
C
100
AcDbDictionary
281
     1
  3
AcDsRecords
350
5102
  3
AcDsSchemas
350
5101
1001
ACAD
1070
     2
  0
DICTIONARY
  5
5018
102
{ACAD_REACTORS
330
5017
102
}
330
5017
100
AcDbDictionary
281
     1
  0
XRECORD
  5
4FF3
102
{ACAD_REACTORS
330
4FF2
102
}
330
4FF2
100
AcDbXrecord
280
     1
290
     1
  0
XRECORD
  5
4FF5
102
{ACAD_REACTORS
330
4FF4
102
}
330
4FF4
100
AcDbXrecord
280
     1
290
     1
  0
XRECORD
  5
4FF7
102
{ACAD_REACTORS
330
4FF6
102
}
330
4FF6
100
AcDbXrecord
280
     1
290
     1
  0
XRECORD
  5
4FF9
102
{ACAD_REACTORS
330
4FF8
102
}
330
4FF8
100
AcDbXrecord
280
     1
290
     1
  0
XRECORD
  5
4FFB
102
{ACAD_REACTORS
330
4FFA
102
}
330
4FFA
100
AcDbXrecord
280
     1
290
     1
  0
XRECORD
  5
4FFD
102
{ACAD_REACTORS
330
4FFC
102
}
330
4FFC
100
AcDbXrecord
280
     1
290
     1
  0
XRECORD
  5
4FFF
102
{ACAD_REACTORS
330
4FFE
102
}
330
4FFE
100
AcDbXrecord
280
     1
290
     1
  0
XRECORD
  5
5001
102
{ACAD_REACTORS
330
5000
102
}
330
5000
100
AcDbXrecord
280
     1
290
     1
  0
XRECORD
  5
5003
102
{ACAD_REACTORS
330
5002
102
}
330
5002
100
AcDbXrecord
280
     1
290
     1
  0
XRECORD
  5
5005
102
{ACAD_REACTORS
330
5004
102
}
330
5004
100
AcDbXrecord
280
     1
290
     1
  0
XRECORD
  5
5007
102
{ACAD_REACTORS
330
5006
102
}
330
5006
100
AcDbXrecord
280
     1
290
     1
  0
XRECORD
  5
5009
102
{ACAD_REACTORS
330
5008
102
}
330
5008
100
AcDbXrecord
280
     1
290
     1
  0
XRECORD
  5
1EEC
102
{ACAD_REACTORS
330
81C
102
}
330
81C
100
AcDbXrecord
280
     1
340
18
  0
XRECORD
  5
513B
102
{ACAD_REACTORS
330
513A
102
}
330
513A
100
AcDbXrecord
280
     1
 40
350889.0
  1
{\C7;* Poplastované klipsy nejsou vyráběny ve všech rozměrech}
  0
ACDBDETAILVIEWSTYLE
  5
4FEC
102
{ACAD_REACTORS
330
4FEB
102
}
330
4FEB
100
AcDbModelDocViewStyle
 70
     0
  3
Imperial24
290
     0
100
AcDbDetailViewStyle
 70
     0
 71
     0
 90
        3
 71
     1
340
F
 62
   256
 40
0.24
340
0
 62
   256
 40
0.24
300

 40
0.36
280
     3
 71
     2
340
14
 90
       25
 62
   256
 71
     3
340
F
 62
   256
 40
0.24
 90
        1
 40
0.75
 90
        1
300
%<\AcVar ViewType \f "%tc1">% %<\AcVar ViewDetailId>%\PMĚŘÍTKO %<\AcVar ViewScale \f "%sn">%
 71
     4
340
14
 90
       25
 62
   256
340
14
 90
       25
 62
   256
280
     0
  0
IMAGEDEF
  5
6C6
102
{ACAD_REACTORS
330
6C4
102
}
330
6C4
100
AcDbRasterImageDef
 90
        0
  1
C:\Kalzip.pcx
 10
944.0
 20
1927.0
 11
0.0010593220338983
 21
0.0010593220338983
280
     1
281
     0
  0
LAYOUT
  5
2440
102
{ACAD_REACTORS
330
5E9
102
}
330
5E9
100
AcDbPlotSettings
  1

  2
Brother HL-760
  4
A4
  6

 40
6.043083
 41
6.762742
 42
7.736419999999999
 43
5.027069
 44
209.973328
 45
296.968323
 46
0.0
 47
0.0
 48
0.0
 49
0.0
140
210.0
141
297.0
142
1.0
143
1.0
 70
   688
 72
     1
 73
     0
 74
     5
  7
CORUS_Mono.ctb
 75
    16
147
1.0
 76
     0
 77
     2
 78
   300
148
0.0
149
0.0
100
AcDbLayout
  1
A4
 70
     0
 71
     1
 10
-6.043083
 20
-6.762742
 11
203.930245
 21
290.205581
 12
0.0
 22
0.0
 32
0.0
 14
7.378457057812454
 24
2.642657989685733
 34
0.0
 15
196.0315659403611
 25
281.3893347359368
 35
0.0
146
0.0
 13
0.0
 23
0.0
 33
0.0
 16
1.0
 26
0.0
 36
0.0
 17
0.0
 27
1.0
 37
0.0
 76
     0
330
2441
331
2442
  0
LAYOUT
  5
5EB
102
{ACAD_REACTORS
330
5E9
102
}
330
5E9
100
AcDbPlotSettings
  1

  2
\\BSSRV01\Océ 5120 A0
  4
A4
  6

 40
3.174999952316284
 41
3.174999952316284
 42
3.175003051757812
 43
3.17498779296875
 44
209.9733276367187
 45
296.9683227539062
 46
0.0
 47
0.0
 48
0.0
 49
0.0
140
0.0
141
0.0
142
1.0
143
1.0
 70
 11952
 72
     1
 73
     1
 74
     0
  7

 75
     0
147
1.0
 76
     0
 77
     2
 78
   300
148
973.0712272420497
149
544.3184272033454
100
AcDbLayout
  1
Model
 70
     1
 71
     0
 10
0.0
 20
0.0
 11
12.0
 21
9.0
 12
0.0
 22
0.0
 32
0.0
 14
0.0
 24
0.0
 34
0.0
 15
0.0
 25
0.0
 35
0.0
146
0.0
 13
0.0
 23
0.0
 33
0.0
 16
1.0
 26
0.0
 36
0.0
 17
0.0
 27
1.0
 37
0.0
 76
     0
330
18
331
4F9D
  0
MATERIAL
  5
4FA8
102
{ACAD_XDICTIONARY
360
4FA9
102
}
102
{ACAD_REACTORS
330
4F9F
102
}
330
4F9F
100
AcDbMaterial
  1
ByBlock
 72
     0
 43
0.0208333333333333
 43
0.0
 43
0.0
 43
0.0
 43
0.0
 43
0.0208333333333333
 43
0.0
 43
0.0
 43
0.0
 43
0.0
 43
1.0
 43
0.0
 43
0.0
 43
0.0
 43
0.0
 43
1.0
 77
     0
 47
0.0208333333333333
 47
0.0
 47
0.0
 47
0.0
 47
0.0
 47
0.0208333333333333
 47
0.0
 47
0.0
 47
0.0
 47
0.0
 47
1.0
 47
0.0
 47
0.0
 47
0.0
 47
0.0
 47
1.0
171
     0
 49
0.0208333333333333
 49
0.0
 49
0.0
 49
0.0
 49
0.0
 49
0.0208333333333333
 49
0.0
 49
0.0
 49
0.0
 49
0.0
 49
1.0
 49
0.0
 49
0.0
 49
0.0
 49
0.0
 49
1.0
175
     0
142
0.0208333333333333
142
0.0
142
0.0
142
0.0
142
0.0
142
0.0208333333333333
142
0.0
142
0.0
142
0.0
142
0.0
142
1.0
142
0.0
142
0.0
142
0.0
142
0.0
142
1.0
179
     0
144
0.0208333333333333
144
0.0
144
0.0
144
0.0
144
0.0
144
0.0208333333333333
144
0.0
144
0.0
144
0.0
144
0.0
144
1.0
144
0.0
144
0.0
144
0.0
144
0.0
144
1.0
147
0.0208333333333333
147
0.0
147
0.0
147
0.0
147
0.0
147
0.0208333333333333
147
0.0
147
0.0
147
0.0
147
0.0
147
1.0
147
0.0
147
0.0
147
0.0
147
0.0
147
1.0
  0
MATERIAL
  5
4FA0
102
{ACAD_XDICTIONARY
360
4FA1
102
}
102
{ACAD_REACTORS
330
4F9F
102
}
330
4F9F
100
AcDbMaterial
  1
ByLayer
 72
     0
 43
0.0208333333333333
 43
0.0
 43
0.0
 43
0.0
 43
0.0
 43
0.0208333333333333
 43
0.0
 43
0.0
 43
0.0
 43
0.0
 43
1.0
 43
0.0
 43
0.0
 43
0.0
 43
0.0
 43
1.0
 77
     0
 47
0.0208333333333333
 47
0.0
 47
0.0
 47
0.0
 47
0.0
 47
0.0208333333333333
 47
0.0
 47
0.0
 47
0.0
 47
0.0
 47
1.0
 47
0.0
 47
0.0
 47
0.0
 47
0.0
 47
1.0
171
     0
 49
0.0208333333333333
 49
0.0
 49
0.0
 49
0.0
 49
0.0
 49
0.0208333333333333
 49
0.0
 49
0.0
 49
0.0
 49
0.0
 49
1.0
 49
0.0
 49
0.0
 49
0.0
 49
0.0
 49
1.0
175
     0
142
0.0208333333333333
142
0.0
142
0.0
142
0.0
142
0.0
142
0.0208333333333333
142
0.0
142
0.0
142
0.0
142
0.0
142
1.0
142
0.0
142
0.0
142
0.0
142
0.0
142
1.0
179
     0
144
0.0208333333333333
144
0.0
144
0.0
144
0.0
144
0.0
144
0.0208333333333333
144
0.0
144
0.0
144
0.0
144
0.0
144
1.0
144
0.0
144
0.0
144
0.0
144
0.0
144
1.0
147
0.0208333333333333
147
0.0
147
0.0
147
0.0
147
0.0
147
0.0208333333333333
147
0.0
147
0.0
147
0.0
147
0.0
147
1.0
147
0.0
147
0.0
147
0.0
147
0.0
147
1.0
  0
MATERIAL
  5
4FB0
102
{ACAD_XDICTIONARY
360
4FB1
102
}
102
{ACAD_REACTORS
330
4F9F
102
}
330
4F9F
100
AcDbMaterial
  1
Global
 72
     0
 43
0.0208333333333333
 43
0.0
 43
0.0
 43
0.0
 43
0.0
 43
0.0208333333333333
 43
0.0
 43
0.0
 43
0.0
 43
0.0
 43
1.0
 43
0.0
 43
0.0
 43
0.0
 43
0.0
 43
1.0
 77
     0
 47
0.0208333333333333
 47
0.0
 47
0.0
 47
0.0
 47
0.0
 47
0.0208333333333333
 47
0.0
 47
0.0
 47
0.0
 47
0.0
 47
1.0
 47
0.0
 47
0.0
 47
0.0
 47
0.0
 47
1.0
171
     0
 49
0.0208333333333333
 49
0.0
 49
0.0
 49
0.0
 49
0.0
 49
0.0208333333333333
 49
0.0
 49
0.0
 49
0.0
 49
0.0
 49
1.0
 49
0.0
 49
0.0
 49
0.0
 49
0.0
 49
1.0
175
     0
142
0.0208333333333333
142
0.0
142
0.0
142
0.0
142
0.0
142
0.0208333333333333
142
0.0
142
0.0
142
0.0
142
0.0
142
1.0
142
0.0
142
0.0
142
0.0
142
0.0
142
1.0
179
     0
144
0.0208333333333333
144
0.0
144
0.0
144
0.0
144
0.0
144
0.0208333333333333
144
0.0
144
0.0
144
0.0
144
0.0
144
1.0
144
0.0
144
0.0
144
0.0
144
0.0
144
1.0
147
0.0208333333333333
147
0.0
147
0.0
147
0.0
147
0.0
147
0.0208333333333333
147
0.0
147
0.0
147
0.0
147
0.0
147
1.0
147
0.0
147
0.0
147
0.0
147
0.0
147
1.0
  0
MLEADERSTYLE
  5
4FE7
102
{ACAD_XDICTIONARY
360
5138
102
}
102
{ACAD_REACTORS
330
4FE6
102
}
330
4FE6
100
AcDbMLeaderStyle
170
     2
171
     1
172
     0
 90
        2
 40
0.0
 41
0.0
173
     1
 91
-1056964608
340
12
 92
       -2
290
     1
 42
0.09
291
     1
 43
0.36
  3
Standard
 44
0.18
300

342
F
174
     1
178
     6
175
     1
176
     0
 93
-1056964608
 45
0.18
292
     0
297
     0
 46
0.18
 94
-1056964608
 47
1.0
 49
1.0
140
1.0
293
     1
141
0.0
294
     1
177
     0
142
1.0
295
     0
296
     0
143
0.125
1001
ACAD_MLEADERVER
1070
     2
  0
MLINESTYLE
  5
1C
102
{ACAD_REACTORS
330
1B
102
}
330
1B
100
AcDbMlineStyle
  2
STANDARD
 70
     0
  3

 62
   256
 51
90.0
 52
90.0
 71
     2
 49
0.5
 62
   256
  6
BYLAYER
 49
-0.5
 62
   256
  6
BYLAYER
  0
PLOTSETTINGS
  5
4320
102
{ACAD_REACTORS
330
5EA
102
}
330
5EA
100
AcDbPlotSettings
  1
kzform
  2
Brother HL-1250 series
  4
A4
  6

 40
6.720416545867919
 41
5.027085304260253
 42
6.889755249023437
 43
5.027069091796875
 44
209.9733276367187
 45
296.9259948730469
 46
0.0
 47
0.0
 48
0.0
 49
22.0
140
199.0
141
309.0
142
1.0
143
1.013428405888407
 70
  1712
 72
     1
 73
     0
 74
     4
  7
CORUS_Mono.ctb
 75
     0
147
0.9867495268433536
 76
     0
 77
     2
 78
   300
148
0.0
149
-22.0
  0
ACDBPLACEHOLDER
  5
5E8
102
{ACAD_REACTORS
330
5E7
102
}
330
5E7
  0
SCALE
  5
4FD5
102
{ACAD_REACTORS
330
4FD4
102
}
330
4FD4
100
AcDbScale
 70
     0
300
1:1
140
1.0
141
1.0
290
     1
  0
SCALE
  5
4FD6
102
{ACAD_REACTORS
330
4FD4
102
}
330
4FD4
100
AcDbScale
 70
     0
300
1/128" = 1'-0"
140
0.0078125
141
12.0
290
     0
  0
SCALE
  5
4FD7
102
{ACAD_REACTORS
330
4FD4
102
}
330
4FD4
100
AcDbScale
 70
     0
300
1/64" = 1'-0"
140
0.015625
141
12.0
290
     0
  0
SCALE
  5
4FD8
102
{ACAD_REACTORS
330
4FD4
102
}
330
4FD4
100
AcDbScale
 70
     0
300
1/32" = 1'-0"
140
0.03125
141
12.0
290
     0
  0
SCALE
  5
4FD9
102
{ACAD_REACTORS
330
4FD4
102
}
330
4FD4
100
AcDbScale
 70
     0
300
1/16" = 1'-0"
140
0.0625
141
12.0
290
     0
  0
SCALE
  5
4FDA
102
{ACAD_REACTORS
330
4FD4
102
}
330
4FD4
100
AcDbScale
 70
     0
300
3/32" = 1'-0"
140
0.09375
141
12.0
290
     0
  0
SCALE
  5
4FDB
102
{ACAD_REACTORS
330
4FD4
102
}
330
4FD4
100
AcDbScale
 70
     0
300
1/8" = 1'-0"
140
0.125
141
12.0
290
     0
  0
SCALE
  5
4FDC
102
{ACAD_REACTORS
330
4FD4
102
}
330
4FD4
100
AcDbScale
 70
     0
300
3/16" = 1'-0"
140
0.1875
141
12.0
290
     0
  0
SCALE
  5
4FDD
102
{ACAD_REACTORS
330
4FD4
102
}
330
4FD4
100
AcDbScale
 70
     0
300
1/4" = 1'-0"
140
0.25
141
12.0
290
     0
  0
SCALE
  5
4FDE
102
{ACAD_REACTORS
330
4FD4
102
}
330
4FD4
100
AcDbScale
 70
     0
300
3/8" = 1'-0"
140
0.375
141
12.0
290
     0
  0
SCALE
  5
4FDF
102
{ACAD_REACTORS
330
4FD4
102
}
330
4FD4
100
AcDbScale
 70
     0
300
1/2" = 1'-0"
140
0.5
141
12.0
290
     0
  0
SCALE
  5
4FE0
102
{ACAD_REACTORS
330
4FD4
102
}
330
4FD4
100
AcDbScale
 70
     0
300
3/4" = 1'-0"
140
0.75
141
12.0
290
     0
  0
SCALE
  5
4FE1
102
{ACAD_REACTORS
330
4FD4
102
}
330
4FD4
100
AcDbScale
 70
     0
300
1" = 1'-0"
140
1.0
141
12.0
290
     0
  0
SCALE
  5
4FE2
102
{ACAD_REACTORS
330
4FD4
102
}
330
4FD4
100
AcDbScale
 70
     0
300
1-1/2" = 1'-0"
140
1.5
141
12.0
290
     0
  0
SCALE
  5
4FE3
102
{ACAD_REACTORS
330
4FD4
102
}
330
4FD4
100
AcDbScale
 70
     0
300
3" = 1'-0"
140
3.0
141
12.0
290
     0
  0
SCALE
  5
4FE4
102
{ACAD_REACTORS
330
4FD4
102
}
330
4FD4
100
AcDbScale
 70
     0
300
6" = 1'-0"
140
6.0
141
12.0
290
     0
  0
SCALE
  5
4FE5
102
{ACAD_REACTORS
330
4FD4
102
}
330
4FD4
100
AcDbScale
 70
     0
300
1'-0" = 1'-0"
140
12.0
141
12.0
290
     0
  0
ACDBSECTIONVIEWSTYLE
  5
4FEA
102
{ACAD_REACTORS
330
4FE8
102
}
330
4FE8
100
AcDbModelDocViewStyle
 70
     0
  3
Imperial24
290
     0
100
AcDbSectionViewStyle
 70
     0
 71
     0
 90
       78
 71
     1
340
F
 62
   256
 40
0.24
340
0
340
0
 62
   256
 40
0.24
300
I, O, Q, S, X, Z
 40
0.48
 90
        3
 40
0.18
 90
        1
 71
     2
340
4FE9
 90
       25
 62
   256
340
14
 90
       50
 62
   256
 40
0.24
 40
0.0
 40
0.24
 71
     3
340
F
 62
   256
 40
0.24
 90
        1
 40
0.75
 90
        1
300
%<\AcVar ViewType \f "%tc1">% %<\AcVar ViewSectionStartId>%-%<\AcVar ViewSectionEndId>%\PMĚŘÍTKO %<\AcVar ViewScale \f "%sn">%
 71
     4
 62
   256
 62
   257
300
ANSI31
 40
1.0
 90
        0
290
     0
290
     0
 90
        6
 40
0.0
 40
1.570796326794896
 40
0.2617993877991494
 40
1.308996938995747
 40
-0.2617993877991494
 40
1.832595714594046
  0
TABLESTYLE
  5
4FD3
102
{ACAD_XDICTIONARY
360
50F8
102
}
102
{ACAD_REACTORS
330
4FD2
102
}
330
4FD2
100
AcDbTableStyle
  3
Standard
 70
     0
 71
     0
 40
0.06
 41
0.06
280
     0
281
     0
  7
STANDARD
140
0.18
170
     2
 62
     0
 63
     7
283
     0
274
    -2
284
     1
 64
     0
275
    -2
285
     1
 65
     0
276
    -2
286
     1
 66
     0
277
    -2
287
     1
 67
     0
278
    -2
288
     1
 68
     0
279
    -2
289
     1
 69
     0
  7
STANDARD
140
0.25
170
     5
 62
     0
 63
     7
283
     0
274
    -2
284
     1
 64
     0
275
    -2
285
     1
 65
     0
276
    -2
286
     1
 66
     0
277
    -2
287
     1
 67
     0
278
    -2
288
     1
 68
     0
279
    -2
289
     1
 69
     0
  7
STANDARD
140
0.18
170
     5
 62
     0
 63
     7
283
     0
274
    -2
284
     1
 64
     0
275
    -2
285
     1
 65
     0
276
    -2
286
     1
 66
     0
277
    -2
287
     1
 67
     0
278
    -2
288
     1
 68
     0
279
    -2
289
     1
 69
     0
  0
VISUALSTYLE
  5
4FBE
102
{ACAD_XDICTIONARY
360
5110
102
}
102
{ACAD_REACTORS
330
4FB8
102
}
330
4FB8
100
AcDbVisualStyle
  2
2dWireframe
 70
     4
 71
     0
 72
     2
 73
     0
 90
        0
 40
-0.6
 41
-30.0
 62
     5
 63
     7
421
 16777215
 74
     1
 91
        4
 64
     7
 65
   257
 75
     1
175
     1
 42
1.0
 92
        0
 66
   257
 43
1.0
 76
     1
 77
     6
 78
     2
 67
     7
 79
     5
170
     0
171
     0
290
     0
174
     0
 93
        1
 44
0.0
173
     0
291
     0
 45
0.0
1001
ACAD
1000
AcDbSavedByObjectVersion
1070
     0
  0
VISUALSTYLE
  5
4FBD
102
{ACAD_XDICTIONARY
360
510E
102
}
102
{ACAD_REACTORS
330
4FB8
102
}
330
4FB8
100
AcDbVisualStyle
  2
Basic
 70
     7
 71
     1
 72
     0
 73
     1
 90
        0
 40
-0.6
 41
-30.0
 62
     5
 63
     7
421
 16777215
 74
     0
 91
        4
 64
     7
 65
   257
 75
     1
175
     1
 42
1.0
 92
        8
 66
     7
 43
1.0
 76
     1
 77
     6
 78
     2
 67
     7
 79
     5
170
     0
171
     0
290
     0
174
     0
 93
        1
 44
0.0
173
     0
291
     1
 45
0.0
1001
ACAD
1000
AcDbSavedByObjectVersion
1070
     0
  0
VISUALSTYLE
  5
4FC4
102
{ACAD_XDICTIONARY
360
511C
102
}
102
{ACAD_REACTORS
330
4FB8
102
}
330
4FB8
100
AcDbVisualStyle
  2
Brighten
 70
    12
 71
     2
 72
     2
 73
     0
 90
        0
 40
-0.6
 41
-30.0
 62
     5
 63
     7
421
 16777215
 74
     1
 91
        4
 64
     7
 65
   257
 75
     1
175
     1
 42
1.0
 92
        8
 66
     7
 43
1.0
 76
     1
 77
     6
 78
     2
 67
     7
 79
     5
170
     0
171
     0
290
     0
174
     0
 93
        1
 44
50.0
173
     0
291
     1
 45
0.0
1001
ACAD
1000
AcDbSavedByObjectVersion
1070
     0
  0
VISUALSTYLE
  5
4FC8
102
{ACAD_XDICTIONARY
360
5124
102
}
102
{ACAD_REACTORS
330
4FB8
102
}
330
4FB8
100
AcDbVisualStyle
  2
ColorChange
 70
    16
 71
     2
 72
     2
 73
     3
 90
        0
 40
-0.6
 41
-30.0
 62
     5
 63
     8
421
  8421504
 74
     1
 91
        4
 64
     7
 65
   257
 75
     1
175
     1
 42
1.0
 92
        8
 66
     8
424
  8421504
 43
1.0
 76
     1
 77
     6
 78
     2
 67
     7
 79
     5
170
     0
171
     0
290
     0
174
     0
 93
        1
 44
0.0
173
     0
291
     1
 45
0.0
1001
ACAD
1000
AcDbSavedByObjectVersion
1070
     0
  0
VISUALSTYLE
  5
4FC1
102
{ACAD_XDICTIONARY
360
5116
102
}
102
{ACAD_REACTORS
330
4FB8
102
}
330
4FB8
100
AcDbVisualStyle
  2
Conceptual
 70
     9
 71
     3
 72
     2
 73
     0
 90
        0
 40
-0.6
 41
-30.0
 62
     5
 63
     7
421
 16777215
 74
     2
 91
        2
 64
     7
 65
   257
 75
     1
175
     1
 42
179.0
 92
        8
 66
     7
 43
1.0
 76
     1
 77
     6
 78
     2
 67
     7
 79
     3
170
     0
171
     0
290
     0
174
     0
 93
        1
 44
0.0
173
     0
291
     0
 45
0.0
1001
ACAD
1000
AcDbSavedByObjectVersion
1070
     0
  0
VISUALSTYLE
  5
4FC3
102
{ACAD_XDICTIONARY
360
511A
102
}
102
{ACAD_REACTORS
330
4FB8
102
}
330
4FB8
100
AcDbVisualStyle
  2
Dim
 70
    11
 71
     2
 72
     2
 73
     0
 90
        0
 40
-0.6
 41
-30.0
 62
     5
 63
     7
421
 16777215
 74
     1
 91
        4
 64
     7
 65
   257
 75
     1
175
     1
 42
1.0
 92
        8
 66
     7
 43
1.0
 76
     1
 77
     6
 78
     2
 67
     7
 79
     5
170
     0
171
     0
290
     0
174
     0
 93
        1
 44
-50.0
173
     0
291
     1
 45
0.0
1001
ACAD
1000
AcDbSavedByObjectVersion
1070
     0
  0
VISUALSTYLE
  5
4FD0
102
{ACAD_XDICTIONARY
360
5134
102
}
102
{ACAD_REACTORS
330
4FB8
102
}
330
4FB8
100
AcDbVisualStyle
  2
EdgeColorOff
 70
    22
 71
     2
 72
     2
 73
     0
 90
        0
 40
-0.6
 41
-30.0
 62
     5
 63
     7
421
 16777215
 74
     1
 91
        4
 64
     7
 65
   257
 75
     1
175
     1
 42
1.0
 92
        8
 66
     7
 43
1.0
 76
     1
 77
     6
 78
     2
 67
     7
 79
     5
170
     0
171
     0
290
     0
174
     0
 93
        1
 44
0.0
173
     0
291
     1
 45
0.0
1001
ACAD
1000
AcDbSavedByObjectVersion
1070
     0
  0
VISUALSTYLE
  5
4FC7
102
{ACAD_XDICTIONARY
360
5122
102
}
102
{ACAD_REACTORS
330
4FB8
102
}
330
4FB8
100
AcDbVisualStyle
  2
Facepattern
 70
    15
 71
     2
 72
     2
 73
     0
 90
        0
 40
-0.6
 41
-30.0
 62
     5
 63
     7
421
 16777215
 74
     1
 91
        4
 64
     7
 65
   257
 75
     1
175
     1
 42
1.0
 92
        8
 66
     7
 43
1.0
 76
     1
 77
     6
 78
     2
 67
     7
 79
     5
170
     0
171
     0
290
     0
174
     0
 93
        1
 44
0.0
173
     0
291
     1
 45
0.0
1001
ACAD
1000
AcDbSavedByObjectVersion
1070
     0
  0
VISUALSTYLE
  5
4FB9
102
{ACAD_XDICTIONARY
360
5106
102
}
102
{ACAD_REACTORS
330
4FB8
102
}
330
4FB8
100
AcDbVisualStyle
  2
Flat
 70
     0
 71
     2
 72
     1
 73
     1
 90
        2
 40
-0.6
 41
30.0
 62
     5
 63
     7
421
 16777215
 74
     0
 91
        0
 64
     7
 65
   257
 75
     1
175
     1
 42
1.0
 92
        8
 66
     7
 43
1.0
 76
     1
 77
     6
 78
     2
 67
     7
 79
     5
170
     0
171
     0
290
     0
174
     0
 93
       13
 44
0.0
173
     0
291
     1
 45
0.0
1001
ACAD
1000
AcDbSavedByObjectVersion
1070
     0
  0
VISUALSTYLE
  5
4FBA
102
{ACAD_XDICTIONARY
360
5108
102
}
102
{ACAD_REACTORS
330
4FB8
102
}
330
4FB8
100
AcDbVisualStyle
  2
FlatWithEdges
 70
     1
 71
     2
 72
     1
 73
     1
 90
        2
 40
-0.6
 41
30.0
 62
     5
 63
     7
421
 16777215
 74
     1
 91
        0
 64
     7
 65
   257
 75
     1
175
     1
 42
1.0
 92
        0
 66
   257
 43
1.0
 76
     1
 77
     6
 78
     2
 67
     7
 79
     5
170
     0
171
     0
290
     0
174
     0
 93
       13
 44
0.0
173
     0
291
     1
 45
0.0
1001
ACAD
1000
AcDbSavedByObjectVersion
1070
     0
  0
VISUALSTYLE
  5
4FBB
102
{ACAD_XDICTIONARY
360
510A
102
}
102
{ACAD_REACTORS
330
4FB8
102
}
330
4FB8
100
AcDbVisualStyle
  2
Gouraud
 70
     2
 71
     2
 72
     2
 73
     1
 90
        2
 40
-0.6
 41
30.0
 62
     5
 63
     7
421
 16777215
 74
     0
 91
        0
 64
     7
 65
   257
 75
     1
175
     1
 42
1.0
 92
        0
 66
     7
 43
1.0
 76
     1
 77
     6
 78
     2
 67
     7
 79
     5
170
     0
171
     0
290
     0
174
     0
 93
       13
 44
0.0
173
     0
291
     1
 45
0.0
1001
ACAD
1000
AcDbSavedByObjectVersion
1070
     0
  0
VISUALSTYLE
  5
4FBC
102
{ACAD_XDICTIONARY
360
510C
102
}
102
{ACAD_REACTORS
330
4FB8
102
}
330
4FB8
100
AcDbVisualStyle
  2
GouraudWithEdges
 70
     3
 71
     2
 72
     2
 73
     1
 90
        2
 40
-0.6
 41
30.0
 62
     5
 63
     7
421
 16777215
 74
     1
 91
        0
 64
     7
 65
   257
 75
     1
175
     1
 42
1.0
 92
        0
 66
   257
 43
1.0
 76
     1
 77
     6
 78
     2
 67
     7
 79
     5
170
     0
171
     0
290
     0
174
     0
 93
       13
 44
0.0
173
     0
291
     1
 45
0.0
1001
ACAD
1000
AcDbSavedByObjectVersion
1070
     0
  0
VISUALSTYLE
  5
4FC0
102
{ACAD_XDICTIONARY
360
5114
102
}
102
{ACAD_REACTORS
330
4FB8
102
}
330
4FB8
100
AcDbVisualStyle
  2
Hidden
 70
     6
 71
     1
 72
     2
 73
     2
 90
        0
 40
-0.6
 41
-30.0
 62
     5
 63
     7
421
 16777215
 74
     2
 91
        2
 64
     7
 65
   257
 75
     2
175
     1
 42
40.0
 92
        0
 66
   257
 43
1.0
 76
     1
 77
     6
 78
     2
 67
     7
 79
     3
170
     0
171
     0
290
     0
174
     0
 93
        1
 44
0.0
173
     0
291
     0
 45
0.0
1001
ACAD
1000
AcDbSavedByObjectVersion
1070
     0
  0
VISUALSTYLE
  5
4FCE
102
{ACAD_XDICTIONARY
360
5130
102
}
102
{ACAD_REACTORS
330
4FB8
102
}
330
4FB8
100
AcDbVisualStyle
  2
JitterOff
 70
    20
 71
     2
 72
     2
 73
     0
 90
        0
 40
-0.6
 41
-30.0
 62
     5
 63
     7
421
 16777215
 74
     1
 91
        4
 64
     7
 65
   257
 75
     1
175
     1
 42
1.0
 92
       10
 66
     7
 43
1.0
 76
     1
 77
     6
 78
     2
 67
     7
 79
     5
170
     0
171
     0
290
     0
174
     0
 93
        1
 44
0.0
173
     0
291
     1
 45
0.0
1001
ACAD
1000
AcDbSavedByObjectVersion
1070
     0
  0
VISUALSTYLE
  5
4FC6
102
{ACAD_XDICTIONARY
360
5120
102
}
102
{ACAD_REACTORS
330
4FB8
102
}
330
4FB8
100
AcDbVisualStyle
  2
Linepattern
 70
    14
 71
     2
 72
     2
 73
     0
 90
        0
 40
-0.6
 41
-30.0
 62
     5
 63
     7
421
 16777215
 74
     1
 91
        4
 64
     7
 65
   257
 75
     7
175
     7
 42
1.0
 92
        8
 66
     7
 43
1.0
 76
     1
 77
     6
 78
     2
 67
     7
 79
     5
170
     0
171
     0
290
     0
174
     0
 93
        1
 44
0.0
173
     0
291
     1
 45
0.0
1001
ACAD
1000
AcDbSavedByObjectVersion
1070
     0
  0
VISUALSTYLE
  5
4FCF
102
{ACAD_XDICTIONARY
360
5132
102
}
102
{ACAD_REACTORS
330
4FB8
102
}
330
4FB8
100
AcDbVisualStyle
  2
OverhangOff
 70
    21
 71
     2
 72
     2
 73
     0
 90
        0
 40
-0.6
 41
-30.0
 62
     5
 63
     7
421
 16777215
 74
     1
 91
        4
 64
     7
 65
   257
 75
     1
175
     1
 42
1.0
 92
        9
 66
     7
 43
1.0
 76
     1
 77
     6
 78
     2
 67
     7
 79
     5
170
     0
171
     0
290
     0
174
     0
 93
        1
 44
0.0
173
     0
291
     1
 45
0.0
1001
ACAD
1000
AcDbSavedByObjectVersion
1070
     0
  0
VISUALSTYLE
  5
4FC2
102
{ACAD_XDICTIONARY
360
5118
102
}
102
{ACAD_REACTORS
330
4FB8
102
}
330
4FB8
100
AcDbVisualStyle
  2
Realistic
 70
     8
 71
     2
 72
     3
 73
     0
 90
        2
 40
-0.6
 41
30.0
 62
     5
 63
     7
421
 16777215
 74
     0
 91
        0
 64
     7
 65
   257
 75
     1
175
     1
 42
1.0
 92
        8
 66
   257
 43
1.0
 76
     1
 77
     6
 78
     2
 67
     7
 79
     3
170
     0
171
     0
290
     0
174
     0
 93
       13
 44
0.0
173
     0
291
     0
 45
0.0
1001
ACAD
1000
AcDbSavedByObjectVersion
1070
     0
  0
VISUALSTYLE
  5
4FCD
102
{ACAD_XDICTIONARY
360
512E
102
}
102
{ACAD_REACTORS
330
4FB8
102
}
330
4FB8
100
AcDbVisualStyle
  2
Shaded
 70
    27
 71
     2
 72
     2
 73
     1
 90
        2
 40
-0.6
 41
30.0
 62
     5
 63
     7
421
 16777215
 74
     0
 91
        4
 64
     7
 65
   257
 75
     1
175
     1
 42
1.0
 92
        8
 66
   257
 43
1.0
 76
     1
 77
     6
 78
     2
 67
     8
425
  7895160
 79
     3
170
     0
171
     0
290
     0
174
     0
 93
        5
 44
0.0
173
     0
291
     0
 45
0.0
1001
ACAD
1000
AcDbSavedByObjectVersion
1070
     0
  0
VISUALSTYLE
  5
4FCC
102
{ACAD_XDICTIONARY
360
512C
102
}
102
{ACAD_REACTORS
330
4FB8
102
}
330
4FB8
100
AcDbVisualStyle
  2
Shaded with edges
 70
    26
 71
     2
 72
     2
 73
     1
 90
        2
 40
-0.6
 41
30.0
 62
     5
 63
     7
421
 16777215
 74
     1
 91
       10
 64
     7
 65
   257
 75
     2
175
     1
 42
1.0
 92
        8
 66
   257
 43
1.0
 76
     1
 77
     6
 78
     2
 67
     7
 79
     3
170
     0
171
     0
290
     0
174
     0
 93
        5
 44
0.0
173
     0
291
     0
 45
0.0
1001
ACAD
1000
AcDbSavedByObjectVersion
1070
     0
  0
VISUALSTYLE
  5
4FC9
102
{ACAD_XDICTIONARY
360
5126
102
}
102
{ACAD_REACTORS
330
4FB8
102
}
330
4FB8
100
AcDbVisualStyle
  2
Shades of Gray
 70
    23
 71
     2
 72
     2
 73
     3
 90
        0
 40
-0.6
 41
-30.0
 62
     5
 63
     7
421
 16777215
 74
     2
 91
        2
 64
     7
 65
     7
 75
     1
175
     1
 42
40.0
 92
        8
 66
     7
 43
1.0
 76
     1
 77
     6
 78
     2
 67
     7
 79
     3
170
     0
171
     0
290
     0
174
     0
 93
        1
 44
0.0
173
     0
291
     0
 45
0.0
1001
ACAD
1000
AcDbSavedByObjectVersion
1070
     0
  0
VISUALSTYLE
  5
4FCA
102
{ACAD_XDICTIONARY
360
5128
102
}
102
{ACAD_REACTORS
330
4FB8
102
}
330
4FB8
100
AcDbVisualStyle
  2
Sketchy
 70
    24
 71
     1
 72
     2
 73
     2
 90
        0
 40
-0.6
 41
-30.0
 62
     5
 63
     7
421
 16777215
 74
     2
 91
        2
 64
     7
 65
     7
 75
     1
175
     1
 42
40.0
 92
       11
 66
     7
 43
1.0
 76
     1
 77
     6
 78
     2
 67
     7
 79
     6
170
     0
171
     0
290
     0
174
     0
 93
        1
 44
0.0
173
     0
291
     0
 45
0.0
1001
ACAD
1000
AcDbSavedByObjectVersion
1070
     0
  0
VISUALSTYLE
  5
4FC5
102
{ACAD_XDICTIONARY
360
511E
102
}
102
{ACAD_REACTORS
330
4FB8
102
}
330
4FB8
100
AcDbVisualStyle
  2
Thicken
 70
    13
 71
     2
 72
     2
 73
     0
 90
        0
 40
-0.6
 41
-30.0
 62
     5
 63
     7
421
 16777215
 74
     1
 91
        4
 64
     7
 65
   257
 75
     1
175
     1
 42
1.0
 92
       12
 66
     7
 43
1.0
 76
     1
 77
     6
 78
     2
 67
     7
 79
     5
170
     0
171
     0
290
     0
174
     0
 93
        1
 44
0.0
173
     0
291
     1
 45
0.0
1001
ACAD
1000
AcDbSavedByObjectVersion
1070
     0
  0
VISUALSTYLE
  5
4FBF
102
{ACAD_XDICTIONARY
360
5112
102
}
102
{ACAD_REACTORS
330
4FB8
102
}
330
4FB8
100
AcDbVisualStyle
  2
Wireframe
 70
     5
 71
     0
 72
     2
 73
     0
 90
        0
 40
-0.6
 41
-30.0
 62
     5
 63
     7
421
 16777215
 74
     1
 91
        4
 64
     7
 65
   257
 75
     1
175
     1
 42
1.0
 92
        0
 66
   257
 43
1.0
 76
     1
 77
     6
 78
     2
 67
     7
 79
     3
170
     0
171
     0
290
     0
174
     0
 93
        1
 44
0.0
173
     0
291
     0
 45
0.0
1001
ACAD
1000
AcDbSavedByObjectVersion
1070
     0
  0
VISUALSTYLE
  5
4FCB
102
{ACAD_XDICTIONARY
360
512A
102
}
102
{ACAD_REACTORS
330
4FB8
102
}
330
4FB8
100
AcDbVisualStyle
  2
X-Ray
 70
    25
 71
     2
 72
     2
 73
     1
 90
        1
 40
0.5
 41
-30.0
 62
     5
 63
     7
421
 16777215
 74
     1
 91
        0
 64
     7
 65
   257
 75
     1
175
     1
 42
1.0
 92
        8
 66
     7
 43
1.0
 76
     1
 77
     6
 78
     2
 67
     7
 79
     3
170
     0
171
     0
290
     0
174
     0
 93
       13
 44
0.0
173
     0
291
     0
 45
0.0
1001
ACAD
1000
AcDbSavedByObjectVersion
1070
     0
  0
DICTIONARYVAR
  5
5076
102
{ACAD_REACTORS
330
7F0
102
}
330
7F0
100
DictionaryVariables
280
     0
  1
1:1
  0
DICTIONARYVAR
  5
5072
102
{ACAD_REACTORS
330
7F0
102
}
330
7F0
100
DictionaryVariables
280
     0
  1
STANDARD
  0
DICTIONARYVAR
  5
5071
102
{ACAD_REACTORS
330
7F0
102
}
330
7F0
100
DictionaryVariables
280
     0
  1
STANDARD
  0
DICTIONARYVAR
  5
5073
102
{ACAD_REACTORS
330
7F0
102
}
330
7F0
100
DictionaryVariables
280
     0
  1
Imperial24
  0
DICTIONARYVAR
  5
5074
102
{ACAD_REACTORS
330
7F0
102
}
330
7F0
100
DictionaryVariables
280
     0
  1
Imperial24
  0
DICTIONARYVAR
  5
2466
102
{ACAD_REACTORS
330
7F0
102
}
330
7F0
100
DictionaryVariables
280
     0
  1
1
  0
DICTIONARYVAR
  5
5078
102
{ACAD_REACTORS
330
7F0
102
}
330
7F0
100
DictionaryVariables
280
     0
  1
1
  0
DICTIONARYVAR
  5
5079
102
{ACAD_REACTORS
330
7F0
102
}
330
7F0
100
DictionaryVariables
280
     0
  1
15
  0
DICTIONARYVAR
  5
5077
102
{ACAD_REACTORS
330
7F0
102
}
330
7F0
100
DictionaryVariables
280
     0
  1
0
  0
DICTIONARYVAR
  5
5075
102
{ACAD_REACTORS
330
7F0
102
}
330
7F0
100
DictionaryVariables
280
     0
  1
0
  0
DICTIONARYVAR
  5
7F1
102
{ACAD_REACTORS
330
7F0
102
}
330
7F0
100
DictionaryVariables
280
     0
  1
96
  0
DICTIONARYVAR
  5
50F7
102
{ACAD_REACTORS
330
7F0
102
}
330
7F0
100
DictionaryVariables
280
     0
  1
2
  0
DICTIONARY
  5
5102
102
{ACAD_REACTORS
330
5100
102
}
330
5100
100
AcDbDictionary
281
     1
  0
DICTIONARY
  5
5101
102
{ACAD_REACTORS
330
5100
102
}
330
5100
100
AcDbDictionary
281
     1
  3
140695673864496
350
50FB
  3
140695673864512
350
50FC
  3
140695673864528
350
50FD
  3
140695673864544
350
50FE
  3
140695673864560
350
50FF
  0
DICTIONARY
  5
4FA9
330
4FA8
100
AcDbDictionary
280
     1
281
     1
  3
ACAD_XREC_ROUNDTRIP
360
5104
  3
BUMPTILE
360
4FAB
  3
DIFFUSETILE
360
4FAA
  3
OPACITYTILE
360
4FAE
  3
REFLECTIONTILE
360
4FAD
  3
REFRACTIONTILE
360
4FAF
  3
SPECULARTILE
360
4FAC
  0
DICTIONARY
  5
4FA1
330
4FA0
100
AcDbDictionary
280
     1
281
     1
  3
ACAD_XREC_ROUNDTRIP
360
5103
  3
BUMPTILE
360
4FA3
  3
DIFFUSETILE
360
4FA2
  3
OPACITYTILE
360
4FA6
  3
REFLECTIONTILE
360
4FA5
  3
REFRACTIONTILE
360
4FA7
  3
SPECULARTILE
360
4FA4
  0
DICTIONARY
  5
4FB1
330
4FB0
100
AcDbDictionary
280
     1
281
     1
  3
ACAD_XREC_ROUNDTRIP
360
5105
  3
BUMPTILE
360
4FB3
  3
DIFFUSETILE
360
4FB2
  3
OPACITYTILE
360
4FB6
  3
REFLECTIONTILE
360
4FB5
  3
REFRACTIONTILE
360
4FB7
  3
SPECULARTILE
360
4FB4
  0
DICTIONARY
  5
5138
330
4FE7
100
AcDbDictionary
280
     1
281
     1
  3
ACAD_XREC_ROUNDTRIP
360
5139
  0
DICTIONARY
  5
50F8
330
4FD3
100
AcDbDictionary
280
     1
281
     1
  3
ACAD_ROUNDTRIP_2008_TABLESTYLE_CELLSTYLEMAP
360
50F9
  3
ACAD_XREC_ROUNDTRIP
360
5136
  0
DICTIONARY
  5
5110
330
4FBE
100
AcDbDictionary
280
     1
281
     1
  3
ACAD_XREC_ROUNDTRIP
360
5111
  0
DICTIONARY
  5
510E
330
4FBD
100
AcDbDictionary
280
     1
281
     1
  3
ACAD_XREC_ROUNDTRIP
360
510F
  0
DICTIONARY
  5
511C
330
4FC4
100
AcDbDictionary
280
     1
281
     1
  3
ACAD_XREC_ROUNDTRIP
360
511D
  0
DICTIONARY
  5
5124
330
4FC8
100
AcDbDictionary
280
     1
281
     1
  3
ACAD_XREC_ROUNDTRIP
360
5125
  0
DICTIONARY
  5
5116
330
4FC1
100
AcDbDictionary
280
     1
281
     1
  3
ACAD_XREC_ROUNDTRIP
360
5117
  0
DICTIONARY
  5
511A
330
4FC3
100
AcDbDictionary
280
     1
281
     1
  3
ACAD_XREC_ROUNDTRIP
360
511B
  0
DICTIONARY
  5
5134
330
4FD0
100
AcDbDictionary
280
     1
281
     1
  3
ACAD_XREC_ROUNDTRIP
360
5135
  0
DICTIONARY
  5
5122
330
4FC7
100
AcDbDictionary
280
     1
281
     1
  3
ACAD_XREC_ROUNDTRIP
360
5123
  0
DICTIONARY
  5
5106
330
4FB9
100
AcDbDictionary
280
     1
281
     1
  3
ACAD_XREC_ROUNDTRIP
360
5107
  0
DICTIONARY
  5
5108
330
4FBA
100
AcDbDictionary
280
     1
281
     1
  3
ACAD_XREC_ROUNDTRIP
360
5109
  0
DICTIONARY
  5
510A
330
4FBB
100
AcDbDictionary
280
     1
281
     1
  3
ACAD_XREC_ROUNDTRIP
360
510B
  0
DICTIONARY
  5
510C
330
4FBC
100
AcDbDictionary
280
     1
281
     1
  3
ACAD_XREC_ROUNDTRIP
360
510D
  0
DICTIONARY
  5
5114
330
4FC0
100
AcDbDictionary
280
     1
281
     1
  3
ACAD_XREC_ROUNDTRIP
360
5115
  0
DICTIONARY
  5
5130
330
4FCE
100
AcDbDictionary
280
     1
281
     1
  3
ACAD_XREC_ROUNDTRIP
360
5131
  0
DICTIONARY
  5
5120
330
4FC6
100
AcDbDictionary
280
     1
281
     1
  3
ACAD_XREC_ROUNDTRIP
360
5121
  0
DICTIONARY
  5
5132
330
4FCF
100
AcDbDictionary
280
     1
281
     1
  3
ACAD_XREC_ROUNDTRIP
360
5133
  0
DICTIONARY
  5
5118
330
4FC2
100
AcDbDictionary
280
     1
281
     1
  3
ACAD_XREC_ROUNDTRIP
360
5119
  0
DICTIONARY
  5
512E
330
4FCD
100
AcDbDictionary
280
     1
281
     1
  3
ACAD_XREC_ROUNDTRIP
360
512F
  0
DICTIONARY
  5
512C
330
4FCC
100
AcDbDictionary
280
     1
281
     1
  3
ACAD_XREC_ROUNDTRIP
360
512D
  0
DICTIONARY
  5
5126
330
4FC9
100
AcDbDictionary
280
     1
281
     1
  3
ACAD_XREC_ROUNDTRIP
360
5127
  0
DICTIONARY
  5
5128
330
4FCA
100
AcDbDictionary
280
     1
281
     1
  3
ACAD_XREC_ROUNDTRIP
360
5129
  0
DICTIONARY
  5
511E
330
4FC5
100
AcDbDictionary
280
     1
281
     1
  3
ACAD_XREC_ROUNDTRIP
360
511F
  0
DICTIONARY
  5
5112
330
4FBF
100
AcDbDictionary
280
     1
281
     1
  3
ACAD_XREC_ROUNDTRIP
360
5113
  0
DICTIONARY
  5
512A
330
4FCB
100
AcDbDictionary
280
     1
281
     1
  3
ACAD_XREC_ROUNDTRIP
360
512B
  0
XRECORD
  5
50FB
102
{ACAD_REACTORS
330
5101
102
}
330
5101
100
AcDbXrecord
280
     1
  1
AcDb_Thumbnail_Schema
102
{ATTRRECORD
341
50FC
  2
AcDbDs::TreatedAsObjectData
280
     1
291
     1
102
ATTRRECORD}
102
{ATTRRECORD
341
50FD
  2
AcDbDs::Legacy
280
     1
291
     1
102
ATTRRECORD}
  2
AcDbDs::ID
280
    10
 91
        8
102
{ATTRRECORD
341
50FE
  2
AcDs:Indexable
280
     1
291
     1
102
ATTRRECORD}
102
{ATTRRECORD
341
50FF
  2
AcDbDs::HandleAttribute
280
     7
282
     1
102
ATTRRECORD}
  2
Thumbnail_Data
280
    15
 91
        0
  0
XRECORD
  5
50FC
102
{ACAD_REACTORS
330
5101
102
}
330
5101
100
AcDbXrecord
280
     1
  1
AcDbDs::TreatedAsObjectDataSchema
  2
AcDbDs::TreatedAsObjectData
280
     1
 91
        0
  0
XRECORD
  5
50FD
102
{ACAD_REACTORS
330
5101
102
}
330
5101
100
AcDbXrecord
280
     1
  1
AcDbDs::LegacySchema
  2
AcDbDs::Legacy
280
     1
 91
        0
  0
XRECORD
  5
50FE
102
{ACAD_REACTORS
330
5101
102
}
330
5101
100
AcDbXrecord
280
     1
  1
AcDbDs::IndexedPropertySchema
  2
AcDs:Indexable
280
     1
 91
        0
  0
XRECORD
  5
50FF
102
{ACAD_REACTORS
330
5101
102
}
330
5101
100
AcDbXrecord
280
     1
  1
AcDbDs::HandleAttributeSchema
  2
AcDbDs::HandleAttribute
280
     7
 91
        1
284
     1
  0
XRECORD
  5
5104
102
{ACAD_REACTORS
330
4FA9
102
}
330
4FA9
100
AcDbXrecord
280
     1
102
MATERIAL
148
0.0
149
0.0
149
0.0
 93
        0
 94
      127
282
     0
 72
     0
 77
     0
171
     0
175
     0
179
     0
273
     0
  0
XRECORD
  5
4FAB
102
{ACAD_REACTORS
330
4FA9
102
}
330
4FA9
100
AcDbXrecord
280
     1
270
     1
271
     1
  0
XRECORD
  5
4FAA
102
{ACAD_REACTORS
330
4FA9
102
}
330
4FA9
100
AcDbXrecord
280
     1
270
     1
271
     1
  0
XRECORD
  5
4FAE
102
{ACAD_REACTORS
330
4FA9
102
}
330
4FA9
100
AcDbXrecord
280
     1
270
     1
271
     1
  0
XRECORD
  5
4FAD
102
{ACAD_REACTORS
330
4FA9
102
}
330
4FA9
100
AcDbXrecord
280
     1
270
     1
271
     1
  0
XRECORD
  5
4FAF
102
{ACAD_REACTORS
330
4FA9
102
}
330
4FA9
100
AcDbXrecord
280
     1
270
     1
271
     1
  0
XRECORD
  5
4FAC
102
{ACAD_REACTORS
330
4FA9
102
}
330
4FA9
100
AcDbXrecord
280
     1
270
     1
271
     1
  0
XRECORD
  5
5103
102
{ACAD_REACTORS
330
4FA1
102
}
330
4FA1
100
AcDbXrecord
280
     1
102
MATERIAL
148
0.0
149
0.0
149
0.0
 93
        0
 94
      127
282
     0
 72
     0
 77
     0
171
     0
175
     0
179
     0
273
     0
  0
XRECORD
  5
4FA3
102
{ACAD_REACTORS
330
4FA1
102
}
330
4FA1
100
AcDbXrecord
280
     1
270
     1
271
     1
  0
XRECORD
  5
4FA2
102
{ACAD_REACTORS
330
4FA1
102
}
330
4FA1
100
AcDbXrecord
280
     1
270
     1
271
     1
  0
XRECORD
  5
4FA6
102
{ACAD_REACTORS
330
4FA1
102
}
330
4FA1
100
AcDbXrecord
280
     1
270
     1
271
     1
  0
XRECORD
  5
4FA5
102
{ACAD_REACTORS
330
4FA1
102
}
330
4FA1
100
AcDbXrecord
280
     1
270
     1
271
     1
  0
XRECORD
  5
4FA7
102
{ACAD_REACTORS
330
4FA1
102
}
330
4FA1
100
AcDbXrecord
280
     1
270
     1
271
     1
  0
XRECORD
  5
4FA4
102
{ACAD_REACTORS
330
4FA1
102
}
330
4FA1
100
AcDbXrecord
280
     1
270
     1
271
     1
  0
XRECORD
  5
5105
102
{ACAD_REACTORS
330
4FB1
102
}
330
4FB1
100
AcDbXrecord
280
     1
102
MATERIAL
148
0.0
149
0.0
149
0.0
 93
        0
 94
      127
282
     0
 72
     0
 77
     0
171
     0
175
     0
179
     0
273
     0
  0
XRECORD
  5
4FB3
102
{ACAD_REACTORS
330
4FB1
102
}
330
4FB1
100
AcDbXrecord
280
     1
270
     1
271
     1
  0
XRECORD
  5
4FB2
102
{ACAD_REACTORS
330
4FB1
102
}
330
4FB1
100
AcDbXrecord
280
     1
270
     1
271
     1
  0
XRECORD
  5
4FB6
102
{ACAD_REACTORS
330
4FB1
102
}
330
4FB1
100
AcDbXrecord
280
     1
270
     1
271
     1
  0
XRECORD
  5
4FB5
102
{ACAD_REACTORS
330
4FB1
102
}
330
4FB1
100
AcDbXrecord
280
     1
270
     1
271
     1
  0
XRECORD
  5
4FB7
102
{ACAD_REACTORS
330
4FB1
102
}
330
4FB1
100
AcDbXrecord
280
     1
270
     1
271
     1
  0
XRECORD
  5
4FB4
102
{ACAD_REACTORS
330
4FB1
102
}
330
4FB1
100
AcDbXrecord
280
     1
270
     1
271
     1
  0
XRECORD
  5
5139
102
{ACAD_REACTORS
330
5138
102
}
330
5138
100
AcDbXrecord
280
     1
102
ACAD_ROUNDTRIP_2012_MLEADER_STYLE
298
     1
  0
CELLSTYLEMAP
  5
50F9
102
{ACAD_REACTORS
330
50F8
102
}
330
50F8
100
AcDbCellStyleMap
 90
        3
300
CELLSTYLE
  1
TABLEFORMAT_BEGIN
 90
        5
170
     1
 91
        0
 92
    32768
 62
   257
 93
        1
300
CONTENTFORMAT
  1
CONTENTFORMAT_BEGIN
 90
        0
 91
        0
 92
      512
 93
        0
300

 40
0.0
140
1.0
 94
        5
 62
     0
340
F
144
0.25
309
CONTENTFORMAT_END
171
     0
 94
        0
309
TABLEFORMAT_END
  1
CELLSTYLE_BEGIN
 90
        1
 91
        1
300
_TITLE
309
CELLSTYLE_END
300
CELLSTYLE
  1
TABLEFORMAT_BEGIN
 90
        5
170
     1
 91
        0
 92
        0
 62
   257
 93
        1
300
CONTENTFORMAT
  1
CONTENTFORMAT_BEGIN
 90
        0
 91
        0
 92
      512
 93
        0
300

 40
0.0
140
1.0
 94
        5
 62
     0
340
F
144
0.18
309
CONTENTFORMAT_END
171
     0
 94
        0
309
TABLEFORMAT_END
  1
CELLSTYLE_BEGIN
 90
        2
 91
        1
300
_HEADER
309
CELLSTYLE_END
300
CELLSTYLE
  1
TABLEFORMAT_BEGIN
 90
        5
170
     1
 91
        0
 92
        0
 62
   257
 93
        1
300
CONTENTFORMAT
  1
CONTENTFORMAT_BEGIN
 90
        0
 91
        0
 92
      512
 93
        0
300

 40
0.0
140
1.0
 94
        2
 62
     0
340
F
144
0.18
309
CONTENTFORMAT_END
171
     0
 94
        0
309
TABLEFORMAT_END
  1
CELLSTYLE_BEGIN
 90
        3
 91
        2
300
_DATA
309
CELLSTYLE_END
  0
XRECORD
  5
5136
102
{ACAD_REACTORS
330
50F8
102
}
330
50F8
100
AcDbXrecord
280
     1
102
ACAD_ROUNDTRIP_PRE2007_TABLESTYLE
 90
      512
 91
        0
  1

 92
      512
 93
        0
  2

 94
      512
 95
        0
  3

  0
XRECORD
  5
5111
102
{ACAD_REACTORS
330
5110
102
}
330
5110
100
AcDbXrecord
280
     1
102
RTVSPost2010Prop28
280
     1
102
RTVSPost2010PropOp28
 70
     1
102
RTVSPost2010Prop29
280
     1
102
RTVSPost2010PropOp29
 70
     1
102
RTVSPost2010Prop30
280
     0
102
RTVSPost2010PropOp30
 70
     1
102
RTVSPost2010Prop31
280
     0
102
RTVSPost2010PropOp31
 70
     1
102
RTVSPost2010Prop32
280
     0
102
RTVSPost2010PropOp32
 70
     1
102
RTVSPost2010Prop33
280
     0
102
RTVSPost2010PropOp33
 70
     1
102
RTVSPost2010Prop34
280
     0
102
RTVSPost2010PropOp34
 70
     1
102
RTVSPost2010Prop35
280
     0
102
RTVSPost2010PropOp35
 70
     1
102
RTVSPost2010Prop36
280
     0
102
RTVSPost2010PropOp36
 70
     1
102
RTVSPost2010Prop37
 90
       50
102
RTVSPost2010PropOp37
 70
     1
102
RTVSPost2010Prop38
140
0.0
102
RTVSPost2010PropOp38
 70
     1
102
RTVSPost2010Prop39
140
1.0
102
RTVSPost2010PropOp39
 70
     1
102
RTVSPost2010Prop40
 90
        0
102
RTVSPost2010PropOp40
 70
     1
102
RTVSPost2010Prop41ColorIndex
 90
       18
102
RTVSPost2010Prop41ColorRGB
 90
        0
102
RTVSPost2010PropOp41
 70
     1
102
RTVSPost2010Prop42
 90
       50
102
RTVSPost2010PropOp42
 70
     1
102
RTVSPost2010Prop43
 90
        3
102
RTVSPost2010PropOp43
 70
     1
102
RTVSPost2010Prop44ColorIndex
 90
        5
102
RTVSPost2010Prop44ColorRGB
 90
      255
102
RTVSPost2010PropOp44
 70
     1
102
RTVSPost2010Prop45
280
     0
102
RTVSPost2010PropOp45
 70
     1
102
RTVSPost2010Prop46
 90
       50
102
RTVSPost2010PropOp46
 70
     1
102
RTVSPost2010Prop47
 90
       50
102
RTVSPost2010PropOp47
 70
     1
102
RTVSPost2010Prop48
 90
       50
102
RTVSPost2010PropOp48
 70
     1
102
RTVSPost2010Prop49
280
     0
102
RTVSPost2010PropOp49
 70
     1
102
RTVSPost2010Prop50
 90
       50
102
RTVSPost2010PropOp50
 70
     1
102
RTVSPost2010Prop51ColorIndex
 90
      256
102
RTVSPost2010Prop51ColorRGB
 90
-16777216
102
RTVSPost2010PropOp51
 70
     0
102
RTVSPost2010Prop52
140
1.0
102
RTVSPost2010PropOp52
 70
     0
102
RTVSPost2010Prop53
 90
        2
102
RTVSPost2010PropOp53
 70
     1
102
RTVSPost2010Prop54
  1
strokes_ogs.tif
102
RTVSPost2010PropOp54
 70
     1
102
RTVSPost2010Prop55
280
     0
102
RTVSPost2010PropOp55
 70
     1
102
RTVSPost2010Prop56
140
1.0
102
RTVSPost2010PropOp56
 70
     1
102
RTVSPost2010Prop57
140
1.0
102
RTVSPost2010PropOp57
 70
     1
102
RTVSPropertyOp0
 70
     1
102
RTVSPropertyOp1
 70
     1
102
RTVSPropertyOp2
 70
     1
102
RTVSPropertyOp3
 70
     1
102
RTVSPropertyOp4
 70
     1
102
RTVSPropertyOp5
 70
     1
102
RTVSPropertyOp6
 70
     1
102
RTVSPropertyOp7
 70
     1
102
RTVSPropertyOp8
 70
     1
102
RTVSPropertyOp9
 70
     1
102
RTVSPropertyOp10
 70
     1
102
RTVSPropertyOp11
 70
     1
102
RTVSPropertyOp12
 70
     1
102
RTVSPropertyOp13
 70
     1
102
RTVSPropertyOp14
 70
     1
102
RTVSPropertyOp15
 70
     1
102
RTVSPropertyOp16
 70
     1
102
RTVSPropertyOp17
 70
     1
102
RTVSPropertyOp18
 70
     1
102
RTVSPropertyOp19
 70
     1
102
RTVSPropertyOp20
 70
     1
102
RTVSPropertyOp21
 70
     1
102
RTVSPropertyOp22
 70
     1
102
RTVSPropertyOp23
 70
     1
102
RTVSPropertyOp24
 70
     1
102
RTVSPropertyOp25
 70
     1
102
RTVSPropertyOp26
 70
     1
102
RTVSPropertyOp27
 70
     1
102
RTVSPropertyOp28
 70
     1
102
RTVSPropertyOp29
 70
     1
102
RTVSPropertyOp30
 70
     1
102
RTVSPropertyOp31
 70
     1
102
RTVSPropertyOp32
 70
     1
102
RTVSPropertyOp33
 70
     1
102
RTVSPropertyOp34
 70
     1
102
RTVSPropertyOp35
 70
     1
102
RTVSPropertyOp36
 70
     1
102
RTVSPropertyOp37
 70
     1
102
RTVSPropertyOp38
 70
     1
102
RTVSPropertyOp39
 70
     1
102
RTVSPropertyOp40
 70
     1
102
RTVSPropertyOp41
 70
     1
102
RTVSPropertyOp42
 70
     1
102
RTVSPropertyOp43
 70
     1
102
RTVSPropertyOp44
 70
     1
102
RTVSPropertyOp45
 70
     1
102
RTVSPropertyOp46
 70
     1
102
RTVSPropertyOp47
 70
     1
102
RTVSPropertyOp48
 70
     1
102
RTVSPropertyOp49
 70
     1
102
RTVSPropertyOp50
 70
     1
102
RTVSPropertyOp51
 70
     0
102
RTVSPropertyOp52
 70
     0
102
RTVSPropertyOp53
 70
     1
102
RTVSPropertyOp54
 70
     1
102
RTVSPropertyOp55
 70
     1
102
RTVSPropertyOp56
 70
     1
102
RTVSPropertyOp57
 70
     1
102
RTVSPropertyOp58
 70
     1
102
RTVSPropertyOp59
 70
     1
102
RTVSPropertyOp60
 70
     1
102
RTVSPropertyOp61
 70
     1
102
RTVSPropertyOp62
 70
     1
  0
XRECORD
  5
510F
102
{ACAD_REACTORS
330
510E
102
}
330
510E
100
AcDbXrecord
280
     1
102
RTVSPost2010Prop28
280
     0
102
RTVSPost2010PropOp28
 70
     1
102
RTVSPost2010Prop29
280
     1
102
RTVSPost2010PropOp29
 70
     1
102
RTVSPost2010Prop30
280
     1
102
RTVSPost2010PropOp30
 70
     1
102
RTVSPost2010Prop31
280
     0
102
RTVSPost2010PropOp31
 70
     1
102
RTVSPost2010Prop32
280
     0
102
RTVSPost2010PropOp32
 70
     1
102
RTVSPost2010Prop33
280
     0
102
RTVSPost2010PropOp33
 70
     1
102
RTVSPost2010Prop34
280
     0
102
RTVSPost2010PropOp34
 70
     1
102
RTVSPost2010Prop35
280
     0
102
RTVSPost2010PropOp35
 70
     1
102
RTVSPost2010Prop36
280
     0
102
RTVSPost2010PropOp36
 70
     1
102
RTVSPost2010Prop37
 90
       50
102
RTVSPost2010PropOp37
 70
     1
102
RTVSPost2010Prop38
140
0.0
102
RTVSPost2010PropOp38
 70
     1
102
RTVSPost2010Prop39
140
1.0
102
RTVSPost2010PropOp39
 70
     1
102
RTVSPost2010Prop40
 90
        0
102
RTVSPost2010PropOp40
 70
     1
102
RTVSPost2010Prop41ColorIndex
 90
       18
102
RTVSPost2010Prop41ColorRGB
 90
        0
102
RTVSPost2010PropOp41
 70
     1
102
RTVSPost2010Prop42
 90
       50
102
RTVSPost2010PropOp42
 70
     1
102
RTVSPost2010Prop43
 90
        3
102
RTVSPost2010PropOp43
 70
     1
102
RTVSPost2010Prop44ColorIndex
 90
        5
102
RTVSPost2010Prop44ColorRGB
 90
      255
102
RTVSPost2010PropOp44
 70
     1
102
RTVSPost2010Prop45
280
     0
102
RTVSPost2010PropOp45
 70
     1
102
RTVSPost2010Prop46
 90
       50
102
RTVSPost2010PropOp46
 70
     1
102
RTVSPost2010Prop47
 90
       50
102
RTVSPost2010PropOp47
 70
     1
102
RTVSPost2010Prop48
 90
       50
102
RTVSPost2010PropOp48
 70
     1
102
RTVSPost2010Prop49
280
     0
102
RTVSPost2010PropOp49
 70
     1
102
RTVSPost2010Prop50
 90
       50
102
RTVSPost2010PropOp50
 70
     1
102
RTVSPost2010Prop51ColorIndex
 90
      256
102
RTVSPost2010Prop51ColorRGB
 90
-16777216
102
RTVSPost2010PropOp51
 70
     0
102
RTVSPost2010Prop52
140
1.0
102
RTVSPost2010PropOp52
 70
     0
102
RTVSPost2010Prop53
 90
        2
102
RTVSPost2010PropOp53
 70
     1
102
RTVSPost2010Prop54
  1
strokes_ogs.tif
102
RTVSPost2010PropOp54
 70
     1
102
RTVSPost2010Prop55
280
     0
102
RTVSPost2010PropOp55
 70
     1
102
RTVSPost2010Prop56
140
1.0
102
RTVSPost2010PropOp56
 70
     1
102
RTVSPost2010Prop57
140
1.0
102
RTVSPost2010PropOp57
 70
     1
102
RTVSPropertyOp0
 70
     1
102
RTVSPropertyOp1
 70
     1
102
RTVSPropertyOp2
 70
     1
102
RTVSPropertyOp3
 70
     1
102
RTVSPropertyOp4
 70
     1
102
RTVSPropertyOp5
 70
     1
102
RTVSPropertyOp6
 70
     1
102
RTVSPropertyOp7
 70
     1
102
RTVSPropertyOp8
 70
     1
102
RTVSPropertyOp9
 70
     1
102
RTVSPropertyOp10
 70
     1
102
RTVSPropertyOp11
 70
     1
102
RTVSPropertyOp12
 70
     1
102
RTVSPropertyOp13
 70
     1
102
RTVSPropertyOp14
 70
     1
102
RTVSPropertyOp15
 70
     1
102
RTVSPropertyOp16
 70
     1
102
RTVSPropertyOp17
 70
     1
102
RTVSPropertyOp18
 70
     1
102
RTVSPropertyOp19
 70
     1
102
RTVSPropertyOp20
 70
     1
102
RTVSPropertyOp21
 70
     1
102
RTVSPropertyOp22
 70
     1
102
RTVSPropertyOp23
 70
     1
102
RTVSPropertyOp24
 70
     1
102
RTVSPropertyOp25
 70
     1
102
RTVSPropertyOp26
 70
     1
102
RTVSPropertyOp27
 70
     1
102
RTVSPropertyOp28
 70
     1
102
RTVSPropertyOp29
 70
     1
102
RTVSPropertyOp30
 70
     1
102
RTVSPropertyOp31
 70
     1
102
RTVSPropertyOp32
 70
     1
102
RTVSPropertyOp33
 70
     1
102
RTVSPropertyOp34
 70
     1
102
RTVSPropertyOp35
 70
     1
102
RTVSPropertyOp36
 70
     1
102
RTVSPropertyOp37
 70
     1
102
RTVSPropertyOp38
 70
     1
102
RTVSPropertyOp39
 70
     1
102
RTVSPropertyOp40
 70
     1
102
RTVSPropertyOp41
 70
     1
102
RTVSPropertyOp42
 70
     1
102
RTVSPropertyOp43
 70
     1
102
RTVSPropertyOp44
 70
     1
102
RTVSPropertyOp45
 70
     1
102
RTVSPropertyOp46
 70
     1
102
RTVSPropertyOp47
 70
     1
102
RTVSPropertyOp48
 70
     1
102
RTVSPropertyOp49
 70
     1
102
RTVSPropertyOp50
 70
     1
102
RTVSPropertyOp51
 70
     0
102
RTVSPropertyOp52
 70
     0
102
RTVSPropertyOp53
 70
     1
102
RTVSPropertyOp54
 70
     1
102
RTVSPropertyOp55
 70
     1
102
RTVSPropertyOp56
 70
     1
102
RTVSPropertyOp57
 70
     1
102
RTVSPropertyOp58
 70
     1
102
RTVSPropertyOp59
 70
     1
102
RTVSPropertyOp60
 70
     1
102
RTVSPropertyOp61
 70
     1
102
RTVSPropertyOp62
 70
     1
  0
XRECORD
  5
511D
102
{ACAD_REACTORS
330
511C
102
}
330
511C
100
AcDbXrecord
280
     1
102
RTVSPost2010Prop28
280
     0
102
RTVSPost2010PropOp28
 70
     1
102
RTVSPost2010Prop29
280
     1
102
RTVSPost2010PropOp29
 70
     1
102
RTVSPost2010Prop30
280
     1
102
RTVSPost2010PropOp30
 70
     1
102
RTVSPost2010Prop31
280
     0
102
RTVSPost2010PropOp31
 70
     1
102
RTVSPost2010Prop32
280
     0
102
RTVSPost2010PropOp32
 70
     1
102
RTVSPost2010Prop33
280
     0
102
RTVSPost2010PropOp33
 70
     1
102
RTVSPost2010Prop34
280
     0
102
RTVSPost2010PropOp34
 70
     1
102
RTVSPost2010Prop35
280
     0
102
RTVSPost2010PropOp35
 70
     1
102
RTVSPost2010Prop36
280
     0
102
RTVSPost2010PropOp36
 70
     1
102
RTVSPost2010Prop37
 90
       50
102
RTVSPost2010PropOp37
 70
     1
102
RTVSPost2010Prop38
140
0.0
102
RTVSPost2010PropOp38
 70
     1
102
RTVSPost2010Prop39
140
1.0
102
RTVSPost2010PropOp39
 70
     1
102
RTVSPost2010Prop40
 90
        0
102
RTVSPost2010PropOp40
 70
     1
102
RTVSPost2010Prop41ColorIndex
 90
       18
102
RTVSPost2010Prop41ColorRGB
 90
        0
102
RTVSPost2010PropOp41
 70
     1
102
RTVSPost2010Prop42
 90
       50
102
RTVSPost2010PropOp42
 70
     1
102
RTVSPost2010Prop43
 90
        3
102
RTVSPost2010PropOp43
 70
     1
102
RTVSPost2010Prop44ColorIndex
 90
        5
102
RTVSPost2010Prop44ColorRGB
 90
      255
102
RTVSPost2010PropOp44
 70
     1
102
RTVSPost2010Prop45
280
     0
102
RTVSPost2010PropOp45
 70
     1
102
RTVSPost2010Prop46
 90
       50
102
RTVSPost2010PropOp46
 70
     1
102
RTVSPost2010Prop47
 90
       50
102
RTVSPost2010PropOp47
 70
     1
102
RTVSPost2010Prop48
 90
       50
102
RTVSPost2010PropOp48
 70
     1
102
RTVSPost2010Prop49
280
     0
102
RTVSPost2010PropOp49
 70
     1
102
RTVSPost2010Prop50
 90
       50
102
RTVSPost2010PropOp50
 70
     1
102
RTVSPost2010Prop51ColorIndex
 90
      256
102
RTVSPost2010Prop51ColorRGB
 90
-16777216
102
RTVSPost2010PropOp51
 70
     0
102
RTVSPost2010Prop52
140
1.0
102
RTVSPost2010PropOp52
 70
     0
102
RTVSPost2010Prop53
 90
        2
102
RTVSPost2010PropOp53
 70
     1
102
RTVSPost2010Prop54
  1
strokes_ogs.tif
102
RTVSPost2010PropOp54
 70
     1
102
RTVSPost2010Prop55
280
     0
102
RTVSPost2010PropOp55
 70
     1
102
RTVSPost2010Prop56
140
1.0
102
RTVSPost2010PropOp56
 70
     1
102
RTVSPost2010Prop57
140
1.0
102
RTVSPost2010PropOp57
 70
     1
102
RTVSPropertyOp0
 70
     1
102
RTVSPropertyOp1
 70
     1
102
RTVSPropertyOp2
 70
     1
102
RTVSPropertyOp3
 70
     1
102
RTVSPropertyOp4
 70
     1
102
RTVSPropertyOp5
 70
     1
102
RTVSPropertyOp6
 70
     1
102
RTVSPropertyOp7
 70
     1
102
RTVSPropertyOp8
 70
     1
102
RTVSPropertyOp9
 70
     1
102
RTVSPropertyOp10
 70
     1
102
RTVSPropertyOp11
 70
     1
102
RTVSPropertyOp12
 70
     1
102
RTVSPropertyOp13
 70
     1
102
RTVSPropertyOp14
 70
     1
102
RTVSPropertyOp15
 70
     1
102
RTVSPropertyOp16
 70
     1
102
RTVSPropertyOp17
 70
     1
102
RTVSPropertyOp18
 70
     1
102
RTVSPropertyOp19
 70
     1
102
RTVSPropertyOp20
 70
     1
102
RTVSPropertyOp21
 70
     1
102
RTVSPropertyOp22
 70
     1
102
RTVSPropertyOp23
 70
     1
102
RTVSPropertyOp24
 70
     1
102
RTVSPropertyOp25
 70
     1
102
RTVSPropertyOp26
 70
     1
102
RTVSPropertyOp27
 70
     1
102
RTVSPropertyOp28
 70
     1
102
RTVSPropertyOp29
 70
     1
102
RTVSPropertyOp30
 70
     1
102
RTVSPropertyOp31
 70
     1
102
RTVSPropertyOp32
 70
     1
102
RTVSPropertyOp33
 70
     1
102
RTVSPropertyOp34
 70
     1
102
RTVSPropertyOp35
 70
     1
102
RTVSPropertyOp36
 70
     1
102
RTVSPropertyOp37
 70
     1
102
RTVSPropertyOp38
 70
     1
102
RTVSPropertyOp39
 70
     1
102
RTVSPropertyOp40
 70
     1
102
RTVSPropertyOp41
 70
     1
102
RTVSPropertyOp42
 70
     1
102
RTVSPropertyOp43
 70
     1
102
RTVSPropertyOp44
 70
     1
102
RTVSPropertyOp45
 70
     1
102
RTVSPropertyOp46
 70
     1
102
RTVSPropertyOp47
 70
     1
102
RTVSPropertyOp48
 70
     1
102
RTVSPropertyOp49
 70
     1
102
RTVSPropertyOp50
 70
     1
102
RTVSPropertyOp51
 70
     0
102
RTVSPropertyOp52
 70
     0
102
RTVSPropertyOp53
 70
     1
102
RTVSPropertyOp54
 70
     1
102
RTVSPropertyOp55
 70
     1
102
RTVSPropertyOp56
 70
     1
102
RTVSPropertyOp57
 70
     1
102
RTVSPropertyOp58
 70
     1
102
RTVSPropertyOp59
 70
     1
102
RTVSPropertyOp60
 70
     1
102
RTVSPropertyOp61
 70
     1
102
RTVSPropertyOp62
 70
     1
  0
XRECORD
  5
5125
102
{ACAD_REACTORS
330
5124
102
}
330
5124
100
AcDbXrecord
280
     1
102
RTVSPost2010Prop28
280
     0
102
RTVSPost2010PropOp28
 70
     1
102
RTVSPost2010Prop29
280
     1
102
RTVSPost2010PropOp29
 70
     1
102
RTVSPost2010Prop30
280
     1
102
RTVSPost2010PropOp30
 70
     1
102
RTVSPost2010Prop31
280
     0
102
RTVSPost2010PropOp31
 70
     1
102
RTVSPost2010Prop32
280
     0
102
RTVSPost2010PropOp32
 70
     1
102
RTVSPost2010Prop33
280
     0
102
RTVSPost2010PropOp33
 70
     1
102
RTVSPost2010Prop34
280
     0
102
RTVSPost2010PropOp34
 70
     1
102
RTVSPost2010Prop35
280
     0
102
RTVSPost2010PropOp35
 70
     1
102
RTVSPost2010Prop36
280
     0
102
RTVSPost2010PropOp36
 70
     1
102
RTVSPost2010Prop37
 90
       50
102
RTVSPost2010PropOp37
 70
     1
102
RTVSPost2010Prop38
140
0.0
102
RTVSPost2010PropOp38
 70
     1
102
RTVSPost2010Prop39
140
1.0
102
RTVSPost2010PropOp39
 70
     1
102
RTVSPost2010Prop40
 90
        0
102
RTVSPost2010PropOp40
 70
     1
102
RTVSPost2010Prop41ColorIndex
 90
       18
102
RTVSPost2010Prop41ColorRGB
 90
        0
102
RTVSPost2010PropOp41
 70
     1
102
RTVSPost2010Prop42
 90
       50
102
RTVSPost2010PropOp42
 70
     1
102
RTVSPost2010Prop43
 90
        3
102
RTVSPost2010PropOp43
 70
     1
102
RTVSPost2010Prop44ColorIndex
 90
        5
102
RTVSPost2010Prop44ColorRGB
 90
      255
102
RTVSPost2010PropOp44
 70
     1
102
RTVSPost2010Prop45
280
     0
102
RTVSPost2010PropOp45
 70
     1
102
RTVSPost2010Prop46
 90
       50
102
RTVSPost2010PropOp46
 70
     1
102
RTVSPost2010Prop47
 90
       50
102
RTVSPost2010PropOp47
 70
     1
102
RTVSPost2010Prop48
 90
       50
102
RTVSPost2010PropOp48
 70
     1
102
RTVSPost2010Prop49
280
     0
102
RTVSPost2010PropOp49
 70
     1
102
RTVSPost2010Prop50
 90
       50
102
RTVSPost2010PropOp50
 70
     1
102
RTVSPost2010Prop51ColorIndex
 90
      256
102
RTVSPost2010Prop51ColorRGB
 90
-16777216
102
RTVSPost2010PropOp51
 70
     0
102
RTVSPost2010Prop52
140
1.0
102
RTVSPost2010PropOp52
 70
     0
102
RTVSPost2010Prop53
 90
        2
102
RTVSPost2010PropOp53
 70
     1
102
RTVSPost2010Prop54
  1
strokes_ogs.tif
102
RTVSPost2010PropOp54
 70
     1
102
RTVSPost2010Prop55
280
     0
102
RTVSPost2010PropOp55
 70
     1
102
RTVSPost2010Prop56
140
1.0
102
RTVSPost2010PropOp56
 70
     1
102
RTVSPost2010Prop57
140
1.0
102
RTVSPost2010PropOp57
 70
     1
102
RTVSPropertyOp0
 70
     1
102
RTVSPropertyOp1
 70
     1
102
RTVSPropertyOp2
 70
     1
102
RTVSPropertyOp3
 70
     1
102
RTVSPropertyOp4
 70
     1
102
RTVSPropertyOp5
 70
     1
102
RTVSPropertyOp6
 70
     1
102
RTVSPropertyOp7
 70
     1
102
RTVSPropertyOp8
 70
     1
102
RTVSPropertyOp9
 70
     1
102
RTVSPropertyOp10
 70
     1
102
RTVSPropertyOp11
 70
     1
102
RTVSPropertyOp12
 70
     1
102
RTVSPropertyOp13
 70
     1
102
RTVSPropertyOp14
 70
     1
102
RTVSPropertyOp15
 70
     1
102
RTVSPropertyOp16
 70
     1
102
RTVSPropertyOp17
 70
     1
102
RTVSPropertyOp18
 70
     1
102
RTVSPropertyOp19
 70
     1
102
RTVSPropertyOp20
 70
     1
102
RTVSPropertyOp21
 70
     1
102
RTVSPropertyOp22
 70
     1
102
RTVSPropertyOp23
 70
     1
102
RTVSPropertyOp24
 70
     1
102
RTVSPropertyOp25
 70
     1
102
RTVSPropertyOp26
 70
     1
102
RTVSPropertyOp27
 70
     1
102
RTVSPropertyOp28
 70
     1
102
RTVSPropertyOp29
 70
     1
102
RTVSPropertyOp30
 70
     1
102
RTVSPropertyOp31
 70
     1
102
RTVSPropertyOp32
 70
     1
102
RTVSPropertyOp33
 70
     1
102
RTVSPropertyOp34
 70
     1
102
RTVSPropertyOp35
 70
     1
102
RTVSPropertyOp36
 70
     1
102
RTVSPropertyOp37
 70
     1
102
RTVSPropertyOp38
 70
     1
102
RTVSPropertyOp39
 70
     1
102
RTVSPropertyOp40
 70
     1
102
RTVSPropertyOp41
 70
     1
102
RTVSPropertyOp42
 70
     1
102
RTVSPropertyOp43
 70
     1
102
RTVSPropertyOp44
 70
     1
102
RTVSPropertyOp45
 70
     1
102
RTVSPropertyOp46
 70
     1
102
RTVSPropertyOp47
 70
     1
102
RTVSPropertyOp48
 70
     1
102
RTVSPropertyOp49
 70
     1
102
RTVSPropertyOp50
 70
     1
102
RTVSPropertyOp51
 70
     0
102
RTVSPropertyOp52
 70
     0
102
RTVSPropertyOp53
 70
     1
102
RTVSPropertyOp54
 70
     1
102
RTVSPropertyOp55
 70
     1
102
RTVSPropertyOp56
 70
     1
102
RTVSPropertyOp57
 70
     1
102
RTVSPropertyOp58
 70
     1
102
RTVSPropertyOp59
 70
     1
102
RTVSPropertyOp60
 70
     1
102
RTVSPropertyOp61
 70
     1
102
RTVSPropertyOp62
 70
     1
  0
XRECORD
  5
5117
102
{ACAD_REACTORS
330
5116
102
}
330
5116
100
AcDbXrecord
280
     1
102
RTVSPost2010Prop28
280
     0
102
RTVSPost2010PropOp28
 70
     1
102
RTVSPost2010Prop29
280
     1
102
RTVSPost2010PropOp29
 70
     1
102
RTVSPost2010Prop30
280
     1
102
RTVSPost2010PropOp30
 70
     1
102
RTVSPost2010Prop31
280
     0
102
RTVSPost2010PropOp31
 70
     1
102
RTVSPost2010Prop32
280
     0
102
RTVSPost2010PropOp32
 70
     1
102
RTVSPost2010Prop33
280
     0
102
RTVSPost2010PropOp33
 70
     1
102
RTVSPost2010Prop34
280
     0
102
RTVSPost2010PropOp34
 70
     1
102
RTVSPost2010Prop35
280
     0
102
RTVSPost2010PropOp35
 70
     1
102
RTVSPost2010Prop36
280
     0
102
RTVSPost2010PropOp36
 70
     1
102
RTVSPost2010Prop37
 90
       50
102
RTVSPost2010PropOp37
 70
     1
102
RTVSPost2010Prop38
140
0.0
102
RTVSPost2010PropOp38
 70
     1
102
RTVSPost2010Prop39
140
1.0
102
RTVSPost2010PropOp39
 70
     1
102
RTVSPost2010Prop40
 90
        0
102
RTVSPost2010PropOp40
 70
     1
102
RTVSPost2010Prop41ColorIndex
 90
       18
102
RTVSPost2010Prop41ColorRGB
 90
        0
102
RTVSPost2010PropOp41
 70
     1
102
RTVSPost2010Prop42
 90
       50
102
RTVSPost2010PropOp42
 70
     1
102
RTVSPost2010Prop43
 90
        3
102
RTVSPost2010PropOp43
 70
     1
102
RTVSPost2010Prop44ColorIndex
 90
        5
102
RTVSPost2010Prop44ColorRGB
 90
      255
102
RTVSPost2010PropOp44
 70
     1
102
RTVSPost2010Prop45
280
     0
102
RTVSPost2010PropOp45
 70
     1
102
RTVSPost2010Prop46
 90
       50
102
RTVSPost2010PropOp46
 70
     1
102
RTVSPost2010Prop47
 90
       50
102
RTVSPost2010PropOp47
 70
     1
102
RTVSPost2010Prop48
 90
       50
102
RTVSPost2010PropOp48
 70
     1
102
RTVSPost2010Prop49
280
     0
102
RTVSPost2010PropOp49
 70
     1
102
RTVSPost2010Prop50
 90
       50
102
RTVSPost2010PropOp50
 70
     1
102
RTVSPost2010Prop51ColorIndex
 90
      256
102
RTVSPost2010Prop51ColorRGB
 90
-16777216
102
RTVSPost2010PropOp51
 70
     0
102
RTVSPost2010Prop52
140
1.0
102
RTVSPost2010PropOp52
 70
     0
102
RTVSPost2010Prop53
 90
        2
102
RTVSPost2010PropOp53
 70
     1
102
RTVSPost2010Prop54
  1
strokes_ogs.tif
102
RTVSPost2010PropOp54
 70
     1
102
RTVSPost2010Prop55
280
     0
102
RTVSPost2010PropOp55
 70
     1
102
RTVSPost2010Prop56
140
1.0
102
RTVSPost2010PropOp56
 70
     1
102
RTVSPost2010Prop57
140
1.0
102
RTVSPost2010PropOp57
 70
     1
102
RTVSPropertyOp0
 70
     1
102
RTVSPropertyOp1
 70
     1
102
RTVSPropertyOp2
 70
     1
102
RTVSPropertyOp3
 70
     1
102
RTVSPropertyOp4
 70
     1
102
RTVSPropertyOp5
 70
     1
102
RTVSPropertyOp6
 70
     1
102
RTVSPropertyOp7
 70
     1
102
RTVSPropertyOp8
 70
     1
102
RTVSPropertyOp9
 70
     1
102
RTVSPropertyOp10
 70
     1
102
RTVSPropertyOp11
 70
     1
102
RTVSPropertyOp12
 70
     1
102
RTVSPropertyOp13
 70
     1
102
RTVSPropertyOp14
 70
     1
102
RTVSPropertyOp15
 70
     1
102
RTVSPropertyOp16
 70
     1
102
RTVSPropertyOp17
 70
     1
102
RTVSPropertyOp18
 70
     1
102
RTVSPropertyOp19
 70
     1
102
RTVSPropertyOp20
 70
     1
102
RTVSPropertyOp21
 70
     1
102
RTVSPropertyOp22
 70
     1
102
RTVSPropertyOp23
 70
     1
102
RTVSPropertyOp24
 70
     1
102
RTVSPropertyOp25
 70
     1
102
RTVSPropertyOp26
 70
     1
102
RTVSPropertyOp27
 70
     1
102
RTVSPropertyOp28
 70
     1
102
RTVSPropertyOp29
 70
     1
102
RTVSPropertyOp30
 70
     1
102
RTVSPropertyOp31
 70
     1
102
RTVSPropertyOp32
 70
     1
102
RTVSPropertyOp33
 70
     1
102
RTVSPropertyOp34
 70
     1
102
RTVSPropertyOp35
 70
     1
102
RTVSPropertyOp36
 70
     1
102
RTVSPropertyOp37
 70
     1
102
RTVSPropertyOp38
 70
     1
102
RTVSPropertyOp39
 70
     1
102
RTVSPropertyOp40
 70
     1
102
RTVSPropertyOp41
 70
     1
102
RTVSPropertyOp42
 70
     1
102
RTVSPropertyOp43
 70
     1
102
RTVSPropertyOp44
 70
     1
102
RTVSPropertyOp45
 70
     1
102
RTVSPropertyOp46
 70
     1
102
RTVSPropertyOp47
 70
     1
102
RTVSPropertyOp48
 70
     1
102
RTVSPropertyOp49
 70
     1
102
RTVSPropertyOp50
 70
     1
102
RTVSPropertyOp51
 70
     0
102
RTVSPropertyOp52
 70
     0
102
RTVSPropertyOp53
 70
     1
102
RTVSPropertyOp54
 70
     1
102
RTVSPropertyOp55
 70
     1
102
RTVSPropertyOp56
 70
     1
102
RTVSPropertyOp57
 70
     1
102
RTVSPropertyOp58
 70
     1
102
RTVSPropertyOp59
 70
     1
102
RTVSPropertyOp60
 70
     1
102
RTVSPropertyOp61
 70
     1
102
RTVSPropertyOp62
 70
     1
  0
XRECORD
  5
511B
102
{ACAD_REACTORS
330
511A
102
}
330
511A
100
AcDbXrecord
280
     1
102
RTVSPost2010Prop28
280
     0
102
RTVSPost2010PropOp28
 70
     1
102
RTVSPost2010Prop29
280
     1
102
RTVSPost2010PropOp29
 70
     1
102
RTVSPost2010Prop30
280
     1
102
RTVSPost2010PropOp30
 70
     1
102
RTVSPost2010Prop31
280
     0
102
RTVSPost2010PropOp31
 70
     1
102
RTVSPost2010Prop32
280
     0
102
RTVSPost2010PropOp32
 70
     1
102
RTVSPost2010Prop33
280
     0
102
RTVSPost2010PropOp33
 70
     1
102
RTVSPost2010Prop34
280
     0
102
RTVSPost2010PropOp34
 70
     1
102
RTVSPost2010Prop35
280
     0
102
RTVSPost2010PropOp35
 70
     1
102
RTVSPost2010Prop36
280
     0
102
RTVSPost2010PropOp36
 70
     1
102
RTVSPost2010Prop37
 90
       50
102
RTVSPost2010PropOp37
 70
     1
102
RTVSPost2010Prop38
140
0.0
102
RTVSPost2010PropOp38
 70
     1
102
RTVSPost2010Prop39
140
1.0
102
RTVSPost2010PropOp39
 70
     1
102
RTVSPost2010Prop40
 90
        0
102
RTVSPost2010PropOp40
 70
     1
102
RTVSPost2010Prop41ColorIndex
 90
       18
102
RTVSPost2010Prop41ColorRGB
 90
        0
102
RTVSPost2010PropOp41
 70
     1
102
RTVSPost2010Prop42
 90
       50
102
RTVSPost2010PropOp42
 70
     1
102
RTVSPost2010Prop43
 90
        3
102
RTVSPost2010PropOp43
 70
     1
102
RTVSPost2010Prop44ColorIndex
 90
        5
102
RTVSPost2010Prop44ColorRGB
 90
      255
102
RTVSPost2010PropOp44
 70
     1
102
RTVSPost2010Prop45
280
     0
102
RTVSPost2010PropOp45
 70
     1
102
RTVSPost2010Prop46
 90
       50
102
RTVSPost2010PropOp46
 70
     1
102
RTVSPost2010Prop47
 90
       50
102
RTVSPost2010PropOp47
 70
     1
102
RTVSPost2010Prop48
 90
       50
102
RTVSPost2010PropOp48
 70
     1
102
RTVSPost2010Prop49
280
     0
102
RTVSPost2010PropOp49
 70
     1
102
RTVSPost2010Prop50
 90
       50
102
RTVSPost2010PropOp50
 70
     1
102
RTVSPost2010Prop51ColorIndex
 90
      256
102
RTVSPost2010Prop51ColorRGB
 90
-16777216
102
RTVSPost2010PropOp51
 70
     0
102
RTVSPost2010Prop52
140
1.0
102
RTVSPost2010PropOp52
 70
     0
102
RTVSPost2010Prop53
 90
        2
102
RTVSPost2010PropOp53
 70
     1
102
RTVSPost2010Prop54
  1
strokes_ogs.tif
102
RTVSPost2010PropOp54
 70
     1
102
RTVSPost2010Prop55
280
     0
102
RTVSPost2010PropOp55
 70
     1
102
RTVSPost2010Prop56
140
1.0
102
RTVSPost2010PropOp56
 70
     1
102
RTVSPost2010Prop57
140
1.0
102
RTVSPost2010PropOp57
 70
     1
102
RTVSPropertyOp0
 70
     1
102
RTVSPropertyOp1
 70
     1
102
RTVSPropertyOp2
 70
     1
102
RTVSPropertyOp3
 70
     1
102
RTVSPropertyOp4
 70
     1
102
RTVSPropertyOp5
 70
     1
102
RTVSPropertyOp6
 70
     1
102
RTVSPropertyOp7
 70
     1
102
RTVSPropertyOp8
 70
     1
102
RTVSPropertyOp9
 70
     1
102
RTVSPropertyOp10
 70
     1
102
RTVSPropertyOp11
 70
     1
102
RTVSPropertyOp12
 70
     1
102
RTVSPropertyOp13
 70
     1
102
RTVSPropertyOp14
 70
     1
102
RTVSPropertyOp15
 70
     1
102
RTVSPropertyOp16
 70
     1
102
RTVSPropertyOp17
 70
     1
102
RTVSPropertyOp18
 70
     1
102
RTVSPropertyOp19
 70
     1
102
RTVSPropertyOp20
 70
     1
102
RTVSPropertyOp21
 70
     1
102
RTVSPropertyOp22
 70
     1
102
RTVSPropertyOp23
 70
     1
102
RTVSPropertyOp24
 70
     1
102
RTVSPropertyOp25
 70
     1
102
RTVSPropertyOp26
 70
     1
102
RTVSPropertyOp27
 70
     1
102
RTVSPropertyOp28
 70
     1
102
RTVSPropertyOp29
 70
     1
102
RTVSPropertyOp30
 70
     1
102
RTVSPropertyOp31
 70
     1
102
RTVSPropertyOp32
 70
     1
102
RTVSPropertyOp33
 70
     1
102
RTVSPropertyOp34
 70
     1
102
RTVSPropertyOp35
 70
     1
102
RTVSPropertyOp36
 70
     1
102
RTVSPropertyOp37
 70
     1
102
RTVSPropertyOp38
 70
     1
102
RTVSPropertyOp39
 70
     1
102
RTVSPropertyOp40
 70
     1
102
RTVSPropertyOp41
 70
     1
102
RTVSPropertyOp42
 70
     1
102
RTVSPropertyOp43
 70
     1
102
RTVSPropertyOp44
 70
     1
102
RTVSPropertyOp45
 70
     1
102
RTVSPropertyOp46
 70
     1
102
RTVSPropertyOp47
 70
     1
102
RTVSPropertyOp48
 70
     1
102
RTVSPropertyOp49
 70
     1
102
RTVSPropertyOp50
 70
     1
102
RTVSPropertyOp51
 70
     0
102
RTVSPropertyOp52
 70
     0
102
RTVSPropertyOp53
 70
     1
102
RTVSPropertyOp54
 70
     1
102
RTVSPropertyOp55
 70
     1
102
RTVSPropertyOp56
 70
     1
102
RTVSPropertyOp57
 70
     1
102
RTVSPropertyOp58
 70
     1
102
RTVSPropertyOp59
 70
     1
102
RTVSPropertyOp60
 70
     1
102
RTVSPropertyOp61
 70
     1
102
RTVSPropertyOp62
 70
     1
  0
XRECORD
  5
5135
102
{ACAD_REACTORS
330
5134
102
}
330
5134
100
AcDbXrecord
280
     1
102
RTVSPost2010Prop28
280
     0
102
RTVSPost2010PropOp28
 70
     0
102
RTVSPost2010Prop29
280
     1
102
RTVSPost2010PropOp29
 70
     0
102
RTVSPost2010Prop30
280
     1
102
RTVSPost2010PropOp30
 70
     0
102
RTVSPost2010Prop31
280
     0
102
RTVSPost2010PropOp31
 70
     0
102
RTVSPost2010Prop32
280
     0
102
RTVSPost2010PropOp32
 70
     0
102
RTVSPost2010Prop33
280
     0
102
RTVSPost2010PropOp33
 70
     0
102
RTVSPost2010Prop34
280
     0
102
RTVSPost2010PropOp34
 70
     0
102
RTVSPost2010Prop35
280
     0
102
RTVSPost2010PropOp35
 70
     0
102
RTVSPost2010Prop36
280
     0
102
RTVSPost2010PropOp36
 70
     0
102
RTVSPost2010Prop37
 90
       50
102
RTVSPost2010PropOp37
 70
     0
102
RTVSPost2010Prop38
140
0.0
102
RTVSPost2010PropOp38
 70
     0
102
RTVSPost2010Prop39
140
1.0
102
RTVSPost2010PropOp39
 70
     0
102
RTVSPost2010Prop40
 90
        0
102
RTVSPost2010PropOp40
 70
     0
102
RTVSPost2010Prop41ColorIndex
 90
       18
102
RTVSPost2010Prop41ColorRGB
 90
        0
102
RTVSPost2010PropOp41
 70
     0
102
RTVSPost2010Prop42
 90
       50
102
RTVSPost2010PropOp42
 70
     0
102
RTVSPost2010Prop43
 90
        3
102
RTVSPost2010PropOp43
 70
     0
102
RTVSPost2010Prop44ColorIndex
 90
        5
102
RTVSPost2010Prop44ColorRGB
 90
      255
102
RTVSPost2010PropOp44
 70
     0
102
RTVSPost2010Prop45
280
     0
102
RTVSPost2010PropOp45
 70
     0
102
RTVSPost2010Prop46
 90
       50
102
RTVSPost2010PropOp46
 70
     0
102
RTVSPost2010Prop47
 90
       50
102
RTVSPost2010PropOp47
 70
     0
102
RTVSPost2010Prop48
 90
       50
102
RTVSPost2010PropOp48
 70
     0
102
RTVSPost2010Prop49
280
     0
102
RTVSPost2010PropOp49
 70
     0
102
RTVSPost2010Prop50
 90
       50
102
RTVSPost2010PropOp50
 70
     0
102
RTVSPost2010Prop51ColorIndex
 90
      256
102
RTVSPost2010Prop51ColorRGB
 90
-16777216
102
RTVSPost2010PropOp51
 70
     0
102
RTVSPost2010Prop52
140
1.0
102
RTVSPost2010PropOp52
 70
     0
102
RTVSPost2010Prop53
 90
        2
102
RTVSPost2010PropOp53
 70
     0
102
RTVSPost2010Prop54
  1
strokes_ogs.tif
102
RTVSPost2010PropOp54
 70
     0
102
RTVSPost2010Prop55
280
     0
102
RTVSPost2010PropOp55
 70
     0
102
RTVSPost2010Prop56
140
1.0
102
RTVSPost2010PropOp56
 70
     0
102
RTVSPost2010Prop57
140
1.0
102
RTVSPost2010PropOp57
 70
     0
102
RTVSPropertyOp0
 70
     0
102
RTVSPropertyOp1
 70
     0
102
RTVSPropertyOp2
 70
     0
102
RTVSPropertyOp3
 70
     0
102
RTVSPropertyOp4
 70
     0
102
RTVSPropertyOp5
 70
     0
102
RTVSPropertyOp6
 70
     0
102
RTVSPropertyOp7
 70
     0
102
RTVSPropertyOp8
 70
     0
102
RTVSPropertyOp9
 70
     0
102
RTVSPropertyOp10
 70
     0
102
RTVSPropertyOp11
 70
     0
102
RTVSPropertyOp12
 70
     0
102
RTVSPropertyOp13
 70
     0
102
RTVSPropertyOp14
 70
     2
102
RTVSPropertyOp15
 70
     0
102
RTVSPropertyOp16
 70
     0
102
RTVSPropertyOp17
 70
     0
102
RTVSPropertyOp18
 70
     0
102
RTVSPropertyOp19
 70
     0
102
RTVSPropertyOp20
 70
     0
102
RTVSPropertyOp21
 70
     0
102
RTVSPropertyOp22
 70
     0
102
RTVSPropertyOp23
 70
     0
102
RTVSPropertyOp24
 70
     0
102
RTVSPropertyOp25
 70
     0
102
RTVSPropertyOp26
 70
     0
102
RTVSPropertyOp27
 70
     0
102
RTVSPropertyOp28
 70
     0
102
RTVSPropertyOp29
 70
     0
102
RTVSPropertyOp30
 70
     0
102
RTVSPropertyOp31
 70
     0
102
RTVSPropertyOp32
 70
     0
102
RTVSPropertyOp33
 70
     0
102
RTVSPropertyOp34
 70
     0
102
RTVSPropertyOp35
 70
     0
102
RTVSPropertyOp36
 70
     0
102
RTVSPropertyOp37
 70
     0
102
RTVSPropertyOp38
 70
     0
102
RTVSPropertyOp39
 70
     0
102
RTVSPropertyOp40
 70
     0
102
RTVSPropertyOp41
 70
     0
102
RTVSPropertyOp42
 70
     0
102
RTVSPropertyOp43
 70
     0
102
RTVSPropertyOp44
 70
     0
102
RTVSPropertyOp45
 70
     0
102
RTVSPropertyOp46
 70
     0
102
RTVSPropertyOp47
 70
     0
102
RTVSPropertyOp48
 70
     0
102
RTVSPropertyOp49
 70
     0
102
RTVSPropertyOp50
 70
     0
102
RTVSPropertyOp51
 70
     0
102
RTVSPropertyOp52
 70
     0
102
RTVSPropertyOp53
 70
     0
102
RTVSPropertyOp54
 70
     0
102
RTVSPropertyOp55
 70
     0
102
RTVSPropertyOp56
 70
     0
102
RTVSPropertyOp57
 70
     0
102
RTVSPropertyOp58
 70
     1
102
RTVSPropertyOp59
 70
     1
102
RTVSPropertyOp60
 70
     1
102
RTVSPropertyOp61
 70
     1
102
RTVSPropertyOp62
 70
     1
  0
XRECORD
  5
5123
102
{ACAD_REACTORS
330
5122
102
}
330
5122
100
AcDbXrecord
280
     1
102
RTVSPost2010Prop28
280
     0
102
RTVSPost2010PropOp28
 70
     1
102
RTVSPost2010Prop29
280
     1
102
RTVSPost2010PropOp29
 70
     1
102
RTVSPost2010Prop30
280
     1
102
RTVSPost2010PropOp30
 70
     1
102
RTVSPost2010Prop31
280
     0
102
RTVSPost2010PropOp31
 70
     1
102
RTVSPost2010Prop32
280
     0
102
RTVSPost2010PropOp32
 70
     1
102
RTVSPost2010Prop33
280
     0
102
RTVSPost2010PropOp33
 70
     1
102
RTVSPost2010Prop34
280
     0
102
RTVSPost2010PropOp34
 70
     1
102
RTVSPost2010Prop35
280
     0
102
RTVSPost2010PropOp35
 70
     1
102
RTVSPost2010Prop36
280
     0
102
RTVSPost2010PropOp36
 70
     1
102
RTVSPost2010Prop37
 90
       50
102
RTVSPost2010PropOp37
 70
     1
102
RTVSPost2010Prop38
140
0.0
102
RTVSPost2010PropOp38
 70
     1
102
RTVSPost2010Prop39
140
1.0
102
RTVSPost2010PropOp39
 70
     1
102
RTVSPost2010Prop40
 90
        0
102
RTVSPost2010PropOp40
 70
     1
102
RTVSPost2010Prop41ColorIndex
 90
       18
102
RTVSPost2010Prop41ColorRGB
 90
        0
102
RTVSPost2010PropOp41
 70
     1
102
RTVSPost2010Prop42
 90
       50
102
RTVSPost2010PropOp42
 70
     1
102
RTVSPost2010Prop43
 90
        3
102
RTVSPost2010PropOp43
 70
     1
102
RTVSPost2010Prop44ColorIndex
 90
        5
102
RTVSPost2010Prop44ColorRGB
 90
      255
102
RTVSPost2010PropOp44
 70
     1
102
RTVSPost2010Prop45
280
     0
102
RTVSPost2010PropOp45
 70
     1
102
RTVSPost2010Prop46
 90
       50
102
RTVSPost2010PropOp46
 70
     1
102
RTVSPost2010Prop47
 90
       50
102
RTVSPost2010PropOp47
 70
     1
102
RTVSPost2010Prop48
 90
       50
102
RTVSPost2010PropOp48
 70
     1
102
RTVSPost2010Prop49
280
     0
102
RTVSPost2010PropOp49
 70
     1
102
RTVSPost2010Prop50
 90
       50
102
RTVSPost2010PropOp50
 70
     1
102
RTVSPost2010Prop51ColorIndex
 90
      256
102
RTVSPost2010Prop51ColorRGB
 90
-16777216
102
RTVSPost2010PropOp51
 70
     0
102
RTVSPost2010Prop52
140
1.0
102
RTVSPost2010PropOp52
 70
     0
102
RTVSPost2010Prop53
 90
        2
102
RTVSPost2010PropOp53
 70
     1
102
RTVSPost2010Prop54
  1
strokes_ogs.tif
102
RTVSPost2010PropOp54
 70
     1
102
RTVSPost2010Prop55
280
     0
102
RTVSPost2010PropOp55
 70
     1
102
RTVSPost2010Prop56
140
1.0
102
RTVSPost2010PropOp56
 70
     1
102
RTVSPost2010Prop57
140
1.0
102
RTVSPost2010PropOp57
 70
     1
102
RTVSPropertyOp0
 70
     1
102
RTVSPropertyOp1
 70
     1
102
RTVSPropertyOp2
 70
     1
102
RTVSPropertyOp3
 70
     1
102
RTVSPropertyOp4
 70
     1
102
RTVSPropertyOp5
 70
     1
102
RTVSPropertyOp6
 70
     1
102
RTVSPropertyOp7
 70
     1
102
RTVSPropertyOp8
 70
     1
102
RTVSPropertyOp9
 70
     1
102
RTVSPropertyOp10
 70
     1
102
RTVSPropertyOp11
 70
     1
102
RTVSPropertyOp12
 70
     1
102
RTVSPropertyOp13
 70
     1
102
RTVSPropertyOp14
 70
     1
102
RTVSPropertyOp15
 70
     1
102
RTVSPropertyOp16
 70
     1
102
RTVSPropertyOp17
 70
     1
102
RTVSPropertyOp18
 70
     1
102
RTVSPropertyOp19
 70
     1
102
RTVSPropertyOp20
 70
     1
102
RTVSPropertyOp21
 70
     1
102
RTVSPropertyOp22
 70
     1
102
RTVSPropertyOp23
 70
     1
102
RTVSPropertyOp24
 70
     1
102
RTVSPropertyOp25
 70
     1
102
RTVSPropertyOp26
 70
     1
102
RTVSPropertyOp27
 70
     1
102
RTVSPropertyOp28
 70
     1
102
RTVSPropertyOp29
 70
     1
102
RTVSPropertyOp30
 70
     1
102
RTVSPropertyOp31
 70
     1
102
RTVSPropertyOp32
 70
     1
102
RTVSPropertyOp33
 70
     1
102
RTVSPropertyOp34
 70
     1
102
RTVSPropertyOp35
 70
     1
102
RTVSPropertyOp36
 70
     1
102
RTVSPropertyOp37
 70
     1
102
RTVSPropertyOp38
 70
     1
102
RTVSPropertyOp39
 70
     1
102
RTVSPropertyOp40
 70
     1
102
RTVSPropertyOp41
 70
     1
102
RTVSPropertyOp42
 70
     1
102
RTVSPropertyOp43
 70
     1
102
RTVSPropertyOp44
 70
     1
102
RTVSPropertyOp45
 70
     1
102
RTVSPropertyOp46
 70
     1
102
RTVSPropertyOp47
 70
     1
102
RTVSPropertyOp48
 70
     1
102
RTVSPropertyOp49
 70
     1
102
RTVSPropertyOp50
 70
     1
102
RTVSPropertyOp51
 70
     0
102
RTVSPropertyOp52
 70
     0
102
RTVSPropertyOp53
 70
     1
102
RTVSPropertyOp54
 70
     1
102
RTVSPropertyOp55
 70
     1
102
RTVSPropertyOp56
 70
     1
102
RTVSPropertyOp57
 70
     1
102
RTVSPropertyOp58
 70
     1
102
RTVSPropertyOp59
 70
     1
102
RTVSPropertyOp60
 70
     1
102
RTVSPropertyOp61
 70
     1
102
RTVSPropertyOp62
 70
     1
  0
XRECORD
  5
5107
102
{ACAD_REACTORS
330
5106
102
}
330
5106
100
AcDbXrecord
280
     1
102
RTVSPost2010Prop28
280
     0
102
RTVSPost2010PropOp28
 70
     1
102
RTVSPost2010Prop29
280
     1
102
RTVSPost2010PropOp29
 70
     1
102
RTVSPost2010Prop30
280
     1
102
RTVSPost2010PropOp30
 70
     1
102
RTVSPost2010Prop31
280
     0
102
RTVSPost2010PropOp31
 70
     1
102
RTVSPost2010Prop32
280
     0
102
RTVSPost2010PropOp32
 70
     1
102
RTVSPost2010Prop33
280
     0
102
RTVSPost2010PropOp33
 70
     1
102
RTVSPost2010Prop34
280
     0
102
RTVSPost2010PropOp34
 70
     1
102
RTVSPost2010Prop35
280
     0
102
RTVSPost2010PropOp35
 70
     1
102
RTVSPost2010Prop36
280
     0
102
RTVSPost2010PropOp36
 70
     1
102
RTVSPost2010Prop37
 90
       50
102
RTVSPost2010PropOp37
 70
     1
102
RTVSPost2010Prop38
140
0.0
102
RTVSPost2010PropOp38
 70
     1
102
RTVSPost2010Prop39
140
1.0
102
RTVSPost2010PropOp39
 70
     1
102
RTVSPost2010Prop40
 90
        0
102
RTVSPost2010PropOp40
 70
     1
102
RTVSPost2010Prop41ColorIndex
 90
       18
102
RTVSPost2010Prop41ColorRGB
 90
        0
102
RTVSPost2010PropOp41
 70
     1
102
RTVSPost2010Prop42
 90
       50
102
RTVSPost2010PropOp42
 70
     1
102
RTVSPost2010Prop43
 90
        3
102
RTVSPost2010PropOp43
 70
     1
102
RTVSPost2010Prop44ColorIndex
 90
        5
102
RTVSPost2010Prop44ColorRGB
 90
      255
102
RTVSPost2010PropOp44
 70
     1
102
RTVSPost2010Prop45
280
     0
102
RTVSPost2010PropOp45
 70
     1
102
RTVSPost2010Prop46
 90
       50
102
RTVSPost2010PropOp46
 70
     1
102
RTVSPost2010Prop47
 90
       50
102
RTVSPost2010PropOp47
 70
     1
102
RTVSPost2010Prop48
 90
       50
102
RTVSPost2010PropOp48
 70
     1
102
RTVSPost2010Prop49
280
     0
102
RTVSPost2010PropOp49
 70
     1
102
RTVSPost2010Prop50
 90
       50
102
RTVSPost2010PropOp50
 70
     1
102
RTVSPost2010Prop51ColorIndex
 90
      256
102
RTVSPost2010Prop51ColorRGB
 90
-16777216
102
RTVSPost2010PropOp51
 70
     0
102
RTVSPost2010Prop52
140
1.0
102
RTVSPost2010PropOp52
 70
     0
102
RTVSPost2010Prop53
 90
        2
102
RTVSPost2010PropOp53
 70
     1
102
RTVSPost2010Prop54
  1
strokes_ogs.tif
102
RTVSPost2010PropOp54
 70
     1
102
RTVSPost2010Prop55
280
     0
102
RTVSPost2010PropOp55
 70
     1
102
RTVSPost2010Prop56
140
1.0
102
RTVSPost2010PropOp56
 70
     1
102
RTVSPost2010Prop57
140
1.0
102
RTVSPost2010PropOp57
 70
     1
102
RTVSPropertyOp0
 70
     1
102
RTVSPropertyOp1
 70
     1
102
RTVSPropertyOp2
 70
     1
102
RTVSPropertyOp3
 70
     1
102
RTVSPropertyOp4
 70
     1
102
RTVSPropertyOp5
 70
     1
102
RTVSPropertyOp6
 70
     1
102
RTVSPropertyOp7
 70
     1
102
RTVSPropertyOp8
 70
     1
102
RTVSPropertyOp9
 70
     1
102
RTVSPropertyOp10
 70
     1
102
RTVSPropertyOp11
 70
     1
102
RTVSPropertyOp12
 70
     1
102
RTVSPropertyOp13
 70
     1
102
RTVSPropertyOp14
 70
     1
102
RTVSPropertyOp15
 70
     1
102
RTVSPropertyOp16
 70
     1
102
RTVSPropertyOp17
 70
     1
102
RTVSPropertyOp18
 70
     1
102
RTVSPropertyOp19
 70
     1
102
RTVSPropertyOp20
 70
     1
102
RTVSPropertyOp21
 70
     1
102
RTVSPropertyOp22
 70
     1
102
RTVSPropertyOp23
 70
     1
102
RTVSPropertyOp24
 70
     1
102
RTVSPropertyOp25
 70
     1
102
RTVSPropertyOp26
 70
     1
102
RTVSPropertyOp27
 70
     1
102
RTVSPropertyOp28
 70
     1
102
RTVSPropertyOp29
 70
     1
102
RTVSPropertyOp30
 70
     1
102
RTVSPropertyOp31
 70
     1
102
RTVSPropertyOp32
 70
     1
102
RTVSPropertyOp33
 70
     1
102
RTVSPropertyOp34
 70
     1
102
RTVSPropertyOp35
 70
     1
102
RTVSPropertyOp36
 70
     1
102
RTVSPropertyOp37
 70
     1
102
RTVSPropertyOp38
 70
     1
102
RTVSPropertyOp39
 70
     1
102
RTVSPropertyOp40
 70
     1
102
RTVSPropertyOp41
 70
     1
102
RTVSPropertyOp42
 70
     1
102
RTVSPropertyOp43
 70
     1
102
RTVSPropertyOp44
 70
     1
102
RTVSPropertyOp45
 70
     1
102
RTVSPropertyOp46
 70
     1
102
RTVSPropertyOp47
 70
     1
102
RTVSPropertyOp48
 70
     1
102
RTVSPropertyOp49
 70
     1
102
RTVSPropertyOp50
 70
     1
102
RTVSPropertyOp51
 70
     0
102
RTVSPropertyOp52
 70
     0
102
RTVSPropertyOp53
 70
     1
102
RTVSPropertyOp54
 70
     1
102
RTVSPropertyOp55
 70
     1
102
RTVSPropertyOp56
 70
     1
102
RTVSPropertyOp57
 70
     1
102
RTVSPropertyOp58
 70
     1
102
RTVSPropertyOp59
 70
     1
102
RTVSPropertyOp60
 70
     1
102
RTVSPropertyOp61
 70
     1
102
RTVSPropertyOp62
 70
     1
  0
XRECORD
  5
5109
102
{ACAD_REACTORS
330
5108
102
}
330
5108
100
AcDbXrecord
280
     1
102
RTVSPost2010Prop28
280
     0
102
RTVSPost2010PropOp28
 70
     1
102
RTVSPost2010Prop29
280
     1
102
RTVSPost2010PropOp29
 70
     1
102
RTVSPost2010Prop30
280
     1
102
RTVSPost2010PropOp30
 70
     1
102
RTVSPost2010Prop31
280
     0
102
RTVSPost2010PropOp31
 70
     1
102
RTVSPost2010Prop32
280
     0
102
RTVSPost2010PropOp32
 70
     1
102
RTVSPost2010Prop33
280
     0
102
RTVSPost2010PropOp33
 70
     1
102
RTVSPost2010Prop34
280
     0
102
RTVSPost2010PropOp34
 70
     1
102
RTVSPost2010Prop35
280
     0
102
RTVSPost2010PropOp35
 70
     1
102
RTVSPost2010Prop36
280
     0
102
RTVSPost2010PropOp36
 70
     1
102
RTVSPost2010Prop37
 90
       50
102
RTVSPost2010PropOp37
 70
     1
102
RTVSPost2010Prop38
140
0.0
102
RTVSPost2010PropOp38
 70
     1
102
RTVSPost2010Prop39
140
1.0
102
RTVSPost2010PropOp39
 70
     1
102
RTVSPost2010Prop40
 90
        0
102
RTVSPost2010PropOp40
 70
     1
102
RTVSPost2010Prop41ColorIndex
 90
       18
102
RTVSPost2010Prop41ColorRGB
 90
        0
102
RTVSPost2010PropOp41
 70
     1
102
RTVSPost2010Prop42
 90
       50
102
RTVSPost2010PropOp42
 70
     1
102
RTVSPost2010Prop43
 90
        3
102
RTVSPost2010PropOp43
 70
     1
102
RTVSPost2010Prop44ColorIndex
 90
        5
102
RTVSPost2010Prop44ColorRGB
 90
      255
102
RTVSPost2010PropOp44
 70
     1
102
RTVSPost2010Prop45
280
     0
102
RTVSPost2010PropOp45
 70
     1
102
RTVSPost2010Prop46
 90
       50
102
RTVSPost2010PropOp46
 70
     1
102
RTVSPost2010Prop47
 90
       50
102
RTVSPost2010PropOp47
 70
     1
102
RTVSPost2010Prop48
 90
       50
102
RTVSPost2010PropOp48
 70
     1
102
RTVSPost2010Prop49
280
     0
102
RTVSPost2010PropOp49
 70
     1
102
RTVSPost2010Prop50
 90
       50
102
RTVSPost2010PropOp50
 70
     1
102
RTVSPost2010Prop51ColorIndex
 90
      256
102
RTVSPost2010Prop51ColorRGB
 90
-16777216
102
RTVSPost2010PropOp51
 70
     0
102
RTVSPost2010Prop52
140
1.0
102
RTVSPost2010PropOp52
 70
     0
102
RTVSPost2010Prop53
 90
        2
102
RTVSPost2010PropOp53
 70
     1
102
RTVSPost2010Prop54
  1
strokes_ogs.tif
102
RTVSPost2010PropOp54
 70
     1
102
RTVSPost2010Prop55
280
     0
102
RTVSPost2010PropOp55
 70
     1
102
RTVSPost2010Prop56
140
1.0
102
RTVSPost2010PropOp56
 70
     1
102
RTVSPost2010Prop57
140
1.0
102
RTVSPost2010PropOp57
 70
     1
102
RTVSPropertyOp0
 70
     1
102
RTVSPropertyOp1
 70
     1
102
RTVSPropertyOp2
 70
     1
102
RTVSPropertyOp3
 70
     1
102
RTVSPropertyOp4
 70
     1
102
RTVSPropertyOp5
 70
     1
102
RTVSPropertyOp6
 70
     1
102
RTVSPropertyOp7
 70
     1
102
RTVSPropertyOp8
 70
     1
102
RTVSPropertyOp9
 70
     1
102
RTVSPropertyOp10
 70
     1
102
RTVSPropertyOp11
 70
     1
102
RTVSPropertyOp12
 70
     1
102
RTVSPropertyOp13
 70
     1
102
RTVSPropertyOp14
 70
     1
102
RTVSPropertyOp15
 70
     1
102
RTVSPropertyOp16
 70
     1
102
RTVSPropertyOp17
 70
     1
102
RTVSPropertyOp18
 70
     1
102
RTVSPropertyOp19
 70
     1
102
RTVSPropertyOp20
 70
     1
102
RTVSPropertyOp21
 70
     1
102
RTVSPropertyOp22
 70
     1
102
RTVSPropertyOp23
 70
     1
102
RTVSPropertyOp24
 70
     1
102
RTVSPropertyOp25
 70
     1
102
RTVSPropertyOp26
 70
     1
102
RTVSPropertyOp27
 70
     1
102
RTVSPropertyOp28
 70
     1
102
RTVSPropertyOp29
 70
     1
102
RTVSPropertyOp30
 70
     1
102
RTVSPropertyOp31
 70
     1
102
RTVSPropertyOp32
 70
     1
102
RTVSPropertyOp33
 70
     1
102
RTVSPropertyOp34
 70
     1
102
RTVSPropertyOp35
 70
     1
102
RTVSPropertyOp36
 70
     1
102
RTVSPropertyOp37
 70
     1
102
RTVSPropertyOp38
 70
     1
102
RTVSPropertyOp39
 70
     1
102
RTVSPropertyOp40
 70
     1
102
RTVSPropertyOp41
 70
     1
102
RTVSPropertyOp42
 70
     1
102
RTVSPropertyOp43
 70
     1
102
RTVSPropertyOp44
 70
     1
102
RTVSPropertyOp45
 70
     1
102
RTVSPropertyOp46
 70
     1
102
RTVSPropertyOp47
 70
     1
102
RTVSPropertyOp48
 70
     1
102
RTVSPropertyOp49
 70
     1
102
RTVSPropertyOp50
 70
     1
102
RTVSPropertyOp51
 70
     0
102
RTVSPropertyOp52
 70
     0
102
RTVSPropertyOp53
 70
     1
102
RTVSPropertyOp54
 70
     1
102
RTVSPropertyOp55
 70
     1
102
RTVSPropertyOp56
 70
     1
102
RTVSPropertyOp57
 70
     1
102
RTVSPropertyOp58
 70
     1
102
RTVSPropertyOp59
 70
     1
102
RTVSPropertyOp60
 70
     1
102
RTVSPropertyOp61
 70
     1
102
RTVSPropertyOp62
 70
     1
  0
XRECORD
  5
510B
102
{ACAD_REACTORS
330
510A
102
}
330
510A
100
AcDbXrecord
280
     1
102
RTVSPost2010Prop28
280
     0
102
RTVSPost2010PropOp28
 70
     1
102
RTVSPost2010Prop29
280
     1
102
RTVSPost2010PropOp29
 70
     1
102
RTVSPost2010Prop30
280
     1
102
RTVSPost2010PropOp30
 70
     1
102
RTVSPost2010Prop31
280
     0
102
RTVSPost2010PropOp31
 70
     1
102
RTVSPost2010Prop32
280
     0
102
RTVSPost2010PropOp32
 70
     1
102
RTVSPost2010Prop33
280
     0
102
RTVSPost2010PropOp33
 70
     1
102
RTVSPost2010Prop34
280
     0
102
RTVSPost2010PropOp34
 70
     1
102
RTVSPost2010Prop35
280
     0
102
RTVSPost2010PropOp35
 70
     1
102
RTVSPost2010Prop36
280
     0
102
RTVSPost2010PropOp36
 70
     1
102
RTVSPost2010Prop37
 90
       50
102
RTVSPost2010PropOp37
 70
     1
102
RTVSPost2010Prop38
140
0.0
102
RTVSPost2010PropOp38
 70
     1
102
RTVSPost2010Prop39
140
1.0
102
RTVSPost2010PropOp39
 70
     1
102
RTVSPost2010Prop40
 90
        0
102
RTVSPost2010PropOp40
 70
     1
102
RTVSPost2010Prop41ColorIndex
 90
       18
102
RTVSPost2010Prop41ColorRGB
 90
        0
102
RTVSPost2010PropOp41
 70
     1
102
RTVSPost2010Prop42
 90
       50
102
RTVSPost2010PropOp42
 70
     1
102
RTVSPost2010Prop43
 90
        3
102
RTVSPost2010PropOp43
 70
     1
102
RTVSPost2010Prop44ColorIndex
 90
        5
102
RTVSPost2010Prop44ColorRGB
 90
      255
102
RTVSPost2010PropOp44
 70
     1
102
RTVSPost2010Prop45
280
     0
102
RTVSPost2010PropOp45
 70
     1
102
RTVSPost2010Prop46
 90
       50
102
RTVSPost2010PropOp46
 70
     1
102
RTVSPost2010Prop47
 90
       50
102
RTVSPost2010PropOp47
 70
     1
102
RTVSPost2010Prop48
 90
       50
102
RTVSPost2010PropOp48
 70
     1
102
RTVSPost2010Prop49
280
     0
102
RTVSPost2010PropOp49
 70
     1
102
RTVSPost2010Prop50
 90
       50
102
RTVSPost2010PropOp50
 70
     1
102
RTVSPost2010Prop51ColorIndex
 90
      256
102
RTVSPost2010Prop51ColorRGB
 90
-16777216
102
RTVSPost2010PropOp51
 70
     0
102
RTVSPost2010Prop52
140
1.0
102
RTVSPost2010PropOp52
 70
     0
102
RTVSPost2010Prop53
 90
        2
102
RTVSPost2010PropOp53
 70
     1
102
RTVSPost2010Prop54
  1
strokes_ogs.tif
102
RTVSPost2010PropOp54
 70
     1
102
RTVSPost2010Prop55
280
     0
102
RTVSPost2010PropOp55
 70
     1
102
RTVSPost2010Prop56
140
1.0
102
RTVSPost2010PropOp56
 70
     1
102
RTVSPost2010Prop57
140
1.0
102
RTVSPost2010PropOp57
 70
     1
102
RTVSPropertyOp0
 70
     1
102
RTVSPropertyOp1
 70
     1
102
RTVSPropertyOp2
 70
     1
102
RTVSPropertyOp3
 70
     1
102
RTVSPropertyOp4
 70
     1
102
RTVSPropertyOp5
 70
     1
102
RTVSPropertyOp6
 70
     1
102
RTVSPropertyOp7
 70
     1
102
RTVSPropertyOp8
 70
     1
102
RTVSPropertyOp9
 70
     1
102
RTVSPropertyOp10
 70
     1
102
RTVSPropertyOp11
 70
     1
102
RTVSPropertyOp12
 70
     1
102
RTVSPropertyOp13
 70
     1
102
RTVSPropertyOp14
 70
     1
102
RTVSPropertyOp15
 70
     1
102
RTVSPropertyOp16
 70
     1
102
RTVSPropertyOp17
 70
     1
102
RTVSPropertyOp18
 70
     1
102
RTVSPropertyOp19
 70
     1
102
RTVSPropertyOp20
 70
     1
102
RTVSPropertyOp21
 70
     1
102
RTVSPropertyOp22
 70
     1
102
RTVSPropertyOp23
 70
     1
102
RTVSPropertyOp24
 70
     1
102
RTVSPropertyOp25
 70
     1
102
RTVSPropertyOp26
 70
     1
102
RTVSPropertyOp27
 70
     1
102
RTVSPropertyOp28
 70
     1
102
RTVSPropertyOp29
 70
     1
102
RTVSPropertyOp30
 70
     1
102
RTVSPropertyOp31
 70
     1
102
RTVSPropertyOp32
 70
     1
102
RTVSPropertyOp33
 70
     1
102
RTVSPropertyOp34
 70
     1
102
RTVSPropertyOp35
 70
     1
102
RTVSPropertyOp36
 70
     1
102
RTVSPropertyOp37
 70
     1
102
RTVSPropertyOp38
 70
     1
102
RTVSPropertyOp39
 70
     1
102
RTVSPropertyOp40
 70
     1
102
RTVSPropertyOp41
 70
     1
102
RTVSPropertyOp42
 70
     1
102
RTVSPropertyOp43
 70
     1
102
RTVSPropertyOp44
 70
     1
102
RTVSPropertyOp45
 70
     1
102
RTVSPropertyOp46
 70
     1
102
RTVSPropertyOp47
 70
     1
102
RTVSPropertyOp48
 70
     1
102
RTVSPropertyOp49
 70
     1
102
RTVSPropertyOp50
 70
     1
102
RTVSPropertyOp51
 70
     0
102
RTVSPropertyOp52
 70
     0
102
RTVSPropertyOp53
 70
     1
102
RTVSPropertyOp54
 70
     1
102
RTVSPropertyOp55
 70
     1
102
RTVSPropertyOp56
 70
     1
102
RTVSPropertyOp57
 70
     1
102
RTVSPropertyOp58
 70
     1
102
RTVSPropertyOp59
 70
     1
102
RTVSPropertyOp60
 70
     1
102
RTVSPropertyOp61
 70
     1
102
RTVSPropertyOp62
 70
     1
  0
XRECORD
  5
510D
102
{ACAD_REACTORS
330
510C
102
}
330
510C
100
AcDbXrecord
280
     1
102
RTVSPost2010Prop28
280
     0
102
RTVSPost2010PropOp28
 70
     1
102
RTVSPost2010Prop29
280
     1
102
RTVSPost2010PropOp29
 70
     1
102
RTVSPost2010Prop30
280
     1
102
RTVSPost2010PropOp30
 70
     1
102
RTVSPost2010Prop31
280
     0
102
RTVSPost2010PropOp31
 70
     1
102
RTVSPost2010Prop32
280
     0
102
RTVSPost2010PropOp32
 70
     1
102
RTVSPost2010Prop33
280
     0
102
RTVSPost2010PropOp33
 70
     1
102
RTVSPost2010Prop34
280
     0
102
RTVSPost2010PropOp34
 70
     1
102
RTVSPost2010Prop35
280
     0
102
RTVSPost2010PropOp35
 70
     1
102
RTVSPost2010Prop36
280
     0
102
RTVSPost2010PropOp36
 70
     1
102
RTVSPost2010Prop37
 90
       50
102
RTVSPost2010PropOp37
 70
     1
102
RTVSPost2010Prop38
140
0.0
102
RTVSPost2010PropOp38
 70
     1
102
RTVSPost2010Prop39
140
1.0
102
RTVSPost2010PropOp39
 70
     1
102
RTVSPost2010Prop40
 90
        0
102
RTVSPost2010PropOp40
 70
     1
102
RTVSPost2010Prop41ColorIndex
 90
       18
102
RTVSPost2010Prop41ColorRGB
 90
        0
102
RTVSPost2010PropOp41
 70
     1
102
RTVSPost2010Prop42
 90
       50
102
RTVSPost2010PropOp42
 70
     1
102
RTVSPost2010Prop43
 90
        3
102
RTVSPost2010PropOp43
 70
     1
102
RTVSPost2010Prop44ColorIndex
 90
        5
102
RTVSPost2010Prop44ColorRGB
 90
      255
102
RTVSPost2010PropOp44
 70
     1
102
RTVSPost2010Prop45
280
     0
102
RTVSPost2010PropOp45
 70
     1
102
RTVSPost2010Prop46
 90
       50
102
RTVSPost2010PropOp46
 70
     1
102
RTVSPost2010Prop47
 90
       50
102
RTVSPost2010PropOp47
 70
     1
102
RTVSPost2010Prop48
 90
       50
102
RTVSPost2010PropOp48
 70
     1
102
RTVSPost2010Prop49
280
     0
102
RTVSPost2010PropOp49
 70
     1
102
RTVSPost2010Prop50
 90
       50
102
RTVSPost2010PropOp50
 70
     1
102
RTVSPost2010Prop51ColorIndex
 90
      256
102
RTVSPost2010Prop51ColorRGB
 90
-16777216
102
RTVSPost2010PropOp51
 70
     0
102
RTVSPost2010Prop52
140
1.0
102
RTVSPost2010PropOp52
 70
     0
102
RTVSPost2010Prop53
 90
        2
102
RTVSPost2010PropOp53
 70
     1
102
RTVSPost2010Prop54
  1
strokes_ogs.tif
102
RTVSPost2010PropOp54
 70
     1
102
RTVSPost2010Prop55
280
     0
102
RTVSPost2010PropOp55
 70
     1
102
RTVSPost2010Prop56
140
1.0
102
RTVSPost2010PropOp56
 70
     1
102
RTVSPost2010Prop57
140
1.0
102
RTVSPost2010PropOp57
 70
     1
102
RTVSPropertyOp0
 70
     1
102
RTVSPropertyOp1
 70
     1
102
RTVSPropertyOp2
 70
     1
102
RTVSPropertyOp3
 70
     1
102
RTVSPropertyOp4
 70
     1
102
RTVSPropertyOp5
 70
     1
102
RTVSPropertyOp6
 70
     1
102
RTVSPropertyOp7
 70
     1
102
RTVSPropertyOp8
 70
     1
102
RTVSPropertyOp9
 70
     1
102
RTVSPropertyOp10
 70
     1
102
RTVSPropertyOp11
 70
     1
102
RTVSPropertyOp12
 70
     1
102
RTVSPropertyOp13
 70
     1
102
RTVSPropertyOp14
 70
     1
102
RTVSPropertyOp15
 70
     1
102
RTVSPropertyOp16
 70
     1
102
RTVSPropertyOp17
 70
     1
102
RTVSPropertyOp18
 70
     1
102
RTVSPropertyOp19
 70
     1
102
RTVSPropertyOp20
 70
     1
102
RTVSPropertyOp21
 70
     1
102
RTVSPropertyOp22
 70
     1
102
RTVSPropertyOp23
 70
     1
102
RTVSPropertyOp24
 70
     1
102
RTVSPropertyOp25
 70
     1
102
RTVSPropertyOp26
 70
     1
102
RTVSPropertyOp27
 70
     1
102
RTVSPropertyOp28
 70
     1
102
RTVSPropertyOp29
 70
     1
102
RTVSPropertyOp30
 70
     1
102
RTVSPropertyOp31
 70
     1
102
RTVSPropertyOp32
 70
     1
102
RTVSPropertyOp33
 70
     1
102
RTVSPropertyOp34
 70
     1
102
RTVSPropertyOp35
 70
     1
102
RTVSPropertyOp36
 70
     1
102
RTVSPropertyOp37
 70
     1
102
RTVSPropertyOp38
 70
     1
102
RTVSPropertyOp39
 70
     1
102
RTVSPropertyOp40
 70
     1
102
RTVSPropertyOp41
 70
     1
102
RTVSPropertyOp42
 70
     1
102
RTVSPropertyOp43
 70
     1
102
RTVSPropertyOp44
 70
     1
102
RTVSPropertyOp45
 70
     1
102
RTVSPropertyOp46
 70
     1
102
RTVSPropertyOp47
 70
     1
102
RTVSPropertyOp48
 70
     1
102
RTVSPropertyOp49
 70
     1
102
RTVSPropertyOp50
 70
     1
102
RTVSPropertyOp51
 70
     0
102
RTVSPropertyOp52
 70
     0
102
RTVSPropertyOp53
 70
     1
102
RTVSPropertyOp54
 70
     1
102
RTVSPropertyOp55
 70
     1
102
RTVSPropertyOp56
 70
     1
102
RTVSPropertyOp57
 70
     1
102
RTVSPropertyOp58
 70
     1
102
RTVSPropertyOp59
 70
     1
102
RTVSPropertyOp60
 70
     1
102
RTVSPropertyOp61
 70
     1
102
RTVSPropertyOp62
 70
     1
  0
XRECORD
  5
5115
102
{ACAD_REACTORS
330
5114
102
}
330
5114
100
AcDbXrecord
280
     1
102
RTVSPost2010Prop28
280
     0
102
RTVSPost2010PropOp28
 70
     1
102
RTVSPost2010Prop29
280
     1
102
RTVSPost2010PropOp29
 70
     1
102
RTVSPost2010Prop30
280
     1
102
RTVSPost2010PropOp30
 70
     1
102
RTVSPost2010Prop31
280
     0
102
RTVSPost2010PropOp31
 70
     1
102
RTVSPost2010Prop32
280
     0
102
RTVSPost2010PropOp32
 70
     1
102
RTVSPost2010Prop33
280
     0
102
RTVSPost2010PropOp33
 70
     1
102
RTVSPost2010Prop34
280
     0
102
RTVSPost2010PropOp34
 70
     1
102
RTVSPost2010Prop35
280
     0
102
RTVSPost2010PropOp35
 70
     1
102
RTVSPost2010Prop36
280
     0
102
RTVSPost2010PropOp36
 70
     1
102
RTVSPost2010Prop37
 90
       50
102
RTVSPost2010PropOp37
 70
     1
102
RTVSPost2010Prop38
140
0.0
102
RTVSPost2010PropOp38
 70
     1
102
RTVSPost2010Prop39
140
1.0
102
RTVSPost2010PropOp39
 70
     1
102
RTVSPost2010Prop40
 90
        0
102
RTVSPost2010PropOp40
 70
     1
102
RTVSPost2010Prop41ColorIndex
 90
       18
102
RTVSPost2010Prop41ColorRGB
 90
        0
102
RTVSPost2010PropOp41
 70
     1
102
RTVSPost2010Prop42
 90
       50
102
RTVSPost2010PropOp42
 70
     1
102
RTVSPost2010Prop43
 90
        3
102
RTVSPost2010PropOp43
 70
     1
102
RTVSPost2010Prop44ColorIndex
 90
        5
102
RTVSPost2010Prop44ColorRGB
 90
      255
102
RTVSPost2010PropOp44
 70
     1
102
RTVSPost2010Prop45
280
     0
102
RTVSPost2010PropOp45
 70
     1
102
RTVSPost2010Prop46
 90
       50
102
RTVSPost2010PropOp46
 70
     1
102
RTVSPost2010Prop47
 90
       50
102
RTVSPost2010PropOp47
 70
     1
102
RTVSPost2010Prop48
 90
       50
102
RTVSPost2010PropOp48
 70
     1
102
RTVSPost2010Prop49
280
     0
102
RTVSPost2010PropOp49
 70
     1
102
RTVSPost2010Prop50
 90
       50
102
RTVSPost2010PropOp50
 70
     1
102
RTVSPost2010Prop51ColorIndex
 90
      256
102
RTVSPost2010Prop51ColorRGB
 90
-16777216
102
RTVSPost2010PropOp51
 70
     0
102
RTVSPost2010Prop52
140
1.0
102
RTVSPost2010PropOp52
 70
     0
102
RTVSPost2010Prop53
 90
        2
102
RTVSPost2010PropOp53
 70
     1
102
RTVSPost2010Prop54
  1
strokes_ogs.tif
102
RTVSPost2010PropOp54
 70
     1
102
RTVSPost2010Prop55
280
     0
102
RTVSPost2010PropOp55
 70
     1
102
RTVSPost2010Prop56
140
1.0
102
RTVSPost2010PropOp56
 70
     1
102
RTVSPost2010Prop57
140
1.0
102
RTVSPost2010PropOp57
 70
     1
102
RTVSPropertyOp0
 70
     1
102
RTVSPropertyOp1
 70
     1
102
RTVSPropertyOp2
 70
     1
102
RTVSPropertyOp3
 70
     1
102
RTVSPropertyOp4
 70
     1
102
RTVSPropertyOp5
 70
     1
102
RTVSPropertyOp6
 70
     1
102
RTVSPropertyOp7
 70
     1
102
RTVSPropertyOp8
 70
     1
102
RTVSPropertyOp9
 70
     1
102
RTVSPropertyOp10
 70
     1
102
RTVSPropertyOp11
 70
     1
102
RTVSPropertyOp12
 70
     1
102
RTVSPropertyOp13
 70
     1
102
RTVSPropertyOp14
 70
     1
102
RTVSPropertyOp15
 70
     1
102
RTVSPropertyOp16
 70
     1
102
RTVSPropertyOp17
 70
     1
102
RTVSPropertyOp18
 70
     1
102
RTVSPropertyOp19
 70
     1
102
RTVSPropertyOp20
 70
     1
102
RTVSPropertyOp21
 70
     1
102
RTVSPropertyOp22
 70
     1
102
RTVSPropertyOp23
 70
     1
102
RTVSPropertyOp24
 70
     1
102
RTVSPropertyOp25
 70
     1
102
RTVSPropertyOp26
 70
     1
102
RTVSPropertyOp27
 70
     1
102
RTVSPropertyOp28
 70
     1
102
RTVSPropertyOp29
 70
     1
102
RTVSPropertyOp30
 70
     1
102
RTVSPropertyOp31
 70
     1
102
RTVSPropertyOp32
 70
     1
102
RTVSPropertyOp33
 70
     1
102
RTVSPropertyOp34
 70
     1
102
RTVSPropertyOp35
 70
     1
102
RTVSPropertyOp36
 70
     1
102
RTVSPropertyOp37
 70
     1
102
RTVSPropertyOp38
 70
     1
102
RTVSPropertyOp39
 70
     1
102
RTVSPropertyOp40
 70
     1
102
RTVSPropertyOp41
 70
     1
102
RTVSPropertyOp42
 70
     1
102
RTVSPropertyOp43
 70
     1
102
RTVSPropertyOp44
 70
     1
102
RTVSPropertyOp45
 70
     1
102
RTVSPropertyOp46
 70
     1
102
RTVSPropertyOp47
 70
     1
102
RTVSPropertyOp48
 70
     1
102
RTVSPropertyOp49
 70
     1
102
RTVSPropertyOp50
 70
     1
102
RTVSPropertyOp51
 70
     0
102
RTVSPropertyOp52
 70
     0
102
RTVSPropertyOp53
 70
     1
102
RTVSPropertyOp54
 70
     1
102
RTVSPropertyOp55
 70
     1
102
RTVSPropertyOp56
 70
     1
102
RTVSPropertyOp57
 70
     1
102
RTVSPropertyOp58
 70
     1
102
RTVSPropertyOp59
 70
     1
102
RTVSPropertyOp60
 70
     1
102
RTVSPropertyOp61
 70
     1
102
RTVSPropertyOp62
 70
     1
  0
XRECORD
  5
5131
102
{ACAD_REACTORS
330
5130
102
}
330
5130
100
AcDbXrecord
280
     1
102
RTVSPost2010Prop28
280
     0
102
RTVSPost2010PropOp28
 70
     0
102
RTVSPost2010Prop29
280
     1
102
RTVSPost2010PropOp29
 70
     0
102
RTVSPost2010Prop30
280
     1
102
RTVSPost2010PropOp30
 70
     0
102
RTVSPost2010Prop31
280
     0
102
RTVSPost2010PropOp31
 70
     0
102
RTVSPost2010Prop32
280
     0
102
RTVSPost2010PropOp32
 70
     0
102
RTVSPost2010Prop33
280
     0
102
RTVSPost2010PropOp33
 70
     0
102
RTVSPost2010Prop34
280
     0
102
RTVSPost2010PropOp34
 70
     0
102
RTVSPost2010Prop35
280
     0
102
RTVSPost2010PropOp35
 70
     0
102
RTVSPost2010Prop36
280
     0
102
RTVSPost2010PropOp36
 70
     0
102
RTVSPost2010Prop37
 90
       50
102
RTVSPost2010PropOp37
 70
     0
102
RTVSPost2010Prop38
140
0.0
102
RTVSPost2010PropOp38
 70
     0
102
RTVSPost2010Prop39
140
1.0
102
RTVSPost2010PropOp39
 70
     0
102
RTVSPost2010Prop40
 90
        0
102
RTVSPost2010PropOp40
 70
     0
102
RTVSPost2010Prop41ColorIndex
 90
       18
102
RTVSPost2010Prop41ColorRGB
 90
        0
102
RTVSPost2010PropOp41
 70
     0
102
RTVSPost2010Prop42
 90
       50
102
RTVSPost2010PropOp42
 70
     0
102
RTVSPost2010Prop43
 90
        3
102
RTVSPost2010PropOp43
 70
     0
102
RTVSPost2010Prop44ColorIndex
 90
        5
102
RTVSPost2010Prop44ColorRGB
 90
      255
102
RTVSPost2010PropOp44
 70
     0
102
RTVSPost2010Prop45
280
     0
102
RTVSPost2010PropOp45
 70
     0
102
RTVSPost2010Prop46
 90
       50
102
RTVSPost2010PropOp46
 70
     0
102
RTVSPost2010Prop47
 90
       50
102
RTVSPost2010PropOp47
 70
     0
102
RTVSPost2010Prop48
 90
       50
102
RTVSPost2010PropOp48
 70
     0
102
RTVSPost2010Prop49
280
     0
102
RTVSPost2010PropOp49
 70
     0
102
RTVSPost2010Prop50
 90
       50
102
RTVSPost2010PropOp50
 70
     0
102
RTVSPost2010Prop51ColorIndex
 90
      256
102
RTVSPost2010Prop51ColorRGB
 90
-16777216
102
RTVSPost2010PropOp51
 70
     0
102
RTVSPost2010Prop52
140
1.0
102
RTVSPost2010PropOp52
 70
     0
102
RTVSPost2010Prop53
 90
        2
102
RTVSPost2010PropOp53
 70
     0
102
RTVSPost2010Prop54
  1
strokes_ogs.tif
102
RTVSPost2010PropOp54
 70
     0
102
RTVSPost2010Prop55
280
     0
102
RTVSPost2010PropOp55
 70
     0
102
RTVSPost2010Prop56
140
1.0
102
RTVSPost2010PropOp56
 70
     0
102
RTVSPost2010Prop57
140
1.0
102
RTVSPost2010PropOp57
 70
     0
102
RTVSPropertyOp0
 70
     0
102
RTVSPropertyOp1
 70
     0
102
RTVSPropertyOp2
 70
     0
102
RTVSPropertyOp3
 70
     0
102
RTVSPropertyOp4
 70
     0
102
RTVSPropertyOp5
 70
     0
102
RTVSPropertyOp6
 70
     0
102
RTVSPropertyOp7
 70
     0
102
RTVSPropertyOp8
 70
     0
102
RTVSPropertyOp9
 70
     0
102
RTVSPropertyOp10
 70
     0
102
RTVSPropertyOp11
 70
     0
102
RTVSPropertyOp12
 70
     0
102
RTVSPropertyOp13
 70
     0
102
RTVSPropertyOp14
 70
     2
102
RTVSPropertyOp15
 70
     0
102
RTVSPropertyOp16
 70
     0
102
RTVSPropertyOp17
 70
     0
102
RTVSPropertyOp18
 70
     0
102
RTVSPropertyOp19
 70
     0
102
RTVSPropertyOp20
 70
     0
102
RTVSPropertyOp21
 70
     0
102
RTVSPropertyOp22
 70
     0
102
RTVSPropertyOp23
 70
     0
102
RTVSPropertyOp24
 70
     0
102
RTVSPropertyOp25
 70
     0
102
RTVSPropertyOp26
 70
     0
102
RTVSPropertyOp27
 70
     0
102
RTVSPropertyOp28
 70
     0
102
RTVSPropertyOp29
 70
     0
102
RTVSPropertyOp30
 70
     0
102
RTVSPropertyOp31
 70
     0
102
RTVSPropertyOp32
 70
     0
102
RTVSPropertyOp33
 70
     0
102
RTVSPropertyOp34
 70
     0
102
RTVSPropertyOp35
 70
     0
102
RTVSPropertyOp36
 70
     0
102
RTVSPropertyOp37
 70
     0
102
RTVSPropertyOp38
 70
     0
102
RTVSPropertyOp39
 70
     0
102
RTVSPropertyOp40
 70
     0
102
RTVSPropertyOp41
 70
     0
102
RTVSPropertyOp42
 70
     0
102
RTVSPropertyOp43
 70
     0
102
RTVSPropertyOp44
 70
     0
102
RTVSPropertyOp45
 70
     0
102
RTVSPropertyOp46
 70
     0
102
RTVSPropertyOp47
 70
     0
102
RTVSPropertyOp48
 70
     0
102
RTVSPropertyOp49
 70
     0
102
RTVSPropertyOp50
 70
     0
102
RTVSPropertyOp51
 70
     0
102
RTVSPropertyOp52
 70
     0
102
RTVSPropertyOp53
 70
     0
102
RTVSPropertyOp54
 70
     0
102
RTVSPropertyOp55
 70
     0
102
RTVSPropertyOp56
 70
     0
102
RTVSPropertyOp57
 70
     0
102
RTVSPropertyOp58
 70
     1
102
RTVSPropertyOp59
 70
     1
102
RTVSPropertyOp60
 70
     1
102
RTVSPropertyOp61
 70
     1
102
RTVSPropertyOp62
 70
     1
  0
XRECORD
  5
5121
102
{ACAD_REACTORS
330
5120
102
}
330
5120
100
AcDbXrecord
280
     1
102
RTVSPost2010Prop28
280
     0
102
RTVSPost2010PropOp28
 70
     1
102
RTVSPost2010Prop29
280
     1
102
RTVSPost2010PropOp29
 70
     1
102
RTVSPost2010Prop30
280
     1
102
RTVSPost2010PropOp30
 70
     1
102
RTVSPost2010Prop31
280
     0
102
RTVSPost2010PropOp31
 70
     1
102
RTVSPost2010Prop32
280
     0
102
RTVSPost2010PropOp32
 70
     1
102
RTVSPost2010Prop33
280
     0
102
RTVSPost2010PropOp33
 70
     1
102
RTVSPost2010Prop34
280
     0
102
RTVSPost2010PropOp34
 70
     1
102
RTVSPost2010Prop35
280
     0
102
RTVSPost2010PropOp35
 70
     1
102
RTVSPost2010Prop36
280
     0
102
RTVSPost2010PropOp36
 70
     1
102
RTVSPost2010Prop37
 90
       50
102
RTVSPost2010PropOp37
 70
     1
102
RTVSPost2010Prop38
140
0.0
102
RTVSPost2010PropOp38
 70
     1
102
RTVSPost2010Prop39
140
1.0
102
RTVSPost2010PropOp39
 70
     1
102
RTVSPost2010Prop40
 90
        0
102
RTVSPost2010PropOp40
 70
     1
102
RTVSPost2010Prop41ColorIndex
 90
       18
102
RTVSPost2010Prop41ColorRGB
 90
        0
102
RTVSPost2010PropOp41
 70
     1
102
RTVSPost2010Prop42
 90
       50
102
RTVSPost2010PropOp42
 70
     1
102
RTVSPost2010Prop43
 90
        3
102
RTVSPost2010PropOp43
 70
     1
102
RTVSPost2010Prop44ColorIndex
 90
        5
102
RTVSPost2010Prop44ColorRGB
 90
      255
102
RTVSPost2010PropOp44
 70
     1
102
RTVSPost2010Prop45
280
     0
102
RTVSPost2010PropOp45
 70
     1
102
RTVSPost2010Prop46
 90
       50
102
RTVSPost2010PropOp46
 70
     1
102
RTVSPost2010Prop47
 90
       50
102
RTVSPost2010PropOp47
 70
     1
102
RTVSPost2010Prop48
 90
       50
102
RTVSPost2010PropOp48
 70
     1
102
RTVSPost2010Prop49
280
     0
102
RTVSPost2010PropOp49
 70
     1
102
RTVSPost2010Prop50
 90
       50
102
RTVSPost2010PropOp50
 70
     1
102
RTVSPost2010Prop51ColorIndex
 90
      256
102
RTVSPost2010Prop51ColorRGB
 90
-16777216
102
RTVSPost2010PropOp51
 70
     0
102
RTVSPost2010Prop52
140
1.0
102
RTVSPost2010PropOp52
 70
     0
102
RTVSPost2010Prop53
 90
        2
102
RTVSPost2010PropOp53
 70
     1
102
RTVSPost2010Prop54
  1
strokes_ogs.tif
102
RTVSPost2010PropOp54
 70
     1
102
RTVSPost2010Prop55
280
     0
102
RTVSPost2010PropOp55
 70
     1
102
RTVSPost2010Prop56
140
1.0
102
RTVSPost2010PropOp56
 70
     1
102
RTVSPost2010Prop57
140
1.0
102
RTVSPost2010PropOp57
 70
     1
102
RTVSPropertyOp0
 70
     1
102
RTVSPropertyOp1
 70
     1
102
RTVSPropertyOp2
 70
     1
102
RTVSPropertyOp3
 70
     1
102
RTVSPropertyOp4
 70
     1
102
RTVSPropertyOp5
 70
     1
102
RTVSPropertyOp6
 70
     1
102
RTVSPropertyOp7
 70
     1
102
RTVSPropertyOp8
 70
     1
102
RTVSPropertyOp9
 70
     1
102
RTVSPropertyOp10
 70
     1
102
RTVSPropertyOp11
 70
     1
102
RTVSPropertyOp12
 70
     1
102
RTVSPropertyOp13
 70
     1
102
RTVSPropertyOp14
 70
     1
102
RTVSPropertyOp15
 70
     1
102
RTVSPropertyOp16
 70
     1
102
RTVSPropertyOp17
 70
     1
102
RTVSPropertyOp18
 70
     1
102
RTVSPropertyOp19
 70
     1
102
RTVSPropertyOp20
 70
     1
102
RTVSPropertyOp21
 70
     1
102
RTVSPropertyOp22
 70
     1
102
RTVSPropertyOp23
 70
     1
102
RTVSPropertyOp24
 70
     1
102
RTVSPropertyOp25
 70
     1
102
RTVSPropertyOp26
 70
     1
102
RTVSPropertyOp27
 70
     1
102
RTVSPropertyOp28
 70
     1
102
RTVSPropertyOp29
 70
     1
102
RTVSPropertyOp30
 70
     1
102
RTVSPropertyOp31
 70
     1
102
RTVSPropertyOp32
 70
     1
102
RTVSPropertyOp33
 70
     1
102
RTVSPropertyOp34
 70
     1
102
RTVSPropertyOp35
 70
     1
102
RTVSPropertyOp36
 70
     1
102
RTVSPropertyOp37
 70
     1
102
RTVSPropertyOp38
 70
     1
102
RTVSPropertyOp39
 70
     1
102
RTVSPropertyOp40
 70
     1
102
RTVSPropertyOp41
 70
     1
102
RTVSPropertyOp42
 70
     1
102
RTVSPropertyOp43
 70
     1
102
RTVSPropertyOp44
 70
     1
102
RTVSPropertyOp45
 70
     1
102
RTVSPropertyOp46
 70
     1
102
RTVSPropertyOp47
 70
     1
102
RTVSPropertyOp48
 70
     1
102
RTVSPropertyOp49
 70
     1
102
RTVSPropertyOp50
 70
     1
102
RTVSPropertyOp51
 70
     0
102
RTVSPropertyOp52
 70
     0
102
RTVSPropertyOp53
 70
     1
102
RTVSPropertyOp54
 70
     1
102
RTVSPropertyOp55
 70
     1
102
RTVSPropertyOp56
 70
     1
102
RTVSPropertyOp57
 70
     1
102
RTVSPropertyOp58
 70
     1
102
RTVSPropertyOp59
 70
     1
102
RTVSPropertyOp60
 70
     1
102
RTVSPropertyOp61
 70
     1
102
RTVSPropertyOp62
 70
     1
  0
XRECORD
  5
5133
102
{ACAD_REACTORS
330
5132
102
}
330
5132
100
AcDbXrecord
280
     1
102
RTVSPost2010Prop28
280
     0
102
RTVSPost2010PropOp28
 70
     0
102
RTVSPost2010Prop29
280
     1
102
RTVSPost2010PropOp29
 70
     0
102
RTVSPost2010Prop30
280
     1
102
RTVSPost2010PropOp30
 70
     0
102
RTVSPost2010Prop31
280
     0
102
RTVSPost2010PropOp31
 70
     0
102
RTVSPost2010Prop32
280
     0
102
RTVSPost2010PropOp32
 70
     0
102
RTVSPost2010Prop33
280
     0
102
RTVSPost2010PropOp33
 70
     0
102
RTVSPost2010Prop34
280
     0
102
RTVSPost2010PropOp34
 70
     0
102
RTVSPost2010Prop35
280
     0
102
RTVSPost2010PropOp35
 70
     0
102
RTVSPost2010Prop36
280
     0
102
RTVSPost2010PropOp36
 70
     0
102
RTVSPost2010Prop37
 90
       50
102
RTVSPost2010PropOp37
 70
     0
102
RTVSPost2010Prop38
140
0.0
102
RTVSPost2010PropOp38
 70
     0
102
RTVSPost2010Prop39
140
1.0
102
RTVSPost2010PropOp39
 70
     0
102
RTVSPost2010Prop40
 90
        0
102
RTVSPost2010PropOp40
 70
     0
102
RTVSPost2010Prop41ColorIndex
 90
       18
102
RTVSPost2010Prop41ColorRGB
 90
        0
102
RTVSPost2010PropOp41
 70
     0
102
RTVSPost2010Prop42
 90
       50
102
RTVSPost2010PropOp42
 70
     0
102
RTVSPost2010Prop43
 90
        3
102
RTVSPost2010PropOp43
 70
     0
102
RTVSPost2010Prop44ColorIndex
 90
        5
102
RTVSPost2010Prop44ColorRGB
 90
      255
102
RTVSPost2010PropOp44
 70
     0
102
RTVSPost2010Prop45
280
     0
102
RTVSPost2010PropOp45
 70
     0
102
RTVSPost2010Prop46
 90
       50
102
RTVSPost2010PropOp46
 70
     0
102
RTVSPost2010Prop47
 90
       50
102
RTVSPost2010PropOp47
 70
     0
102
RTVSPost2010Prop48
 90
       50
102
RTVSPost2010PropOp48
 70
     0
102
RTVSPost2010Prop49
280
     0
102
RTVSPost2010PropOp49
 70
     0
102
RTVSPost2010Prop50
 90
       50
102
RTVSPost2010PropOp50
 70
     0
102
RTVSPost2010Prop51ColorIndex
 90
      256
102
RTVSPost2010Prop51ColorRGB
 90
-16777216
102
RTVSPost2010PropOp51
 70
     0
102
RTVSPost2010Prop52
140
1.0
102
RTVSPost2010PropOp52
 70
     0
102
RTVSPost2010Prop53
 90
        2
102
RTVSPost2010PropOp53
 70
     0
102
RTVSPost2010Prop54
  1
strokes_ogs.tif
102
RTVSPost2010PropOp54
 70
     0
102
RTVSPost2010Prop55
280
     0
102
RTVSPost2010PropOp55
 70
     0
102
RTVSPost2010Prop56
140
1.0
102
RTVSPost2010PropOp56
 70
     0
102
RTVSPost2010Prop57
140
1.0
102
RTVSPost2010PropOp57
 70
     0
102
RTVSPropertyOp0
 70
     0
102
RTVSPropertyOp1
 70
     0
102
RTVSPropertyOp2
 70
     0
102
RTVSPropertyOp3
 70
     0
102
RTVSPropertyOp4
 70
     0
102
RTVSPropertyOp5
 70
     0
102
RTVSPropertyOp6
 70
     0
102
RTVSPropertyOp7
 70
     0
102
RTVSPropertyOp8
 70
     0
102
RTVSPropertyOp9
 70
     0
102
RTVSPropertyOp10
 70
     0
102
RTVSPropertyOp11
 70
     0
102
RTVSPropertyOp12
 70
     0
102
RTVSPropertyOp13
 70
     0
102
RTVSPropertyOp14
 70
     2
102
RTVSPropertyOp15
 70
     0
102
RTVSPropertyOp16
 70
     0
102
RTVSPropertyOp17
 70
     0
102
RTVSPropertyOp18
 70
     0
102
RTVSPropertyOp19
 70
     0
102
RTVSPropertyOp20
 70
     0
102
RTVSPropertyOp21
 70
     0
102
RTVSPropertyOp22
 70
     0
102
RTVSPropertyOp23
 70
     0
102
RTVSPropertyOp24
 70
     0
102
RTVSPropertyOp25
 70
     0
102
RTVSPropertyOp26
 70
     0
102
RTVSPropertyOp27
 70
     0
102
RTVSPropertyOp28
 70
     0
102
RTVSPropertyOp29
 70
     0
102
RTVSPropertyOp30
 70
     0
102
RTVSPropertyOp31
 70
     0
102
RTVSPropertyOp32
 70
     0
102
RTVSPropertyOp33
 70
     0
102
RTVSPropertyOp34
 70
     0
102
RTVSPropertyOp35
 70
     0
102
RTVSPropertyOp36
 70
     0
102
RTVSPropertyOp37
 70
     0
102
RTVSPropertyOp38
 70
     0
102
RTVSPropertyOp39
 70
     0
102
RTVSPropertyOp40
 70
     0
102
RTVSPropertyOp41
 70
     0
102
RTVSPropertyOp42
 70
     0
102
RTVSPropertyOp43
 70
     0
102
RTVSPropertyOp44
 70
     0
102
RTVSPropertyOp45
 70
     0
102
RTVSPropertyOp46
 70
     0
102
RTVSPropertyOp47
 70
     0
102
RTVSPropertyOp48
 70
     0
102
RTVSPropertyOp49
 70
     0
102
RTVSPropertyOp50
 70
     0
102
RTVSPropertyOp51
 70
     0
102
RTVSPropertyOp52
 70
     0
102
RTVSPropertyOp53
 70
     0
102
RTVSPropertyOp54
 70
     0
102
RTVSPropertyOp55
 70
     0
102
RTVSPropertyOp56
 70
     0
102
RTVSPropertyOp57
 70
     0
102
RTVSPropertyOp58
 70
     1
102
RTVSPropertyOp59
 70
     1
102
RTVSPropertyOp60
 70
     1
102
RTVSPropertyOp61
 70
     1
102
RTVSPropertyOp62
 70
     1
  0
XRECORD
  5
5119
102
{ACAD_REACTORS
330
5118
102
}
330
5118
100
AcDbXrecord
280
     1
102
RTVSPost2010Prop28
280
     0
102
RTVSPost2010PropOp28
 70
     1
102
RTVSPost2010Prop29
280
     1
102
RTVSPost2010PropOp29
 70
     1
102
RTVSPost2010Prop30
280
     1
102
RTVSPost2010PropOp30
 70
     1
102
RTVSPost2010Prop31
280
     0
102
RTVSPost2010PropOp31
 70
     1
102
RTVSPost2010Prop32
280
     0
102
RTVSPost2010PropOp32
 70
     1
102
RTVSPost2010Prop33
280
     0
102
RTVSPost2010PropOp33
 70
     1
102
RTVSPost2010Prop34
280
     0
102
RTVSPost2010PropOp34
 70
     1
102
RTVSPost2010Prop35
280
     0
102
RTVSPost2010PropOp35
 70
     1
102
RTVSPost2010Prop36
280
     0
102
RTVSPost2010PropOp36
 70
     1
102
RTVSPost2010Prop37
 90
       50
102
RTVSPost2010PropOp37
 70
     1
102
RTVSPost2010Prop38
140
0.0
102
RTVSPost2010PropOp38
 70
     1
102
RTVSPost2010Prop39
140
1.0
102
RTVSPost2010PropOp39
 70
     1
102
RTVSPost2010Prop40
 90
        0
102
RTVSPost2010PropOp40
 70
     1
102
RTVSPost2010Prop41ColorIndex
 90
       18
102
RTVSPost2010Prop41ColorRGB
 90
        0
102
RTVSPost2010PropOp41
 70
     1
102
RTVSPost2010Prop42
 90
       50
102
RTVSPost2010PropOp42
 70
     1
102
RTVSPost2010Prop43
 90
        3
102
RTVSPost2010PropOp43
 70
     1
102
RTVSPost2010Prop44ColorIndex
 90
        5
102
RTVSPost2010Prop44ColorRGB
 90
      255
102
RTVSPost2010PropOp44
 70
     1
102
RTVSPost2010Prop45
280
     0
102
RTVSPost2010PropOp45
 70
     1
102
RTVSPost2010Prop46
 90
       50
102
RTVSPost2010PropOp46
 70
     1
102
RTVSPost2010Prop47
 90
       50
102
RTVSPost2010PropOp47
 70
     1
102
RTVSPost2010Prop48
 90
       50
102
RTVSPost2010PropOp48
 70
     1
102
RTVSPost2010Prop49
280
     0
102
RTVSPost2010PropOp49
 70
     1
102
RTVSPost2010Prop50
 90
       50
102
RTVSPost2010PropOp50
 70
     1
102
RTVSPost2010Prop51ColorIndex
 90
      256
102
RTVSPost2010Prop51ColorRGB
 90
-16777216
102
RTVSPost2010PropOp51
 70
     0
102
RTVSPost2010Prop52
140
1.0
102
RTVSPost2010PropOp52
 70
     0
102
RTVSPost2010Prop53
 90
        2
102
RTVSPost2010PropOp53
 70
     1
102
RTVSPost2010Prop54
  1
strokes_ogs.tif
102
RTVSPost2010PropOp54
 70
     1
102
RTVSPost2010Prop55
280
     0
102
RTVSPost2010PropOp55
 70
     1
102
RTVSPost2010Prop56
140
1.0
102
RTVSPost2010PropOp56
 70
     1
102
RTVSPost2010Prop57
140
1.0
102
RTVSPost2010PropOp57
 70
     1
102
RTVSPropertyOp0
 70
     1
102
RTVSPropertyOp1
 70
     1
102
RTVSPropertyOp2
 70
     1
102
RTVSPropertyOp3
 70
     1
102
RTVSPropertyOp4
 70
     1
102
RTVSPropertyOp5
 70
     1
102
RTVSPropertyOp6
 70
     1
102
RTVSPropertyOp7
 70
     1
102
RTVSPropertyOp8
 70
     1
102
RTVSPropertyOp9
 70
     1
102
RTVSPropertyOp10
 70
     1
102
RTVSPropertyOp11
 70
     1
102
RTVSPropertyOp12
 70
     1
102
RTVSPropertyOp13
 70
     1
102
RTVSPropertyOp14
 70
     1
102
RTVSPropertyOp15
 70
     1
102
RTVSPropertyOp16
 70
     1
102
RTVSPropertyOp17
 70
     1
102
RTVSPropertyOp18
 70
     1
102
RTVSPropertyOp19
 70
     1
102
RTVSPropertyOp20
 70
     1
102
RTVSPropertyOp21
 70
     1
102
RTVSPropertyOp22
 70
     1
102
RTVSPropertyOp23
 70
     1
102
RTVSPropertyOp24
 70
     1
102
RTVSPropertyOp25
 70
     1
102
RTVSPropertyOp26
 70
     1
102
RTVSPropertyOp27
 70
     1
102
RTVSPropertyOp28
 70
     1
102
RTVSPropertyOp29
 70
     1
102
RTVSPropertyOp30
 70
     1
102
RTVSPropertyOp31
 70
     1
102
RTVSPropertyOp32
 70
     1
102
RTVSPropertyOp33
 70
     1
102
RTVSPropertyOp34
 70
     1
102
RTVSPropertyOp35
 70
     1
102
RTVSPropertyOp36
 70
     1
102
RTVSPropertyOp37
 70
     1
102
RTVSPropertyOp38
 70
     1
102
RTVSPropertyOp39
 70
     1
102
RTVSPropertyOp40
 70
     1
102
RTVSPropertyOp41
 70
     1
102
RTVSPropertyOp42
 70
     1
102
RTVSPropertyOp43
 70
     1
102
RTVSPropertyOp44
 70
     1
102
RTVSPropertyOp45
 70
     1
102
RTVSPropertyOp46
 70
     1
102
RTVSPropertyOp47
 70
     1
102
RTVSPropertyOp48
 70
     1
102
RTVSPropertyOp49
 70
     1
102
RTVSPropertyOp50
 70
     1
102
RTVSPropertyOp51
 70
     0
102
RTVSPropertyOp52
 70
     0
102
RTVSPropertyOp53
 70
     1
102
RTVSPropertyOp54
 70
     1
102
RTVSPropertyOp55
 70
     1
102
RTVSPropertyOp56
 70
     1
102
RTVSPropertyOp57
 70
     1
102
RTVSPropertyOp58
 70
     1
102
RTVSPropertyOp59
 70
     1
102
RTVSPropertyOp60
 70
     1
102
RTVSPropertyOp61
 70
     1
102
RTVSPropertyOp62
 70
     1
  0
XRECORD
  5
512F
102
{ACAD_REACTORS
330
512E
102
}
330
512E
100
AcDbXrecord
280
     1
102
RTVSPost2010Prop28
280
     0
102
RTVSPost2010PropOp28
 70
     1
102
RTVSPost2010Prop29
280
     1
102
RTVSPost2010PropOp29
 70
     1
102
RTVSPost2010Prop30
280
     1
102
RTVSPost2010PropOp30
 70
     1
102
RTVSPost2010Prop31
280
     0
102
RTVSPost2010PropOp31
 70
     1
102
RTVSPost2010Prop32
280
     0
102
RTVSPost2010PropOp32
 70
     1
102
RTVSPost2010Prop33
280
     0
102
RTVSPost2010PropOp33
 70
     1
102
RTVSPost2010Prop34
280
     0
102
RTVSPost2010PropOp34
 70
     1
102
RTVSPost2010Prop35
280
     0
102
RTVSPost2010PropOp35
 70
     1
102
RTVSPost2010Prop36
280
     0
102
RTVSPost2010PropOp36
 70
     1
102
RTVSPost2010Prop37
 90
       50
102
RTVSPost2010PropOp37
 70
     1
102
RTVSPost2010Prop38
140
0.0
102
RTVSPost2010PropOp38
 70
     1
102
RTVSPost2010Prop39
140
1.0
102
RTVSPost2010PropOp39
 70
     1
102
RTVSPost2010Prop40
 90
        0
102
RTVSPost2010PropOp40
 70
     1
102
RTVSPost2010Prop41ColorIndex
 90
       18
102
RTVSPost2010Prop41ColorRGB
 90
        0
102
RTVSPost2010PropOp41
 70
     1
102
RTVSPost2010Prop42
 90
       50
102
RTVSPost2010PropOp42
 70
     1
102
RTVSPost2010Prop43
 90
        3
102
RTVSPost2010PropOp43
 70
     1
102
RTVSPost2010Prop44ColorIndex
 90
        5
102
RTVSPost2010Prop44ColorRGB
 90
      255
102
RTVSPost2010PropOp44
 70
     1
102
RTVSPost2010Prop45
280
     0
102
RTVSPost2010PropOp45
 70
     1
102
RTVSPost2010Prop46
 90
       50
102
RTVSPost2010PropOp46
 70
     1
102
RTVSPost2010Prop47
 90
       50
102
RTVSPost2010PropOp47
 70
     1
102
RTVSPost2010Prop48
 90
       50
102
RTVSPost2010PropOp48
 70
     1
102
RTVSPost2010Prop49
280
     0
102
RTVSPost2010PropOp49
 70
     1
102
RTVSPost2010Prop50
 90
       50
102
RTVSPost2010PropOp50
 70
     1
102
RTVSPost2010Prop51ColorIndex
 90
      256
102
RTVSPost2010Prop51ColorRGB
 90
-16777216
102
RTVSPost2010PropOp51
 70
     0
102
RTVSPost2010Prop52
140
1.0
102
RTVSPost2010PropOp52
 70
     0
102
RTVSPost2010Prop53
 90
        2
102
RTVSPost2010PropOp53
 70
     1
102
RTVSPost2010Prop54
  1
strokes_ogs.tif
102
RTVSPost2010PropOp54
 70
     1
102
RTVSPost2010Prop55
280
     0
102
RTVSPost2010PropOp55
 70
     1
102
RTVSPost2010Prop56
140
1.0
102
RTVSPost2010PropOp56
 70
     1
102
RTVSPost2010Prop57
140
1.0
102
RTVSPost2010PropOp57
 70
     1
102
RTVSPropertyOp0
 70
     1
102
RTVSPropertyOp1
 70
     1
102
RTVSPropertyOp2
 70
     1
102
RTVSPropertyOp3
 70
     1
102
RTVSPropertyOp4
 70
     1
102
RTVSPropertyOp5
 70
     1
102
RTVSPropertyOp6
 70
     1
102
RTVSPropertyOp7
 70
     1
102
RTVSPropertyOp8
 70
     1
102
RTVSPropertyOp9
 70
     1
102
RTVSPropertyOp10
 70
     1
102
RTVSPropertyOp11
 70
     1
102
RTVSPropertyOp12
 70
     1
102
RTVSPropertyOp13
 70
     1
102
RTVSPropertyOp14
 70
     1
102
RTVSPropertyOp15
 70
     1
102
RTVSPropertyOp16
 70
     1
102
RTVSPropertyOp17
 70
     1
102
RTVSPropertyOp18
 70
     1
102
RTVSPropertyOp19
 70
     1
102
RTVSPropertyOp20
 70
     1
102
RTVSPropertyOp21
 70
     1
102
RTVSPropertyOp22
 70
     1
102
RTVSPropertyOp23
 70
     1
102
RTVSPropertyOp24
 70
     1
102
RTVSPropertyOp25
 70
     1
102
RTVSPropertyOp26
 70
     1
102
RTVSPropertyOp27
 70
     1
102
RTVSPropertyOp28
 70
     1
102
RTVSPropertyOp29
 70
     1
102
RTVSPropertyOp30
 70
     1
102
RTVSPropertyOp31
 70
     1
102
RTVSPropertyOp32
 70
     1
102
RTVSPropertyOp33
 70
     1
102
RTVSPropertyOp34
 70
     1
102
RTVSPropertyOp35
 70
     1
102
RTVSPropertyOp36
 70
     1
102
RTVSPropertyOp37
 70
     1
102
RTVSPropertyOp38
 70
     1
102
RTVSPropertyOp39
 70
     1
102
RTVSPropertyOp40
 70
     1
102
RTVSPropertyOp41
 70
     1
102
RTVSPropertyOp42
 70
     1
102
RTVSPropertyOp43
 70
     1
102
RTVSPropertyOp44
 70
     1
102
RTVSPropertyOp45
 70
     1
102
RTVSPropertyOp46
 70
     1
102
RTVSPropertyOp47
 70
     1
102
RTVSPropertyOp48
 70
     1
102
RTVSPropertyOp49
 70
     1
102
RTVSPropertyOp50
 70
     1
102
RTVSPropertyOp51
 70
     0
102
RTVSPropertyOp52
 70
     0
102
RTVSPropertyOp53
 70
     1
102
RTVSPropertyOp54
 70
     1
102
RTVSPropertyOp55
 70
     1
102
RTVSPropertyOp56
 70
     1
102
RTVSPropertyOp57
 70
     1
102
RTVSPropertyOp58
 70
     1
102
RTVSPropertyOp59
 70
     1
102
RTVSPropertyOp60
 70
     1
102
RTVSPropertyOp61
 70
     1
102
RTVSPropertyOp62
 70
     1
  0
XRECORD
  5
512D
102
{ACAD_REACTORS
330
512C
102
}
330
512C
100
AcDbXrecord
280
     1
102
RTVSPost2010Prop28
280
     0
102
RTVSPost2010PropOp28
 70
     1
102
RTVSPost2010Prop29
280
     1
102
RTVSPost2010PropOp29
 70
     1
102
RTVSPost2010Prop30
280
     1
102
RTVSPost2010PropOp30
 70
     1
102
RTVSPost2010Prop31
280
     0
102
RTVSPost2010PropOp31
 70
     1
102
RTVSPost2010Prop32
280
     0
102
RTVSPost2010PropOp32
 70
     1
102
RTVSPost2010Prop33
280
     0
102
RTVSPost2010PropOp33
 70
     1
102
RTVSPost2010Prop34
280
     0
102
RTVSPost2010PropOp34
 70
     1
102
RTVSPost2010Prop35
280
     0
102
RTVSPost2010PropOp35
 70
     1
102
RTVSPost2010Prop36
280
     0
102
RTVSPost2010PropOp36
 70
     1
102
RTVSPost2010Prop37
 90
       50
102
RTVSPost2010PropOp37
 70
     1
102
RTVSPost2010Prop38
140
0.0
102
RTVSPost2010PropOp38
 70
     1
102
RTVSPost2010Prop39
140
1.0
102
RTVSPost2010PropOp39
 70
     1
102
RTVSPost2010Prop40
 90
        0
102
RTVSPost2010PropOp40
 70
     1
102
RTVSPost2010Prop41ColorIndex
 90
       18
102
RTVSPost2010Prop41ColorRGB
 90
        0
102
RTVSPost2010PropOp41
 70
     1
102
RTVSPost2010Prop42
 90
       50
102
RTVSPost2010PropOp42
 70
     1
102
RTVSPost2010Prop43
 90
        3
102
RTVSPost2010PropOp43
 70
     1
102
RTVSPost2010Prop44ColorIndex
 90
        5
102
RTVSPost2010Prop44ColorRGB
 90
      255
102
RTVSPost2010PropOp44
 70
     1
102
RTVSPost2010Prop45
280
     0
102
RTVSPost2010PropOp45
 70
     1
102
RTVSPost2010Prop46
 90
       50
102
RTVSPost2010PropOp46
 70
     1
102
RTVSPost2010Prop47
 90
       50
102
RTVSPost2010PropOp47
 70
     1
102
RTVSPost2010Prop48
 90
       50
102
RTVSPost2010PropOp48
 70
     1
102
RTVSPost2010Prop49
280
     0
102
RTVSPost2010PropOp49
 70
     1
102
RTVSPost2010Prop50
 90
       50
102
RTVSPost2010PropOp50
 70
     1
102
RTVSPost2010Prop51ColorIndex
 90
      256
102
RTVSPost2010Prop51ColorRGB
 90
-16777216
102
RTVSPost2010PropOp51
 70
     0
102
RTVSPost2010Prop52
140
1.0
102
RTVSPost2010PropOp52
 70
     0
102
RTVSPost2010Prop53
 90
        2
102
RTVSPost2010PropOp53
 70
     1
102
RTVSPost2010Prop54
  1
strokes_ogs.tif
102
RTVSPost2010PropOp54
 70
     1
102
RTVSPost2010Prop55
280
     0
102
RTVSPost2010PropOp55
 70
     1
102
RTVSPost2010Prop56
140
1.0
102
RTVSPost2010PropOp56
 70
     1
102
RTVSPost2010Prop57
140
1.0
102
RTVSPost2010PropOp57
 70
     1
102
RTVSPropertyOp0
 70
     1
102
RTVSPropertyOp1
 70
     1
102
RTVSPropertyOp2
 70
     1
102
RTVSPropertyOp3
 70
     1
102
RTVSPropertyOp4
 70
     1
102
RTVSPropertyOp5
 70
     1
102
RTVSPropertyOp6
 70
     1
102
RTVSPropertyOp7
 70
     1
102
RTVSPropertyOp8
 70
     1
102
RTVSPropertyOp9
 70
     1
102
RTVSPropertyOp10
 70
     1
102
RTVSPropertyOp11
 70
     1
102
RTVSPropertyOp12
 70
     1
102
RTVSPropertyOp13
 70
     1
102
RTVSPropertyOp14
 70
     1
102
RTVSPropertyOp15
 70
     1
102
RTVSPropertyOp16
 70
     1
102
RTVSPropertyOp17
 70
     1
102
RTVSPropertyOp18
 70
     1
102
RTVSPropertyOp19
 70
     1
102
RTVSPropertyOp20
 70
     1
102
RTVSPropertyOp21
 70
     1
102
RTVSPropertyOp22
 70
     1
102
RTVSPropertyOp23
 70
     1
102
RTVSPropertyOp24
 70
     1
102
RTVSPropertyOp25
 70
     1
102
RTVSPropertyOp26
 70
     1
102
RTVSPropertyOp27
 70
     1
102
RTVSPropertyOp28
 70
     1
102
RTVSPropertyOp29
 70
     1
102
RTVSPropertyOp30
 70
     1
102
RTVSPropertyOp31
 70
     1
102
RTVSPropertyOp32
 70
     1
102
RTVSPropertyOp33
 70
     1
102
RTVSPropertyOp34
 70
     1
102
RTVSPropertyOp35
 70
     1
102
RTVSPropertyOp36
 70
     1
102
RTVSPropertyOp37
 70
     1
102
RTVSPropertyOp38
 70
     1
102
RTVSPropertyOp39
 70
     1
102
RTVSPropertyOp40
 70
     1
102
RTVSPropertyOp41
 70
     1
102
RTVSPropertyOp42
 70
     1
102
RTVSPropertyOp43
 70
     1
102
RTVSPropertyOp44
 70
     1
102
RTVSPropertyOp45
 70
     1
102
RTVSPropertyOp46
 70
     1
102
RTVSPropertyOp47
 70
     1
102
RTVSPropertyOp48
 70
     1
102
RTVSPropertyOp49
 70
     1
102
RTVSPropertyOp50
 70
     1
102
RTVSPropertyOp51
 70
     0
102
RTVSPropertyOp52
 70
     0
102
RTVSPropertyOp53
 70
     1
102
RTVSPropertyOp54
 70
     1
102
RTVSPropertyOp55
 70
     1
102
RTVSPropertyOp56
 70
     1
102
RTVSPropertyOp57
 70
     1
102
RTVSPropertyOp58
 70
     1
102
RTVSPropertyOp59
 70
     1
102
RTVSPropertyOp60
 70
     1
102
RTVSPropertyOp61
 70
     1
102
RTVSPropertyOp62
 70
     1
  0
XRECORD
  5
5127
102
{ACAD_REACTORS
330
5126
102
}
330
5126
100
AcDbXrecord
280
     1
102
RTVSPost2010Prop28
280
     0
102
RTVSPost2010PropOp28
 70
     1
102
RTVSPost2010Prop29
280
     1
102
RTVSPost2010PropOp29
 70
     1
102
RTVSPost2010Prop30
280
     1
102
RTVSPost2010PropOp30
 70
     1
102
RTVSPost2010Prop31
280
     0
102
RTVSPost2010PropOp31
 70
     1
102
RTVSPost2010Prop32
280
     0
102
RTVSPost2010PropOp32
 70
     1
102
RTVSPost2010Prop33
280
     0
102
RTVSPost2010PropOp33
 70
     1
102
RTVSPost2010Prop34
280
     0
102
RTVSPost2010PropOp34
 70
     1
102
RTVSPost2010Prop35
280
     0
102
RTVSPost2010PropOp35
 70
     1
102
RTVSPost2010Prop36
280
     0
102
RTVSPost2010PropOp36
 70
     1
102
RTVSPost2010Prop37
 90
       50
102
RTVSPost2010PropOp37
 70
     1
102
RTVSPost2010Prop38
140
0.0
102
RTVSPost2010PropOp38
 70
     1
102
RTVSPost2010Prop39
140
1.0
102
RTVSPost2010PropOp39
 70
     1
102
RTVSPost2010Prop40
 90
        0
102
RTVSPost2010PropOp40
 70
     1
102
RTVSPost2010Prop41ColorIndex
 90
       18
102
RTVSPost2010Prop41ColorRGB
 90
        0
102
RTVSPost2010PropOp41
 70
     1
102
RTVSPost2010Prop42
 90
       50
102
RTVSPost2010PropOp42
 70
     1
102
RTVSPost2010Prop43
 90
        3
102
RTVSPost2010PropOp43
 70
     1
102
RTVSPost2010Prop44ColorIndex
 90
        5
102
RTVSPost2010Prop44ColorRGB
 90
      255
102
RTVSPost2010PropOp44
 70
     1
102
RTVSPost2010Prop45
280
     0
102
RTVSPost2010PropOp45
 70
     1
102
RTVSPost2010Prop46
 90
       50
102
RTVSPost2010PropOp46
 70
     1
102
RTVSPost2010Prop47
 90
       50
102
RTVSPost2010PropOp47
 70
     1
102
RTVSPost2010Prop48
 90
       50
102
RTVSPost2010PropOp48
 70
     1
102
RTVSPost2010Prop49
280
     0
102
RTVSPost2010PropOp49
 70
     1
102
RTVSPost2010Prop50
 90
       50
102
RTVSPost2010PropOp50
 70
     1
102
RTVSPost2010Prop51ColorIndex
 90
      256
102
RTVSPost2010Prop51ColorRGB
 90
-16777216
102
RTVSPost2010PropOp51
 70
     0
102
RTVSPost2010Prop52
140
1.0
102
RTVSPost2010PropOp52
 70
     0
102
RTVSPost2010Prop53
 90
        2
102
RTVSPost2010PropOp53
 70
     1
102
RTVSPost2010Prop54
  1
strokes_ogs.tif
102
RTVSPost2010PropOp54
 70
     1
102
RTVSPost2010Prop55
280
     0
102
RTVSPost2010PropOp55
 70
     1
102
RTVSPost2010Prop56
140
1.0
102
RTVSPost2010PropOp56
 70
     1
102
RTVSPost2010Prop57
140
1.0
102
RTVSPost2010PropOp57
 70
     1
102
RTVSPropertyOp0
 70
     1
102
RTVSPropertyOp1
 70
     1
102
RTVSPropertyOp2
 70
     1
102
RTVSPropertyOp3
 70
     1
102
RTVSPropertyOp4
 70
     1
102
RTVSPropertyOp5
 70
     1
102
RTVSPropertyOp6
 70
     1
102
RTVSPropertyOp7
 70
     1
102
RTVSPropertyOp8
 70
     1
102
RTVSPropertyOp9
 70
     1
102
RTVSPropertyOp10
 70
     1
102
RTVSPropertyOp11
 70
     1
102
RTVSPropertyOp12
 70
     1
102
RTVSPropertyOp13
 70
     1
102
RTVSPropertyOp14
 70
     1
102
RTVSPropertyOp15
 70
     1
102
RTVSPropertyOp16
 70
     1
102
RTVSPropertyOp17
 70
     1
102
RTVSPropertyOp18
 70
     1
102
RTVSPropertyOp19
 70
     1
102
RTVSPropertyOp20
 70
     1
102
RTVSPropertyOp21
 70
     1
102
RTVSPropertyOp22
 70
     1
102
RTVSPropertyOp23
 70
     1
102
RTVSPropertyOp24
 70
     1
102
RTVSPropertyOp25
 70
     1
102
RTVSPropertyOp26
 70
     1
102
RTVSPropertyOp27
 70
     1
102
RTVSPropertyOp28
 70
     1
102
RTVSPropertyOp29
 70
     1
102
RTVSPropertyOp30
 70
     1
102
RTVSPropertyOp31
 70
     1
102
RTVSPropertyOp32
 70
     1
102
RTVSPropertyOp33
 70
     1
102
RTVSPropertyOp34
 70
     1
102
RTVSPropertyOp35
 70
     1
102
RTVSPropertyOp36
 70
     1
102
RTVSPropertyOp37
 70
     1
102
RTVSPropertyOp38
 70
     1
102
RTVSPropertyOp39
 70
     1
102
RTVSPropertyOp40
 70
     1
102
RTVSPropertyOp41
 70
     1
102
RTVSPropertyOp42
 70
     1
102
RTVSPropertyOp43
 70
     1
102
RTVSPropertyOp44
 70
     1
102
RTVSPropertyOp45
 70
     1
102
RTVSPropertyOp46
 70
     1
102
RTVSPropertyOp47
 70
     1
102
RTVSPropertyOp48
 70
     1
102
RTVSPropertyOp49
 70
     1
102
RTVSPropertyOp50
 70
     1
102
RTVSPropertyOp51
 70
     0
102
RTVSPropertyOp52
 70
     0
102
RTVSPropertyOp53
 70
     1
102
RTVSPropertyOp54
 70
     1
102
RTVSPropertyOp55
 70
     1
102
RTVSPropertyOp56
 70
     1
102
RTVSPropertyOp57
 70
     1
102
RTVSPropertyOp58
 70
     1
102
RTVSPropertyOp59
 70
     1
102
RTVSPropertyOp60
 70
     1
102
RTVSPropertyOp61
 70
     1
102
RTVSPropertyOp62
 70
     1
  0
XRECORD
  5
5129
102
{ACAD_REACTORS
330
5128
102
}
330
5128
100
AcDbXrecord
280
     1
102
RTVSPost2010Prop28
280
     0
102
RTVSPost2010PropOp28
 70
     1
102
RTVSPost2010Prop29
280
     1
102
RTVSPost2010PropOp29
 70
     1
102
RTVSPost2010Prop30
280
     1
102
RTVSPost2010PropOp30
 70
     1
102
RTVSPost2010Prop31
280
     0
102
RTVSPost2010PropOp31
 70
     1
102
RTVSPost2010Prop32
280
     0
102
RTVSPost2010PropOp32
 70
     1
102
RTVSPost2010Prop33
280
     0
102
RTVSPost2010PropOp33
 70
     1
102
RTVSPost2010Prop34
280
     0
102
RTVSPost2010PropOp34
 70
     1
102
RTVSPost2010Prop35
280
     0
102
RTVSPost2010PropOp35
 70
     1
102
RTVSPost2010Prop36
280
     0
102
RTVSPost2010PropOp36
 70
     1
102
RTVSPost2010Prop37
 90
       50
102
RTVSPost2010PropOp37
 70
     1
102
RTVSPost2010Prop38
140
0.0
102
RTVSPost2010PropOp38
 70
     1
102
RTVSPost2010Prop39
140
1.0
102
RTVSPost2010PropOp39
 70
     1
102
RTVSPost2010Prop40
 90
        0
102
RTVSPost2010PropOp40
 70
     1
102
RTVSPost2010Prop41ColorIndex
 90
       18
102
RTVSPost2010Prop41ColorRGB
 90
        0
102
RTVSPost2010PropOp41
 70
     1
102
RTVSPost2010Prop42
 90
       50
102
RTVSPost2010PropOp42
 70
     1
102
RTVSPost2010Prop43
 90
        3
102
RTVSPost2010PropOp43
 70
     1
102
RTVSPost2010Prop44ColorIndex
 90
        5
102
RTVSPost2010Prop44ColorRGB
 90
      255
102
RTVSPost2010PropOp44
 70
     1
102
RTVSPost2010Prop45
280
     0
102
RTVSPost2010PropOp45
 70
     1
102
RTVSPost2010Prop46
 90
       50
102
RTVSPost2010PropOp46
 70
     1
102
RTVSPost2010Prop47
 90
       50
102
RTVSPost2010PropOp47
 70
     1
102
RTVSPost2010Prop48
 90
       50
102
RTVSPost2010PropOp48
 70
     1
102
RTVSPost2010Prop49
280
     0
102
RTVSPost2010PropOp49
 70
     1
102
RTVSPost2010Prop50
 90
       50
102
RTVSPost2010PropOp50
 70
     1
102
RTVSPost2010Prop51ColorIndex
 90
      256
102
RTVSPost2010Prop51ColorRGB
 90
-16777216
102
RTVSPost2010PropOp51
 70
     0
102
RTVSPost2010Prop52
140
1.0
102
RTVSPost2010PropOp52
 70
     0
102
RTVSPost2010Prop53
 90
        2
102
RTVSPost2010PropOp53
 70
     1
102
RTVSPost2010Prop54
  1
strokes_ogs.tif
102
RTVSPost2010PropOp54
 70
     1
102
RTVSPost2010Prop55
280
     0
102
RTVSPost2010PropOp55
 70
     1
102
RTVSPost2010Prop56
140
1.0
102
RTVSPost2010PropOp56
 70
     1
102
RTVSPost2010Prop57
140
1.0
102
RTVSPost2010PropOp57
 70
     1
102
RTVSPropertyOp0
 70
     1
102
RTVSPropertyOp1
 70
     1
102
RTVSPropertyOp2
 70
     1
102
RTVSPropertyOp3
 70
     1
102
RTVSPropertyOp4
 70
     1
102
RTVSPropertyOp5
 70
     1
102
RTVSPropertyOp6
 70
     1
102
RTVSPropertyOp7
 70
     1
102
RTVSPropertyOp8
 70
     1
102
RTVSPropertyOp9
 70
     1
102
RTVSPropertyOp10
 70
     1
102
RTVSPropertyOp11
 70
     1
102
RTVSPropertyOp12
 70
     1
102
RTVSPropertyOp13
 70
     1
102
RTVSPropertyOp14
 70
     1
102
RTVSPropertyOp15
 70
     1
102
RTVSPropertyOp16
 70
     1
102
RTVSPropertyOp17
 70
     1
102
RTVSPropertyOp18
 70
     1
102
RTVSPropertyOp19
 70
     1
102
RTVSPropertyOp20
 70
     1
102
RTVSPropertyOp21
 70
     1
102
RTVSPropertyOp22
 70
     1
102
RTVSPropertyOp23
 70
     1
102
RTVSPropertyOp24
 70
     1
102
RTVSPropertyOp25
 70
     1
102
RTVSPropertyOp26
 70
     1
102
RTVSPropertyOp27
 70
     1
102
RTVSPropertyOp28
 70
     1
102
RTVSPropertyOp29
 70
     1
102
RTVSPropertyOp30
 70
     1
102
RTVSPropertyOp31
 70
     1
102
RTVSPropertyOp32
 70
     1
102
RTVSPropertyOp33
 70
     1
102
RTVSPropertyOp34
 70
     1
102
RTVSPropertyOp35
 70
     1
102
RTVSPropertyOp36
 70
     1
102
RTVSPropertyOp37
 70
     1
102
RTVSPropertyOp38
 70
     1
102
RTVSPropertyOp39
 70
     1
102
RTVSPropertyOp40
 70
     1
102
RTVSPropertyOp41
 70
     1
102
RTVSPropertyOp42
 70
     1
102
RTVSPropertyOp43
 70
     1
102
RTVSPropertyOp44
 70
     1
102
RTVSPropertyOp45
 70
     1
102
RTVSPropertyOp46
 70
     1
102
RTVSPropertyOp47
 70
     1
102
RTVSPropertyOp48
 70
     1
102
RTVSPropertyOp49
 70
     1
102
RTVSPropertyOp50
 70
     1
102
RTVSPropertyOp51
 70
     0
102
RTVSPropertyOp52
 70
     0
102
RTVSPropertyOp53
 70
     1
102
RTVSPropertyOp54
 70
     1
102
RTVSPropertyOp55
 70
     1
102
RTVSPropertyOp56
 70
     1
102
RTVSPropertyOp57
 70
     1
102
RTVSPropertyOp58
 70
     1
102
RTVSPropertyOp59
 70
     1
102
RTVSPropertyOp60
 70
     1
102
RTVSPropertyOp61
 70
     1
102
RTVSPropertyOp62
 70
     1
  0
XRECORD
  5
511F
102
{ACAD_REACTORS
330
511E
102
}
330
511E
100
AcDbXrecord
280
     1
102
RTVSPost2010Prop28
280
     0
102
RTVSPost2010PropOp28
 70
     1
102
RTVSPost2010Prop29
280
     1
102
RTVSPost2010PropOp29
 70
     1
102
RTVSPost2010Prop30
280
     1
102
RTVSPost2010PropOp30
 70
     1
102
RTVSPost2010Prop31
280
     0
102
RTVSPost2010PropOp31
 70
     1
102
RTVSPost2010Prop32
280
     0
102
RTVSPost2010PropOp32
 70
     1
102
RTVSPost2010Prop33
280
     0
102
RTVSPost2010PropOp33
 70
     1
102
RTVSPost2010Prop34
280
     0
102
RTVSPost2010PropOp34
 70
     1
102
RTVSPost2010Prop35
280
     0
102
RTVSPost2010PropOp35
 70
     1
102
RTVSPost2010Prop36
280
     0
102
RTVSPost2010PropOp36
 70
     1
102
RTVSPost2010Prop37
 90
       50
102
RTVSPost2010PropOp37
 70
     1
102
RTVSPost2010Prop38
140
0.0
102
RTVSPost2010PropOp38
 70
     1
102
RTVSPost2010Prop39
140
1.0
102
RTVSPost2010PropOp39
 70
     1
102
RTVSPost2010Prop40
 90
        0
102
RTVSPost2010PropOp40
 70
     1
102
RTVSPost2010Prop41ColorIndex
 90
       18
102
RTVSPost2010Prop41ColorRGB
 90
        0
102
RTVSPost2010PropOp41
 70
     1
102
RTVSPost2010Prop42
 90
       50
102
RTVSPost2010PropOp42
 70
     1
102
RTVSPost2010Prop43
 90
        3
102
RTVSPost2010PropOp43
 70
     1
102
RTVSPost2010Prop44ColorIndex
 90
        5
102
RTVSPost2010Prop44ColorRGB
 90
      255
102
RTVSPost2010PropOp44
 70
     1
102
RTVSPost2010Prop45
280
     0
102
RTVSPost2010PropOp45
 70
     1
102
RTVSPost2010Prop46
 90
       50
102
RTVSPost2010PropOp46
 70
     1
102
RTVSPost2010Prop47
 90
       50
102
RTVSPost2010PropOp47
 70
     1
102
RTVSPost2010Prop48
 90
       50
102
RTVSPost2010PropOp48
 70
     1
102
RTVSPost2010Prop49
280
     0
102
RTVSPost2010PropOp49
 70
     1
102
RTVSPost2010Prop50
 90
       50
102
RTVSPost2010PropOp50
 70
     1
102
RTVSPost2010Prop51ColorIndex
 90
      256
102
RTVSPost2010Prop51ColorRGB
 90
-16777216
102
RTVSPost2010PropOp51
 70
     0
102
RTVSPost2010Prop52
140
1.0
102
RTVSPost2010PropOp52
 70
     0
102
RTVSPost2010Prop53
 90
        2
102
RTVSPost2010PropOp53
 70
     1
102
RTVSPost2010Prop54
  1
strokes_ogs.tif
102
RTVSPost2010PropOp54
 70
     1
102
RTVSPost2010Prop55
280
     0
102
RTVSPost2010PropOp55
 70
     1
102
RTVSPost2010Prop56
140
1.0
102
RTVSPost2010PropOp56
 70
     1
102
RTVSPost2010Prop57
140
1.0
102
RTVSPost2010PropOp57
 70
     1
102
RTVSPropertyOp0
 70
     1
102
RTVSPropertyOp1
 70
     1
102
RTVSPropertyOp2
 70
     1
102
RTVSPropertyOp3
 70
     1
102
RTVSPropertyOp4
 70
     1
102
RTVSPropertyOp5
 70
     1
102
RTVSPropertyOp6
 70
     1
102
RTVSPropertyOp7
 70
     1
102
RTVSPropertyOp8
 70
     1
102
RTVSPropertyOp9
 70
     1
102
RTVSPropertyOp10
 70
     1
102
RTVSPropertyOp11
 70
     1
102
RTVSPropertyOp12
 70
     1
102
RTVSPropertyOp13
 70
     1
102
RTVSPropertyOp14
 70
     1
102
RTVSPropertyOp15
 70
     1
102
RTVSPropertyOp16
 70
     1
102
RTVSPropertyOp17
 70
     1
102
RTVSPropertyOp18
 70
     1
102
RTVSPropertyOp19
 70
     1
102
RTVSPropertyOp20
 70
     1
102
RTVSPropertyOp21
 70
     1
102
RTVSPropertyOp22
 70
     1
102
RTVSPropertyOp23
 70
     1
102
RTVSPropertyOp24
 70
     1
102
RTVSPropertyOp25
 70
     1
102
RTVSPropertyOp26
 70
     1
102
RTVSPropertyOp27
 70
     1
102
RTVSPropertyOp28
 70
     1
102
RTVSPropertyOp29
 70
     1
102
RTVSPropertyOp30
 70
     1
102
RTVSPropertyOp31
 70
     1
102
RTVSPropertyOp32
 70
     1
102
RTVSPropertyOp33
 70
     1
102
RTVSPropertyOp34
 70
     1
102
RTVSPropertyOp35
 70
     1
102
RTVSPropertyOp36
 70
     1
102
RTVSPropertyOp37
 70
     1
102
RTVSPropertyOp38
 70
     1
102
RTVSPropertyOp39
 70
     1
102
RTVSPropertyOp40
 70
     1
102
RTVSPropertyOp41
 70
     1
102
RTVSPropertyOp42
 70
     1
102
RTVSPropertyOp43
 70
     1
102
RTVSPropertyOp44
 70
     1
102
RTVSPropertyOp45
 70
     1
102
RTVSPropertyOp46
 70
     1
102
RTVSPropertyOp47
 70
     1
102
RTVSPropertyOp48
 70
     1
102
RTVSPropertyOp49
 70
     1
102
RTVSPropertyOp50
 70
     1
102
RTVSPropertyOp51
 70
     0
102
RTVSPropertyOp52
 70
     0
102
RTVSPropertyOp53
 70
     1
102
RTVSPropertyOp54
 70
     1
102
RTVSPropertyOp55
 70
     1
102
RTVSPropertyOp56
 70
     1
102
RTVSPropertyOp57
 70
     1
102
RTVSPropertyOp58
 70
     1
102
RTVSPropertyOp59
 70
     1
102
RTVSPropertyOp60
 70
     1
102
RTVSPropertyOp61
 70
     1
102
RTVSPropertyOp62
 70
     1
  0
XRECORD
  5
5113
102
{ACAD_REACTORS
330
5112
102
}
330
5112
100
AcDbXrecord
280
     1
102
RTVSPost2010Prop28
280
     0
102
RTVSPost2010PropOp28
 70
     1
102
RTVSPost2010Prop29
280
     1
102
RTVSPost2010PropOp29
 70
     1
102
RTVSPost2010Prop30
280
     1
102
RTVSPost2010PropOp30
 70
     1
102
RTVSPost2010Prop31
280
     0
102
RTVSPost2010PropOp31
 70
     1
102
RTVSPost2010Prop32
280
     0
102
RTVSPost2010PropOp32
 70
     1
102
RTVSPost2010Prop33
280
     0
102
RTVSPost2010PropOp33
 70
     1
102
RTVSPost2010Prop34
280
     0
102
RTVSPost2010PropOp34
 70
     1
102
RTVSPost2010Prop35
280
     0
102
RTVSPost2010PropOp35
 70
     1
102
RTVSPost2010Prop36
280
     0
102
RTVSPost2010PropOp36
 70
     1
102
RTVSPost2010Prop37
 90
       50
102
RTVSPost2010PropOp37
 70
     1
102
RTVSPost2010Prop38
140
0.0
102
RTVSPost2010PropOp38
 70
     1
102
RTVSPost2010Prop39
140
1.0
102
RTVSPost2010PropOp39
 70
     1
102
RTVSPost2010Prop40
 90
        0
102
RTVSPost2010PropOp40
 70
     1
102
RTVSPost2010Prop41ColorIndex
 90
       18
102
RTVSPost2010Prop41ColorRGB
 90
        0
102
RTVSPost2010PropOp41
 70
     1
102
RTVSPost2010Prop42
 90
       50
102
RTVSPost2010PropOp42
 70
     1
102
RTVSPost2010Prop43
 90
        3
102
RTVSPost2010PropOp43
 70
     1
102
RTVSPost2010Prop44ColorIndex
 90
        5
102
RTVSPost2010Prop44ColorRGB
 90
      255
102
RTVSPost2010PropOp44
 70
     1
102
RTVSPost2010Prop45
280
     0
102
RTVSPost2010PropOp45
 70
     1
102
RTVSPost2010Prop46
 90
       50
102
RTVSPost2010PropOp46
 70
     1
102
RTVSPost2010Prop47
 90
       50
102
RTVSPost2010PropOp47
 70
     1
102
RTVSPost2010Prop48
 90
       50
102
RTVSPost2010PropOp48
 70
     1
102
RTVSPost2010Prop49
280
     0
102
RTVSPost2010PropOp49
 70
     1
102
RTVSPost2010Prop50
 90
       50
102
RTVSPost2010PropOp50
 70
     1
102
RTVSPost2010Prop51ColorIndex
 90
      256
102
RTVSPost2010Prop51ColorRGB
 90
-16777216
102
RTVSPost2010PropOp51
 70
     0
102
RTVSPost2010Prop52
140
1.0
102
RTVSPost2010PropOp52
 70
     0
102
RTVSPost2010Prop53
 90
        2
102
RTVSPost2010PropOp53
 70
     1
102
RTVSPost2010Prop54
  1
strokes_ogs.tif
102
RTVSPost2010PropOp54
 70
     1
102
RTVSPost2010Prop55
280
     0
102
RTVSPost2010PropOp55
 70
     1
102
RTVSPost2010Prop56
140
1.0
102
RTVSPost2010PropOp56
 70
     1
102
RTVSPost2010Prop57
140
1.0
102
RTVSPost2010PropOp57
 70
     1
102
RTVSPropertyOp0
 70
     1
102
RTVSPropertyOp1
 70
     1
102
RTVSPropertyOp2
 70
     1
102
RTVSPropertyOp3
 70
     1
102
RTVSPropertyOp4
 70
     1
102
RTVSPropertyOp5
 70
     1
102
RTVSPropertyOp6
 70
     1
102
RTVSPropertyOp7
 70
     1
102
RTVSPropertyOp8
 70
     1
102
RTVSPropertyOp9
 70
     1
102
RTVSPropertyOp10
 70
     1
102
RTVSPropertyOp11
 70
     1
102
RTVSPropertyOp12
 70
     1
102
RTVSPropertyOp13
 70
     1
102
RTVSPropertyOp14
 70
     1
102
RTVSPropertyOp15
 70
     1
102
RTVSPropertyOp16
 70
     1
102
RTVSPropertyOp17
 70
     1
102
RTVSPropertyOp18
 70
     1
102
RTVSPropertyOp19
 70
     1
102
RTVSPropertyOp20
 70
     1
102
RTVSPropertyOp21
 70
     1
102
RTVSPropertyOp22
 70
     1
102
RTVSPropertyOp23
 70
     1
102
RTVSPropertyOp24
 70
     1
102
RTVSPropertyOp25
 70
     1
102
RTVSPropertyOp26
 70
     1
102
RTVSPropertyOp27
 70
     1
102
RTVSPropertyOp28
 70
     1
102
RTVSPropertyOp29
 70
     1
102
RTVSPropertyOp30
 70
     1
102
RTVSPropertyOp31
 70
     1
102
RTVSPropertyOp32
 70
     1
102
RTVSPropertyOp33
 70
     1
102
RTVSPropertyOp34
 70
     1
102
RTVSPropertyOp35
 70
     1
102
RTVSPropertyOp36
 70
     1
102
RTVSPropertyOp37
 70
     1
102
RTVSPropertyOp38
 70
     1
102
RTVSPropertyOp39
 70
     1
102
RTVSPropertyOp40
 70
     1
102
RTVSPropertyOp41
 70
     1
102
RTVSPropertyOp42
 70
     1
102
RTVSPropertyOp43
 70
     1
102
RTVSPropertyOp44
 70
     1
102
RTVSPropertyOp45
 70
     1
102
RTVSPropertyOp46
 70
     1
102
RTVSPropertyOp47
 70
     1
102
RTVSPropertyOp48
 70
     1
102
RTVSPropertyOp49
 70
     1
102
RTVSPropertyOp50
 70
     1
102
RTVSPropertyOp51
 70
     0
102
RTVSPropertyOp52
 70
     0
102
RTVSPropertyOp53
 70
     1
102
RTVSPropertyOp54
 70
     1
102
RTVSPropertyOp55
 70
     1
102
RTVSPropertyOp56
 70
     1
102
RTVSPropertyOp57
 70
     1
102
RTVSPropertyOp58
 70
     1
102
RTVSPropertyOp59
 70
     1
102
RTVSPropertyOp60
 70
     1
102
RTVSPropertyOp61
 70
     1
102
RTVSPropertyOp62
 70
     1
  0
XRECORD
  5
512B
102
{ACAD_REACTORS
330
512A
102
}
330
512A
100
AcDbXrecord
280
     1
102
RTVSPost2010Prop28
280
     0
102
RTVSPost2010PropOp28
 70
     1
102
RTVSPost2010Prop29
280
     1
102
RTVSPost2010PropOp29
 70
     1
102
RTVSPost2010Prop30
280
     1
102
RTVSPost2010PropOp30
 70
     1
102
RTVSPost2010Prop31
280
     0
102
RTVSPost2010PropOp31
 70
     1
102
RTVSPost2010Prop32
280
     0
102
RTVSPost2010PropOp32
 70
     1
102
RTVSPost2010Prop33
280
     0
102
RTVSPost2010PropOp33
 70
     1
102
RTVSPost2010Prop34
280
     0
102
RTVSPost2010PropOp34
 70
     1
102
RTVSPost2010Prop35
280
     0
102
RTVSPost2010PropOp35
 70
     1
102
RTVSPost2010Prop36
280
     0
102
RTVSPost2010PropOp36
 70
     1
102
RTVSPost2010Prop37
 90
       50
102
RTVSPost2010PropOp37
 70
     1
102
RTVSPost2010Prop38
140
0.0
102
RTVSPost2010PropOp38
 70
     1
102
RTVSPost2010Prop39
140
1.0
102
RTVSPost2010PropOp39
 70
     1
102
RTVSPost2010Prop40
 90
        0
102
RTVSPost2010PropOp40
 70
     1
102
RTVSPost2010Prop41ColorIndex
 90
       18
102
RTVSPost2010Prop41ColorRGB
 90
        0
102
RTVSPost2010PropOp41
 70
     1
102
RTVSPost2010Prop42
 90
       50
102
RTVSPost2010PropOp42
 70
     1
102
RTVSPost2010Prop43
 90
        3
102
RTVSPost2010PropOp43
 70
     1
102
RTVSPost2010Prop44ColorIndex
 90
        5
102
RTVSPost2010Prop44ColorRGB
 90
      255
102
RTVSPost2010PropOp44
 70
     1
102
RTVSPost2010Prop45
280
     0
102
RTVSPost2010PropOp45
 70
     1
102
RTVSPost2010Prop46
 90
       50
102
RTVSPost2010PropOp46
 70
     1
102
RTVSPost2010Prop47
 90
       50
102
RTVSPost2010PropOp47
 70
     1
102
RTVSPost2010Prop48
 90
       50
102
RTVSPost2010PropOp48
 70
     1
102
RTVSPost2010Prop49
280
     0
102
RTVSPost2010PropOp49
 70
     1
102
RTVSPost2010Prop50
 90
       50
102
RTVSPost2010PropOp50
 70
     1
102
RTVSPost2010Prop51ColorIndex
 90
      256
102
RTVSPost2010Prop51ColorRGB
 90
-16777216
102
RTVSPost2010PropOp51
 70
     0
102
RTVSPost2010Prop52
140
1.0
102
RTVSPost2010PropOp52
 70
     0
102
RTVSPost2010Prop53
 90
        2
102
RTVSPost2010PropOp53
 70
     1
102
RTVSPost2010Prop54
  1
strokes_ogs.tif
102
RTVSPost2010PropOp54
 70
     1
102
RTVSPost2010Prop55
280
     0
102
RTVSPost2010PropOp55
 70
     1
102
RTVSPost2010Prop56
140
1.0
102
RTVSPost2010PropOp56
 70
     1
102
RTVSPost2010Prop57
140
1.0
102
RTVSPost2010PropOp57
 70
     1
102
RTVSPropertyOp0
 70
     1
102
RTVSPropertyOp1
 70
     1
102
RTVSPropertyOp2
 70
     1
102
RTVSPropertyOp3
 70
     1
102
RTVSPropertyOp4
 70
     1
102
RTVSPropertyOp5
 70
     1
102
RTVSPropertyOp6
 70
     1
102
RTVSPropertyOp7
 70
     1
102
RTVSPropertyOp8
 70
     1
102
RTVSPropertyOp9
 70
     1
102
RTVSPropertyOp10
 70
     1
102
RTVSPropertyOp11
 70
     1
102
RTVSPropertyOp12
 70
     1
102
RTVSPropertyOp13
 70
     1
102
RTVSPropertyOp14
 70
     1
102
RTVSPropertyOp15
 70
     1
102
RTVSPropertyOp16
 70
     1
102
RTVSPropertyOp17
 70
     1
102
RTVSPropertyOp18
 70
     1
102
RTVSPropertyOp19
 70
     1
102
RTVSPropertyOp20
 70
     1
102
RTVSPropertyOp21
 70
     1
102
RTVSPropertyOp22
 70
     1
102
RTVSPropertyOp23
 70
     1
102
RTVSPropertyOp24
 70
     1
102
RTVSPropertyOp25
 70
     1
102
RTVSPropertyOp26
 70
     1
102
RTVSPropertyOp27
 70
     1
102
RTVSPropertyOp28
 70
     1
102
RTVSPropertyOp29
 70
     1
102
RTVSPropertyOp30
 70
     1
102
RTVSPropertyOp31
 70
     1
102
RTVSPropertyOp32
 70
     1
102
RTVSPropertyOp33
 70
     1
102
RTVSPropertyOp34
 70
     1
102
RTVSPropertyOp35
 70
     1
102
RTVSPropertyOp36
 70
     1
102
RTVSPropertyOp37
 70
     1
102
RTVSPropertyOp38
 70
     1
102
RTVSPropertyOp39
 70
     1
102
RTVSPropertyOp40
 70
     1
102
RTVSPropertyOp41
 70
     1
102
RTVSPropertyOp42
 70
     1
102
RTVSPropertyOp43
 70
     1
102
RTVSPropertyOp44
 70
     1
102
RTVSPropertyOp45
 70
     1
102
RTVSPropertyOp46
 70
     1
102
RTVSPropertyOp47
 70
     1
102
RTVSPropertyOp48
 70
     1
102
RTVSPropertyOp49
 70
     1
102
RTVSPropertyOp50
 70
     1
102
RTVSPropertyOp51
 70
     0
102
RTVSPropertyOp52
 70
     0
102
RTVSPropertyOp53
 70
     1
102
RTVSPropertyOp54
 70
     1
102
RTVSPropertyOp55
 70
     1
102
RTVSPropertyOp56
 70
     1
102
RTVSPropertyOp57
 70
     1
102
RTVSPropertyOp58
 70
     1
102
RTVSPropertyOp59
 70
     1
102
RTVSPropertyOp60
 70
     1
102
RTVSPropertyOp61
 70
     1
102
RTVSPropertyOp62
 70
     1
  0
ENDSEC
  0
EOF
