  0
SECTION
  2
HEADER
  9
$ACADVER
  1
AC1018
  9
$ACADMAINTVER
 70
   104
  9
$DWGCODEPAGE
  3
ANSI_1250
  9
$LASTSAVEDBY
  1
EVA
  9
$INSBASE
 10
0.0
 20
0.0
 30
0.0
  9
$EXTMIN
 10
-99.08981742522833
 20
341.4924458674074
 30
0.0
  9
$EXTMAX
 10
874.2858772749803
 20
1222.582073042784
 30
0.0
  9
$LIMMIN
 10
0.0
 20
0.0
  9
$LIMMAX
 10
271.6285070728513
 20
136.3429239280804
  9
$ORTHOMODE
 70
     1
  9
$REGENMODE
 70
     1
  9
$FILLMODE
 70
     1
  9
$QTEXTMODE
 70
     0
  9
$MIRRTEXT
 70
     0
  9
$LTSCALE
 40
15.0
  9
$ATTMODE
 70
     1
  9
$TEXTSIZE
 40
3.0
  9
$TRACEWID
 40
1.0
  9
$TEXTSTYLE
  7
Stil1
  9
$CLAYER
  8
TXT-D
  9
$CELTYPE
  6
BYLAYER
  9
$CECOLOR
 62
   256
  9
$CELTSCALE
 40
5.0
  9
$DISPSILH
 70
     0
  9
$DIMSCALE
 40
5.0
  9
$DIMASZ
 40
3.5
  9
$DIMEXO
 40
0.0
  9
$DIMDLI
 40
3.75
  9
$DIMRND
 40
0.0
  9
$DIMDLE
 40
0.0
  9
$DIMEXE
 40
1.25
  9
$DIMTP
 40
0.0
  9
$DIMTM
 40
0.0
  9
$DIMTXT
 40
3.5
  9
$DIMCEN
 40
3.5
  9
$DIMTSZ
 40
0.0
  9
$DIMTOL
 70
     0
  9
$DIMLIM
 70
     0
  9
$DIMTIH
 70
     0
  9
$DIMTOH
 70
     0
  9
$DIMSE1
 70
     0
  9
$DIMSE2
 70
     0
  9
$DIMTAD
 70
     1
  9
$DIMZIN
 70
     8
  9
$DIMBLK
  1

  9
$DIMASO
 70
     1
  9
$DIMSHO
 70
     1
  9
$DIMPOST
  1

  9
$DIMAPOST
  1

  9
$DIMALT
 70
     0
  9
$DIMALTD
 70
     4
  9
$DIMALTF
 40
0.0394
  9
$DIMLFAC
 40
1.0
  9
$DIMTOFL
 70
     0
  9
$DIMTVP
 40
0.0
  9
$DIMTIX
 70
     0
  9
$DIMSOXD
 70
     0
  9
$DIMSAH
 70
     0
  9
$DIMBLK1
  1

  9
$DIMBLK2
  1

  9
$DIMSTYLE
  2
18
  9
$DIMCLRD
 70
     0
  9
$DIMCLRE
 70
     0
  9
$DIMCLRT
 70
     2
  9
$DIMTFAC
 40
1.0
  9
$DIMGAP
 40
0.625
  9
$DIMJUST
 70
     0
  9
$DIMSD1
 70
     0
  9
$DIMSD2
 70
     0
  9
$DIMTOLJ
 70
     1
  9
$DIMTZIN
 70
     0
  9
$DIMALTZ
 70
     0
  9
$DIMALTTZ
 70
     0
  9
$DIMUPT
 70
     0
  9
$DIMDEC
 70
     0
  9
$DIMTDEC
 70
     4
  9
$DIMALTU
 70
     8
  9
$DIMALTTD
 70
     4
  9
$DIMTXSTY
  7
ROMANS
  9
$DIMAUNIT
 70
     0
  9
$DIMADEC
 70
     0
  9
$DIMALTRND
 40
0.0
  9
$DIMAZIN
 70
     0
  9
$DIMDSEP
 70
    46
  9
$DIMATFIT
 70
     3
  9
$DIMFRAC
 70
     0
  9
$DIMLDRBLK
  1

  9
$DIMLUNIT
 70
     6
  9
$DIMLWD
 70
    -2
  9
$DIMLWE
 70
    -2
  9
$DIMTMOVE
 70
     0
  9
$LUNITS
 70
     2
  9
$LUPREC
 70
     4
  9
$SKETCHINC
 40
1.0
  9
$FILLETRAD
 40
0.0
  9
$AUNITS
 70
     0
  9
$AUPREC
 70
     0
  9
$MENU
  1
.
  9
$ELEVATION
 40
0.0
  9
$PELEVATION
 40
0.0
  9
$THICKNESS
 40
0.0
  9
$LIMCHECK
 70
     0
  9
$CHAMFERA
 40
10.0
  9
$CHAMFERB
 40
10.0
  9
$CHAMFERC
 40
20.0
  9
$CHAMFERD
 40
0.0
  9
$SKPOLY
 70
     0
  9
$TDCREATE
 40
2451600.645418067
  9
$TDUCREATE
 40
2451600.562084734
  9
$TDUPDATE
 40
2457248.522325023
  9
$TDUUPDATE
 40
2457248.438991690
  9
$TDINDWG
 40
0.9522787963
  9
$TDUSRTIMER
 40
0.9522785648
  9
$USRTIMER
 70
     1
  9
$ANGBASE
 50
0.0
  9
$ANGDIR
 70
     0
  9
$PDMODE
 70
     0
  9
$PDSIZE
 40
0.0
  9
$PLINEWID
 40
0.0
  9
$SPLFRAME
 70
     0
  9
$SPLINETYPE
 70
     6
  9
$SPLINESEGS
 70
     8
  9
$HANDSEED
  5
52B5
  9
$SURFTAB1
 70
     6
  9
$SURFTAB2
 70
     6
  9
$SURFTYPE
 70
     6
  9
$SURFU
 70
     6
  9
$SURFV
 70
     6
  9
$UCSBASE
  2

  9
$UCSNAME
  2

  9
$UCSORG
 10
0.0
 20
0.0
 30
0.0
  9
$UCSXDIR
 10
1.0
 20
0.0
 30
0.0
  9
$UCSYDIR
 10
0.0
 20
1.0
 30
0.0
  9
$UCSORTHOREF
  2

  9
$UCSORTHOVIEW
 70
     0
  9
$UCSORGTOP
 10
0.0
 20
0.0
 30
0.0
  9
$UCSORGBOTTOM
 10
0.0
 20
0.0
 30
0.0
  9
$UCSORGLEFT
 10
0.0
 20
0.0
 30
0.0
  9
$UCSORGRIGHT
 10
0.0
 20
0.0
 30
0.0
  9
$UCSORGFRONT
 10
0.0
 20
0.0
 30
0.0
  9
$UCSORGBACK
 10
0.0
 20
0.0
 30
0.0
  9
$PUCSBASE
  2

  9
$PUCSNAME
  2

  9
$PUCSORG
 10
0.0
 20
0.0
 30
0.0
  9
$PUCSXDIR
 10
1.0
 20
0.0
 30
0.0
  9
$PUCSYDIR
 10
0.0
 20
1.0
 30
0.0
  9
$PUCSORTHOREF
  2

  9
$PUCSORTHOVIEW
 70
     0
  9
$PUCSORGTOP
 10
0.0
 20
0.0
 30
0.0
  9
$PUCSORGBOTTOM
 10
0.0
 20
0.0
 30
0.0
  9
$PUCSORGLEFT
 10
0.0
 20
0.0
 30
0.0
  9
$PUCSORGRIGHT
 10
0.0
 20
0.0
 30
0.0
  9
$PUCSORGFRONT
 10
0.0
 20
0.0
 30
0.0
  9
$PUCSORGBACK
 10
0.0
 20
0.0
 30
0.0
  9
$USERI1
 70
     0
  9
$USERI2
 70
     0
  9
$USERI3
 70
     0
  9
$USERI4
 70
     0
  9
$USERI5
 70
     0
  9
$USERR1
 40
0.0
  9
$USERR2
 40
0.0
  9
$USERR3
 40
0.0
  9
$USERR4
 40
0.0
  9
$USERR5
 40
0.0
  9
$WORLDVIEW
 70
     1
  9
$SHADEDGE
 70
     3
  9
$SHADEDIF
 70
    70
  9
$TILEMODE
 70
     0
  9
$MAXACTVP
 70
    48
  9
$PINSBASE
 10
0.0
 20
0.0
 30
0.0
  9
$PLIMCHECK
 70
     0
  9
$PEXTMIN
 10
6.236817002505068
 20
2.642657989685733
 30
0.0
  9
$PEXTMAX
 10
195.3571025992262
 20
281.2760437736162
 30
0.0
  9
$PLIMMIN
 10
-6.043083
 20
-6.762742
  9
$PLIMMAX
 10
203.930245
 20
290.205581
  9
$UNITMODE
 70
     0
  9
$VISRETAIN
 70
     1
  9
$PLINEGEN
 70
     0
  9
$PSLTSCALE
 70
     0
  9
$TREEDEPTH
 70
  3020
  9
$CMLSTYLE
  2
STANDARD
  9
$CMLJUST
 70
     0
  9
$CMLSCALE
 40
20.0
  9
$PROXYGRAPHICS
 70
     1
  9
$MEASUREMENT
 70
     1
  9
$CELWEIGHT
370
    -1
  9
$ENDCAPS
280
     0
  9
$JOINSTYLE
280
     0
  9
$LWDISPLAY
290
     0
  9
$INSUNITS
 70
     0
  9
$HYPERLINKBASE
  1

  9
$STYLESHEET
  1

  9
$XEDIT
290
     1
  9
$CEPSNTYPE
380
     0
  9
$PSTYLEMODE
290
     1
  9
$FINGERPRINTGUID
  2
{9E2E0D10-E48E-11D3-BEBA-006008753510}
  9
$VERSIONGUID
  2
{C4C7793F-E798-45D8-8682-F50D480AF1C0}
  9
$EXTNAMES
290
     1
  9
$PSVPSCALE
 40
0.0
  9
$OLESTARTUP
290
     0
  9
$SORTENTS
280
    96
  9
$INDEXCTL
280
     0
  9
$HIDETEXT
280
     0
  9
$XCLIPFRAME
290
     0
  9
$HALOGAP
280
     0
  9
$OBSCOLOR
 70
   257
  9
$OBSLTYPE
280
     0
  9
$INTERSECTIONDISPLAY
280
     0
  9
$INTERSECTIONCOLOR
 70
   257
  9
$DIMASSOC
280
     1
  9
$PROJECTNAME
  1

  0
ENDSEC
  0
SECTION
  2
CLASSES
  0
CLASS
  1
ACDBDICTIONARYWDFLT
  2
AcDbDictionaryWithDefault
  3
ObjectDBX Classes
 90
        0
 91
        1
280
     0
281
     0
  0
CLASS
  1
RASTERVARIABLES
  2
AcDbRasterVariables
  3
ISM
 90
        0
 91
        1
280
     0
281
     0
  0
CLASS
  1
IMAGEDEF
  2
AcDbRasterImageDef
  3
ISM
 90
        0
 91
        1
280
     0
281
     0
  0
CLASS
  1
IMAGEDEF_REACTOR
  2
AcDbRasterImageDefReactor
  3
ISM
 90
        1
 91
        0
280
     0
281
     0
  0
CLASS
  1
IMAGE
  2
AcDbRasterImage
  3
ISM
 90
     2175
 91
        0
280
     0
281
     1
  0
CLASS
  1
DICTIONARYVAR
  2
AcDbDictionaryVar
  3
ObjectDBX Classes
 90
        0
 91
       13
280
     0
281
     0
  0
CLASS
  1
PLOTSETTINGS
  2
AcDbPlotSettings
  3
ObjectDBX Classes
 90
        0
 91
        1
280
     0
281
     0
  0
CLASS
  1
MATERIAL
  2
AcDbMaterial
  3
ObjectDBX Classes
 90
     1153
 91
        3
280
     0
281
     0
  0
CLASS
  1
VISUALSTYLE
  2
AcDbVisualStyle
  3
ObjectDBX Classes
 90
     4095
 91
       24
280
     0
281
     0
  0
CLASS
  1
TABLESTYLE
  2
AcDbTableStyle
  3
ObjectDBX Classes
 90
     4095
 91
        1
280
     0
281
     0
  0
CLASS
  1
SCALE
  2
AcDbScale
  3
ObjectDBX Classes
 90
     1153
 91
       17
280
     0
281
     0
  0
CLASS
  1
MLEADERSTYLE
  2
AcDbMLeaderStyle
  3
ACDB_MLEADERSTYLE_CLASS
 90
     4095
 91
        1
280
     0
281
     0
  0
CLASS
  1
ACDBSECTIONVIEWSTYLE
  2
AcDbSectionViewStyle
  3
ObjectDBX Classes
 90
     1025
 91
        1
280
     0
281
     0
  0
CLASS
  1
ACDBDETAILVIEWSTYLE
  2
AcDbDetailViewStyle
  3
ObjectDBX Classes
 90
     1025
 91
        1
280
     0
281
     0
  0
CLASS
  1
CELLSTYLEMAP
  2
AcDbCellStyleMap
  3
ObjectDBX Classes
 90
     1152
 91
        2
280
     0
281
     0
  0
ENDSEC
  0
SECTION
  2
TABLES
  0
TABLE
  2
VPORT
  5
8
330
0
100
AcDbSymbolTable
 70
     1
  0
VPORT
  5
5167
330
8
100
AcDbSymbolTableRecord
100
AcDbViewportTableRecord
  2
*Active
 70
     0
 10
0.0
 20
0.0
 11
1.0
 21
1.0
 12
684.9873139282598
 22
824.028481915464
 13
0.0
 23
0.0
 14
10.0
 24
10.0
 15
10.0
 25
10.0
 16
0.0
 26
0.0
 36
1.0
 17
0.0
 27
0.0
 37
0.0
 40
1143.899811659681
 41
1.581724581724581
 42
50.0
 43
0.0
 44
0.0
 50
0.0
 51
0.0
 71
     0
 72
 20000
 73
     1
 74
     0
 75
     0
 76
     0
 77
     0
 78
     0
281
     0
 65
     1
110
0.0
120
0.0
130
0.0
111
1.0
121
0.0
131
0.0
112
0.0
122
1.0
132
0.0
 79
     0
146
0.0
1001
ACAD_NAV_VCDISPLAY
1070
     3
  0
ENDTAB
  0
TABLE
  2
LTYPE
  5
5
330
0
100
AcDbSymbolTable
 70
     7
  0
LTYPE
  5
12
330
5
100
AcDbSymbolTableRecord
100
AcDbLinetypeTableRecord
  2
BYBLOCK
 70
     0
  3

 72
    65
 73
     0
 40
0.0
  0
LTYPE
  5
13
330
5
100
AcDbSymbolTableRecord
100
AcDbLinetypeTableRecord
  2
BYLAYER
 70
     0
  3

 72
    65
 73
     0
 40
0.0
  0
LTYPE
  5
14
330
5
100
AcDbSymbolTableRecord
100
AcDbLinetypeTableRecord
  2
CONTINUOUS
 70
     0
  3
Solid line
 72
    65
 73
     0
 40
0.0
  0
LTYPE
  5
113E
330
5
100
AcDbSymbolTableRecord
100
AcDbLinetypeTableRecord
  2
VERDECKTX2
 70
     0
  3
Verdeckt (2x) ____ ____ ____ ____ ____ ____ ___
 72
    65
 73
     2
 40
19.05
 49
12.7
 74
     0
 49
-6.349999999999999
 74
     0
  0
LTYPE
  5
1205
330
5
100
AcDbSymbolTableRecord
100
AcDbLinetypeTableRecord
  2
GESTRICHELT
 70
     0
  3
__ __ __ __ __ __ __ __ __ __ __ __ __ __ __
 72
    65
 73
     2
 40
0.75
 49
0.5
 74
     0
 49
-0.25
 74
     0
  0
LTYPE
  5
1206
330
5
100
AcDbSymbolTableRecord
100
AcDbLinetypeTableRecord
  2
STRICHPUNKT
 70
     0
  3
__ . __ . __ . __ . __ . __ . __ . __ . __ . __
 72
    65
 73
     4
 40
1.0
 49
0.5
 74
     0
 49
-0.25
 74
     0
 49
0.0
 74
     0
 49
-0.25
 74
     0
  0
LTYPE
  5
1207
330
5
100
AcDbSymbolTableRecord
100
AcDbLinetypeTableRecord
  2
VERDECKT
 70
     0
  3
_ _ _ _ _ _ _ _ _ _ _ _ _ _ _ _ _ _ _ _ _ _ _
 72
    65
 73
     2
 40
0.375
 49
0.25
 74
     0
 49
-0.125
 74
     0
  0
LTYPE
  5
308C
330
5
100
AcDbSymbolTableRecord
100
AcDbLinetypeTableRecord
  2
AUSGEZOGEN
 70
     0
  3
Ausgezogene Linie
 72
    65
 73
     0
 40
0.0
  0
LTYPE
  5
34D4
330
5
100
AcDbSymbolTableRecord
100
AcDbLinetypeTableRecord
  2
PUNKT
 70
     0
  3
Punkt . . . . . . . . . . . . . . . . . . . . .
 72
    65
 73
     2
 40
6.349999999999999
 49
0.0
 74
     0
 49
-6.349999999999999
 74
     0
  0
ENDTAB
  0
TABLE
  2
LAYER
  5
2
102
{ACAD_XDICTIONARY
360
51BF
102
}
330
0
100
AcDbSymbolTable
 70
    13
  0
LAYER
  5
E
102
{ACAD_XDICTIONARY
360
51E7
102
}
330
2
100
AcDbSymbolTableRecord
100
AcDbLayerTableRecord
  2
0
 70
     0
 62
     7
  6
CONTINUOUS
370
    -3
390
5E8
  0
LAYER
  5
28
330
2
100
AcDbSymbolTableRecord
100
AcDbLayerTableRecord
  2
DEFPOINTS
 70
     0
 62
     7
  6
CONTINUOUS
290
     0
370
    -3
390
5E8
  0
LAYER
  5
B7
102
{ACAD_XDICTIONARY
360
51E9
102
}
330
2
100
AcDbSymbolTableRecord
100
AcDbLayerTableRecord
  2
V5
 70
     0
 62
     7
  6
CONTINUOUS
370
    -3
390
5E8
  0
LAYER
  5
8F4
102
{ACAD_XDICTIONARY
360
51EB
102
}
330
2
100
AcDbSymbolTableRecord
100
AcDbLayerTableRecord
  2
Mansfen
 70
     0
 62
     4
  6
CONTINUOUS
290
     0
370
    -3
390
5E8
  0
LAYER
  5
120A
102
{ACAD_XDICTIONARY
360
51ED
102
}
330
2
100
AcDbSymbolTableRecord
100
AcDbLayerTableRecord
  2
V35
 70
     0
 62
     3
  6
CONTINUOUS
370
    -3
390
5E8
  0
LAYER
  5
120B
102
{ACAD_XDICTIONARY
360
51EF
102
}
330
2
100
AcDbSymbolTableRecord
100
AcDbLayerTableRecord
  2
V25
 70
     0
 62
     4
  6
CONTINUOUS
370
    -3
390
5E8
  0
LAYER
  5
120C
102
{ACAD_XDICTIONARY
360
51F1
102
}
330
2
100
AcDbSymbolTableRecord
100
AcDbLayerTableRecord
  2
SV35
 70
     0
 62
     6
  6
VERDECKT
370
    -3
390
5E8
  0
LAYER
  5
120D
102
{ACAD_XDICTIONARY
360
51F3
102
}
330
2
100
AcDbSymbolTableRecord
100
AcDbLayerTableRecord
  2
ACHS
 70
     0
 62
     7
  6
STRICHPUNKT
370
    -3
390
5E8
  0
LAYER
  5
120E
102
{ACAD_XDICTIONARY
360
51F5
102
}
330
2
100
AcDbSymbolTableRecord
100
AcDbLayerTableRecord
  2
TXT-D
 70
     0
 62
     1
  6
CONTINUOUS
370
    -3
390
5E8
  0
LAYER
  5
1828
102
{ACAD_XDICTIONARY
360
51F7
102
}
330
2
100
AcDbSymbolTableRecord
100
AcDbLayerTableRecord
  2
ISO10TES
 70
     0
 62
     4
  6
CONTINUOUS
370
    -3
390
5E8
  0
LAYER
  5
2CDF
102
{ACAD_XDICTIONARY
360
51F9
102
}
330
2
100
AcDbSymbolTableRecord
100
AcDbLayerTableRecord
  2
WD
 70
     0
 62
     3
  6
CONTINUOUS
370
    -3
390
5E8
  0
LAYER
  5
34D6
102
{ACAD_XDICTIONARY
360
51FB
102
}
330
2
100
AcDbSymbolTableRecord
100
AcDbLayerTableRecord
  2
INSULATION
 70
     0
 62
     4
  6
CONTINUOUS
370
    -3
390
5E8
  0
LAYER
  5
34D8
102
{ACAD_XDICTIONARY
360
51FD
102
}
330
2
100
AcDbSymbolTableRecord
100
AcDbLayerTableRecord
  2
V30
 70
     0
 62
     3
  6
CONTINUOUS
370
    -3
390
5E8
  0
ENDTAB
  0
TABLE
  2
STYLE
  5
3
330
0
100
AcDbSymbolTable
 70
     3
  0
STYLE
  5
F
330
3
100
AcDbSymbolTableRecord
100
AcDbTextStyleTableRecord
  2
STANDARD
 70
     0
 40
0.0
 41
1.0
 50
0.0
 71
     0
 42
2.5
  3
txt
  4

  0
STYLE
  5
BF
330
3
100
AcDbSymbolTableRecord
100
AcDbTextStyleTableRecord
  2
ROMANS
 70
     0
 40
14.0
 41
1.0
 50
0.0
 71
     0
 42
2.5
  3
arial.ttf
  4

1001
ACAD
1000
Arial
1071
       34
  0
STYLE
  5
91F
330
3
100
AcDbSymbolTableRecord
100
AcDbTextStyleTableRecord
  2
Stil1
 70
     0
 40
3.0
 41
1.0
 50
0.0
 71
     0
 42
3.0
  3
arial.ttf
  4

1001
ACAD
1000
Arial
1071
       34
  0
ENDTAB
  0
TABLE
  2
VIEW
  5
6
330
0
100
AcDbSymbolTable
 70
     0
  0
ENDTAB
  0
TABLE
  2
UCS
  5
7
330
0
100
AcDbSymbolTable
 70
     0
  0
ENDTAB
  0
TABLE
  2
APPID
  5
9
330
0
100
AcDbSymbolTable
 70
     6
  0
APPID
  5
10
330
9
100
AcDbSymbolTableRecord
100
AcDbRegAppTableRecord
  2
ACAD
 70
     0
  0
APPID
  5
1CFE
330
9
100
AcDbSymbolTableRecord
100
AcDbRegAppTableRecord
  2
CONTENTBLOCKICON
 70
     0
  0
APPID
  5
412D
330
9
100
AcDbSymbolTableRecord
100
AcDbRegAppTableRecord
  2
DCO15
 70
     0
  0
APPID
  5
51C4
330
9
100
AcDbSymbolTableRecord
100
AcDbRegAppTableRecord
  2
ACAD_NAV_VCDISPLAY
 70
     0
  0
APPID
  5
51CE
330
9
100
AcDbSymbolTableRecord
100
AcDbRegAppTableRecord
  2
ACAD_EXEMPT_FROM_CAD_STANDARDS
 70
     0
  0
APPID
  5
52B0
330
9
100
AcDbSymbolTableRecord
100
AcDbRegAppTableRecord
  2
ACAD_MLEADERVER
 70
     0
  0
ENDTAB
  0
TABLE
  2
DIMSTYLE
  5
A
330
0
100
AcDbSymbolTable
 70
     2
100
AcDbDimStyleTable
 71
     0
  0
DIMSTYLE
105
1D
330
A
100
AcDbSymbolTableRecord
100
AcDbDimStyleTableRecord
  2
STANDARD
 70
     0
340
F
  0
DIMSTYLE
105
280
330
A
100
AcDbSymbolTableRecord
100
AcDbDimStyleTableRecord
  2
18
 70
     0
 40
5.0
 41
3.5
 42
0.0
 43
3.75
 44
1.25
 73
     0
 74
     0
 77
     1
 78
     8
140
3.5
141
3.5
143
0.0394
147
0.625
171
     4
178
     2
271
     0
273
     8
274
     4
277
     6
340
BF
  0
ENDTAB
  0
TABLE
  2
BLOCK_RECORD
  5
1
330
0
100
AcDbSymbolTable
 70
     6
  0
BLOCK_RECORD
  5
18
102
{ACAD_XDICTIONARY
360
81C
102
}
330
1
100
AcDbSymbolTableRecord
100
AcDbBlockTableRecord
  2
*MODEL_SPACE
340
5EB
  0
BLOCK_RECORD
  5
2105
330
1
100
AcDbSymbolTableRecord
100
AcDbBlockTableRecord
  2
*Paper_Space
340
2104
  0
BLOCK_RECORD
  5
1703
330
1
100
AcDbSymbolTableRecord
100
AcDbBlockTableRecord
  2
HALFEN
340
0
102
{BLKREFS
331
1BAB
102
}
  0
BLOCK_RECORD
  5
170C
330
1
100
AcDbSymbolTableRecord
100
AcDbBlockTableRecord
  2
*X1
340
0
102
{BLKREFS
331
1BAA
102
}
  0
BLOCK_RECORD
  5
312A
330
1
100
AcDbSymbolTableRecord
100
AcDbBlockTableRecord
  2
wädä
340
0
310
2800000020000000200000000100080000000000000400000000000000000000000000000000000000000000000080000080000000808000800000008000800080800000C0C0C000C0DCC000F0CAA6000020400000206000002080000020A0000020C0000020E00000400000004020000040400000406000004080000040A0
310
000040C0000040E00000600000006020000060400000606000006080000060A0000060C0000060E00000800000008020000080400000806000008080000080A0000080C0000080E00000A0000000A0200000A0400000A0600000A0800000A0A00000A0C00000A0E00000C0000000C0200000C0400000C0600000C0800000C0
310
A00000C0C00000C0E00000E0000000E0200000E0400000E0600000E0800000E0A00000E0C00000E0E00040000000400020004000400040006000400080004000A0004000C0004000E00040200000402020004020400040206000402080004020A0004020C0004020E000404000004040200040404000404060004040800040
310
40A0004040C0004040E00040600000406020004060400040606000406080004060A0004060C0004060E00040800000408020004080400040806000408080004080A0004080C0004080E00040A0000040A0200040A0400040A0600040A0800040A0A00040A0C00040A0E00040C0000040C0200040C0400040C0600040C08000
310
40C0A00040C0C00040C0E00040E0000040E0200040E0400040E0600040E0800040E0A00040E0C00040E0E00080000000800020008000400080006000800080008000A0008000C0008000E00080200000802020008020400080206000802080008020A0008020C0008020E00080400000804020008040400080406000804080
310
008040A0008040C0008040E00080600000806020008060400080606000806080008060A0008060C0008060E00080800000808020008080400080806000808080008080A0008080C0008080E00080A0000080A0200080A0400080A0600080A0800080A0A00080A0C00080A0E00080C0000080C0200080C0400080C0600080C0
310
800080C0A00080C0C00080C0E00080E0000080E0200080E0400080E0600080E0800080E0A00080E0C00080E0E000C0000000C0002000C0004000C0006000C0008000C000A000C000C000C000E000C0200000C0202000C0204000C0206000C0208000C020A000C020C000C020E000C0400000C0402000C0404000C0406000C0
310
408000C040A000C040C000C040E000C0600000C0602000C0604000C0606000C0608000C060A000C060C000C060E000C0800000C0802000C0804000C0806000C0808000C080A000C080C000C080E000C0A00000C0A02000C0A04000C0A06000C0A08000C0A0A000C0A0C000C0A0E000C0C00000C0C02000C0C04000C0C06000
310
C0C08000C0C0A000F0FBFF00A4A0A000808080000000FF0000FF000000FFFF00FF000000FF00FF00FFFF0000FFFFFF0000000000000000000000000000000000000000000000000000000000000000000000000000000000000000000000000000000000000000000000000000000000000000000000000000000000000000
310
00000000000000000000000000000000000000000000000000000000000000000000000000000000000000000000000000000000000000000000000000000000000000000000000000000000000000000000000000000000000000000000000000000000000000000000000000000000000000000000000000000000000000
310
00000000000000000000000000000000000000000000000000000000000000000000000000000000000000000000000000000000000000000000000000000000000000000000000000000000000000000000000000000000000000000000000000000000000000000000000000000000000000000000000000000000000000
310
00000000000000000000FEFEFEFE0000000000000000000000000000000000000000FEFEFEFEFEFEFEFE00000000FE000000000000000000000000FEFEFEFEFEFEFE00000000000000000000000000FE00000000000000FEFEFEFE000000000000000000000000000000000000000000000000000000FE000000FEFEFEFEFE
310
FE000000000000000000000000000000FE000000000000FE000000000000000000FEFEFEFEFE00000000000000000000FE0000000000FE000000000000000000000000000000FEFEFEFEFEFE000000FE0000000000FE000000000000000000000000000000000000000000FEFEFEFE00000000000000FE0000000000000000
310
00000000FEFEFEFEFEFEFEFE000000000000000000000000FE00000000FEFEFEFEFEFEFE000000000000000000000000000000000000000000FEFEFEFE000000000000000000000000000000000000000000000000000000000000000000000000000000000000000000000000000000000000000000000000000000000000
310
00000000000000000000000000000000000000000000000000000000000000000000000000000000000000000000000000000000000000000000000000000000000000000000000000000000000000000000000000000000000000000000000000000000000000000000000000000000000000000000000000000000000000
310
00000000000000000000000000000000000000000000000000000000000000000000000000000000000000000000000000000000000000000000000000000000000000000000000000000000000000000000000000000000000000000000000000000000000000000000000000000000000000000000000000000000000000
310
0000000000000000000000000000000000000000000000000000000000000000000000000000000000000000000000000000000000000000
102
{BLKREFS
331
313F
331
3140
331
3141
331
3142
331
3143
331
3148
331
3149
331
314A
331
314B
331
314C
331
314D
331
314E
331
314F
331
3150
331
3151
331
3152
331
3153
331
3DAE
331
42E3
331
42E4
331
42E5
331
42E6
331
42FE
331
42FF
331
4300
331
4301
331
4302
102
}
  0
BLOCK_RECORD
  5
34C5
330
1
100
AcDbSymbolTableRecord
100
AcDbBlockTableRecord
  2
DAEMM
340
0
102
{BLKREFS
331
50C4
331
50C5
331
50C6
331
50C9
331
50CA
102
}
  0
BLOCK_RECORD
  5
34C9
330
1
100
AcDbSymbolTableRecord
100
AcDbBlockTableRecord
  2
luft
340
0
310
2800000020000000200000000100080000000000000400000000000000000000000000000000000000000000000080000080000000808000800000008000800080800000C0C0C000C0DCC000F0CAA6000020400000206000002080000020A0000020C0000020E00000400000004020000040400000406000004080000040A0
310
000040C0000040E00000600000006020000060400000606000006080000060A0000060C0000060E00000800000008020000080400000806000008080000080A0000080C0000080E00000A0000000A0200000A0400000A0600000A0800000A0A00000A0C00000A0E00000C0000000C0200000C0400000C0600000C0800000C0
310
A00000C0C00000C0E00000E0000000E0200000E0400000E0600000E0800000E0A00000E0C00000E0E00040000000400020004000400040006000400080004000A0004000C0004000E00040200000402020004020400040206000402080004020A0004020C0004020E000404000004040200040404000404060004040800040
310
40A0004040C0004040E00040600000406020004060400040606000406080004060A0004060C0004060E00040800000408020004080400040806000408080004080A0004080C0004080E00040A0000040A0200040A0400040A0600040A0800040A0A00040A0C00040A0E00040C0000040C0200040C0400040C0600040C08000
310
40C0A00040C0C00040C0E00040E0000040E0200040E0400040E0600040E0800040E0A00040E0C00040E0E00080000000800020008000400080006000800080008000A0008000C0008000E00080200000802020008020400080206000802080008020A0008020C0008020E00080400000804020008040400080406000804080
310
008040A0008040C0008040E00080600000806020008060400080606000806080008060A0008060C0008060E00080800000808020008080400080806000808080008080A0008080C0008080E00080A0000080A0200080A0400080A0600080A0800080A0A00080A0C00080A0E00080C0000080C0200080C0400080C0600080C0
310
800080C0A00080C0C00080C0E00080E0000080E0200080E0400080E0600080E0800080E0A00080E0C00080E0E000C0000000C0002000C0004000C0006000C0008000C000A000C000C000C000E000C0200000C0202000C0204000C0206000C0208000C020A000C020C000C020E000C0400000C0402000C0404000C0406000C0
310
408000C040A000C040C000C040E000C0600000C0602000C0604000C0606000C0608000C060A000C060C000C060E000C0800000C0802000C0804000C0806000C0808000C080A000C080C000C080E000C0A00000C0A02000C0A04000C0A06000C0A08000C0A0A000C0A0C000C0A0E000C0C00000C0C02000C0C04000C0C06000
310
C0C08000C0C0A000F0FBFF00A4A0A000808080000000FF0000FF000000FFFF00FF000000FF00FF00FFFF0000FFFFFF00000000000000000000000000000000000000000000000000000000000000000000000000000000FFFF000000000000000000000000000000000000000000000000000000000000FFFFFFFF00000000
310
00000000000000000000000000000000000000000000000000FFFF00FF00000000000000000000000000000000000000000000000000000000FF00FF000000000000000000000000000000000000000000000000000000000000FF00FF0000000000000000000000000000000000000000000000000000000000000000FF00
310
00000000000000000000000000000000000000000000000000000000000000FF00000000000000000000000000000000000000000000000000000000000000FF0000000000000000000000000000000000000000000000000000000000000000FF000000000000000000000000000000000000000000000000000000000000
310
000000000000000000000000000000000000000000000000000000000000000000FF00000000000000000000000000000000000000000000000000000000000000FF00000000000000000000000000000000000000000000000000000000000000FF0000000000000000000000000000000000000000000000000000000000
310
0000FF00000000000000000000000000000000000000000000000000000000000000FF00000000000000000000000000000000000000000000000000000000000000FF00000000000000000000000000000000000000000000000000000000000000FF00000000000000000000000000000000000000000000000000000000
310
000000FF0000000000000000FF00000000000000000000000000000000000000000000FF0000000000000000FF00000000000000000000000000000000000000000000FF0000000000000000FF00000000000000000000000000000000000000000000FF0000000000000000FF000000000000000000000000000000000000
310
00000000FF0000000000000000FF00000000000000000000000000000000000000000000FF0000000000000000FF00000000000000000000000000000000000000000000FF0000000000000000FF00000000000000000000000000000000000000000000FF0000000000000000FF0000000000000000000000000000000000
310
000000000000FF000000000000FF000000000000000000000000000000000000000000000000FF000000000000FF00000000000000000000000000000000000000000000000000FFFFFFFFFFFF0000000000000000000000000000000000000000000000000000000000000000000000000000000000000000000000000000
310
0000000000000000000000000000000000000000000000000000000000000000000000000000000000000000000000000000000000000000
102
{BLKREFS
331
3D82
102
}
  0
BLOCK_RECORD
  5
44B0
330
1
100
AcDbSymbolTableRecord
100
AcDbBlockTableRecord
  2
e140
340
0
102
{BLKREFS
331
5063
331
5067
102
}
  0
ENDTAB
  0
ENDSEC
  0
SECTION
  2
BLOCKS
  0
BLOCK
  5
19
330
18
100
AcDbEntity
  8
0
100
AcDbBlockBegin
  2
*MODEL_SPACE
 70
     0
 10
0.0
 20
0.0
 30
0.0
  3
*MODEL_SPACE
  1

  0
ENDBLK
  5
1A
330
18
100
AcDbEntity
  8
0
100
AcDbBlockEnd
  0
BLOCK
  5
2123
330
2105
100
AcDbEntity
 67
     1
  8
0
 48
5.0
100
AcDbBlockBegin
  2
*Paper_Space
 70
     0
 10
0.0
 20
0.0
 30
0.0
  3
*Paper_Space
  1

  0
ENDBLK
  5
2124
330
2105
100
AcDbEntity
 67
     1
  8
0
 48
5.0
100
AcDbBlockEnd
  0
BLOCK
  5
170A
330
1703
100
AcDbEntity
  8
0
100
AcDbBlockBegin
  2
HALFEN
 70
     0
 10
0.0
 20
0.0
 30
0.0
  3
HALFEN
  1

  0
LINE
  5
1704
330
1703
100
AcDbEntity
  8
0
100
AcDbLine
 10
2.159883279355028
 20
-72.16333143498059
 30
0.0
 11
2.159883279355028
 21
-50.12489367374223
 31
0.0
  0
ARC
  5
1705
330
1703
100
AcDbEntity
  8
0
100
AcDbCircle
 10
28.15988327935503
 20
-50.12489367374223
 30
0.0
 40
26.0
100
AcDbArc
 50
90.0
 51
180.0
  0
LINE
  5
1706
330
1703
100
AcDbEntity
  8
0
100
AcDbLine
 10
-1.834867376810564
 20
-72.16333143498059
 30
0.0
 11
-1.834867376810564
 21
-50.12489367374223
 31
0.0
  0
ARC
  5
1707
330
1703
100
AcDbEntity
  8
0
100
AcDbCircle
 10
-27.83486737681057
 20
-50.12489367374223
 30
0.0
 40
26.0
100
AcDbArc
 50
0.0
 51
90.0
  0
ARC
  5
1708
330
1703
100
AcDbEntity
  8
0
100
AcDbCircle
 10
0.1625079512722323
 20
-80.42532222406203
 30
0.0
 40
8.5
100
AcDbArc
 50
103.5907581896157
 51
76.40924181038427
  0
LWPOLYLINE
  5
1709
330
1703
100
AcDbEntity
  8
0
100
AcDbPolyline
 90
       12
 70
     1
 43
0.0
 10
-27.83486737681057
 20
-24.12489367374224
 10
-27.83486737681057
 20
-6.124893673742235
 42
-0.4142135623731007
 10
-24.83749204872777
 20
-3.127518345659382
 10
25.16250795127223
 20
-3.127518345659382
 42
-0.4142135623731007
 10
28.15988327935503
 20
-6.124893673742235
 10
28.15988327935503
 20
-24.12489367374224
 10
31.16513262318944
 20
-24.12489367374224
 10
31.16513262318944
 20
-6.124893673742235
 42
0.4142135623730924
 10
25.16250795127223
 20
-0.1222690018250887
 10
-24.83749204872777
 20
-0.1222690018250887
 42
0.4142135623730924
 10
-30.84011672064497
 20
-6.124893673742235
 10
-30.84011672064497
 20
-24.12489367374224
  0
ENDBLK
  5
170B
330
1703
100
AcDbEntity
  8
0
100
AcDbBlockEnd
  0
BLOCK
  5
17D8
330
170C
100
AcDbEntity
  8
0
100
AcDbBlockBegin
  2
*X1
 70
     1
 10
0.0
 20
0.0
 30
0.0
  3
*X1
  1

  0
LINE
  5
170D
330
170C
100
AcDbEntity
  8
0
 62
     0
380
     1
100
AcDbLine
 10
367.5
 20
440.0
 30
0.0
 11
367.5
 21
440.0
 31
0.0
  0
LINE
  5
170E
330
170C
100
AcDbEntity
  8
0
 62
     0
380
     1
100
AcDbLine
 10
370.0
 20
440.0
 30
0.0
 11
370.0
 21
440.0
 31
0.0
  0
LINE
  5
170F
330
170C
100
AcDbEntity
  8
0
 62
     0
380
     1
100
AcDbLine
 10
372.5
 20
440.0
 30
0.0
 11
372.5
 21
440.0
 31
0.0
  0
LINE
  5
1710
330
170C
100
AcDbEntity
  8
0
 62
     0
380
     1
100
AcDbLine
 10
375.0
 20
440.0
 30
0.0
 11
375.0
 21
440.0
 31
0.0
  0
LINE
  5
1711
330
170C
100
AcDbEntity
  8
0
 62
     0
380
     1
100
AcDbLine
 10
377.5
 20
440.0
 30
0.0
 11
377.5
 21
440.0
 31
0.0
  0
LINE
  5
1712
330
170C
100
AcDbEntity
  8
0
 62
     0
380
     1
100
AcDbLine
 10
380.0
 20
440.0
 30
0.0
 11
380.0
 21
440.0
 31
0.0
  0
LINE
  5
1713
330
170C
100
AcDbEntity
  8
0
 62
     0
380
     1
100
AcDbLine
 10
382.5
 20
440.0
 30
0.0
 11
382.5
 21
440.0
 31
0.0
  0
LINE
  5
1714
330
170C
100
AcDbEntity
  8
0
 62
     0
380
     1
100
AcDbLine
 10
385.0
 20
440.0
 30
0.0
 11
385.0
 21
440.0
 31
0.0
  0
LINE
  5
1715
330
170C
100
AcDbEntity
  8
0
 62
     0
380
     1
100
AcDbLine
 10
387.5
 20
440.0
 30
0.0
 11
387.5
 21
440.0
 31
0.0
  0
LINE
  5
1716
330
170C
100
AcDbEntity
  8
0
 62
     0
380
     1
100
AcDbLine
 10
390.0
 20
440.0
 30
0.0
 11
390.0
 21
440.0
 31
0.0
  0
LINE
  5
1717
330
170C
100
AcDbEntity
  8
0
 62
     0
380
     1
100
AcDbLine
 10
392.5
 20
440.0
 30
0.0
 11
392.5
 21
440.0
 31
0.0
  0
LINE
  5
1718
330
170C
100
AcDbEntity
  8
0
 62
     0
380
     1
100
AcDbLine
 10
395.0
 20
440.0
 30
0.0
 11
395.0
 21
440.0
 31
0.0
  0
LINE
  5
1719
330
170C
100
AcDbEntity
  8
0
 62
     0
380
     1
100
AcDbLine
 10
397.5
 20
440.0
 30
0.0
 11
397.5
 21
440.0
 31
0.0
  0
LINE
  5
171A
330
170C
100
AcDbEntity
  8
0
 62
     0
380
     1
100
AcDbLine
 10
400.0
 20
440.0
 30
0.0
 11
400.0
 21
440.0
 31
0.0
  0
LINE
  5
171B
330
170C
100
AcDbEntity
  8
0
 62
     0
380
     1
100
AcDbLine
 10
402.5
 20
440.0
 30
0.0
 11
402.5
 21
440.0
 31
0.0
  0
LINE
  5
171C
330
170C
100
AcDbEntity
  8
0
 62
     0
380
     1
100
AcDbLine
 10
405.0
 20
440.0
 30
0.0
 11
405.0
 21
440.0
 31
0.0
  0
LINE
  5
171D
330
170C
100
AcDbEntity
  8
0
 62
     0
380
     1
100
AcDbLine
 10
407.5
 20
440.0
 30
0.0
 11
407.5
 21
440.0
 31
0.0
  0
LINE
  5
171E
330
170C
100
AcDbEntity
  8
0
 62
     0
380
     1
100
AcDbLine
 10
410.0
 20
440.0
 30
0.0
 11
410.0
 21
440.0
 31
0.0
  0
LINE
  5
171F
330
170C
100
AcDbEntity
  8
0
 62
     0
380
     1
100
AcDbLine
 10
412.5
 20
440.0
 30
0.0
 11
412.5
 21
440.0
 31
0.0
  0
LINE
  5
1720
330
170C
100
AcDbEntity
  8
0
 62
     0
380
     1
100
AcDbLine
 10
415.0
 20
440.0
 30
0.0
 11
415.0
 21
440.0
 31
0.0
  0
LINE
  5
1721
330
170C
100
AcDbEntity
  8
0
 62
     0
380
     1
100
AcDbLine
 10
417.4999999999999
 20
440.0
 30
0.0
 11
417.4999999999999
 21
440.0
 31
0.0
  0
LINE
  5
1722
330
170C
100
AcDbEntity
  8
0
 62
     0
380
     1
100
AcDbLine
 10
420.0
 20
440.0
 30
0.0
 11
420.0
 21
440.0
 31
0.0
  0
LINE
  5
1723
330
170C
100
AcDbEntity
  8
0
 62
     0
380
     1
100
AcDbLine
 10
422.4999999999999
 20
440.0
 30
0.0
 11
422.4999999999999
 21
440.0
 31
0.0
  0
LINE
  5
1724
330
170C
100
AcDbEntity
  8
0
 62
     0
380
     1
100
AcDbLine
 10
368.75
 20
442.4999999999999
 30
0.0
 11
368.75
 21
442.4999999999999
 31
0.0
  0
LINE
  5
1725
330
170C
100
AcDbEntity
  8
0
 62
     0
380
     1
100
AcDbLine
 10
371.25
 20
442.4999999999999
 30
0.0
 11
371.25
 21
442.4999999999999
 31
0.0
  0
LINE
  5
1726
330
170C
100
AcDbEntity
  8
0
 62
     0
380
     1
100
AcDbLine
 10
373.75
 20
442.4999999999999
 30
0.0
 11
373.75
 21
442.4999999999999
 31
0.0
  0
LINE
  5
1727
330
170C
100
AcDbEntity
  8
0
 62
     0
380
     1
100
AcDbLine
 10
376.25
 20
442.4999999999999
 30
0.0
 11
376.25
 21
442.4999999999999
 31
0.0
  0
LINE
  5
1728
330
170C
100
AcDbEntity
  8
0
 62
     0
380
     1
100
AcDbLine
 10
378.75
 20
442.4999999999999
 30
0.0
 11
378.75
 21
442.4999999999999
 31
0.0
  0
LINE
  5
1729
330
170C
100
AcDbEntity
  8
0
 62
     0
380
     1
100
AcDbLine
 10
381.25
 20
442.4999999999999
 30
0.0
 11
381.25
 21
442.4999999999999
 31
0.0
  0
LINE
  5
172A
330
170C
100
AcDbEntity
  8
0
 62
     0
380
     1
100
AcDbLine
 10
383.75
 20
442.4999999999999
 30
0.0
 11
383.75
 21
442.4999999999999
 31
0.0
  0
LINE
  5
172B
330
170C
100
AcDbEntity
  8
0
 62
     0
380
     1
100
AcDbLine
 10
386.25
 20
442.4999999999999
 30
0.0
 11
386.25
 21
442.4999999999999
 31
0.0
  0
LINE
  5
172C
330
170C
100
AcDbEntity
  8
0
 62
     0
380
     1
100
AcDbLine
 10
388.75
 20
442.4999999999999
 30
0.0
 11
388.75
 21
442.4999999999999
 31
0.0
  0
LINE
  5
172D
330
170C
100
AcDbEntity
  8
0
 62
     0
380
     1
100
AcDbLine
 10
391.25
 20
442.4999999999999
 30
0.0
 11
391.25
 21
442.4999999999999
 31
0.0
  0
LINE
  5
172E
330
170C
100
AcDbEntity
  8
0
 62
     0
380
     1
100
AcDbLine
 10
393.75
 20
442.4999999999999
 30
0.0
 11
393.75
 21
442.4999999999999
 31
0.0
  0
LINE
  5
172F
330
170C
100
AcDbEntity
  8
0
 62
     0
380
     1
100
AcDbLine
 10
396.25
 20
442.4999999999999
 30
0.0
 11
396.25
 21
442.4999999999999
 31
0.0
  0
LINE
  5
1730
330
170C
100
AcDbEntity
  8
0
 62
     0
380
     1
100
AcDbLine
 10
398.75
 20
442.4999999999999
 30
0.0
 11
398.75
 21
442.4999999999999
 31
0.0
  0
LINE
  5
1731
330
170C
100
AcDbEntity
  8
0
 62
     0
380
     1
100
AcDbLine
 10
401.25
 20
442.4999999999999
 30
0.0
 11
401.25
 21
442.4999999999999
 31
0.0
  0
LINE
  5
1732
330
170C
100
AcDbEntity
  8
0
 62
     0
380
     1
100
AcDbLine
 10
403.7499999999999
 20
442.4999999999999
 30
0.0
 11
403.7499999999999
 21
442.4999999999999
 31
0.0
  0
LINE
  5
1733
330
170C
100
AcDbEntity
  8
0
 62
     0
380
     1
100
AcDbLine
 10
406.25
 20
442.4999999999999
 30
0.0
 11
406.25
 21
442.4999999999999
 31
0.0
  0
LINE
  5
1734
330
170C
100
AcDbEntity
  8
0
 62
     0
380
     1
100
AcDbLine
 10
408.75
 20
442.4999999999999
 30
0.0
 11
408.75
 21
442.4999999999999
 31
0.0
  0
LINE
  5
1735
330
170C
100
AcDbEntity
  8
0
 62
     0
380
     1
100
AcDbLine
 10
411.2499999999999
 20
442.4999999999999
 30
0.0
 11
411.2499999999999
 21
442.4999999999999
 31
0.0
  0
LINE
  5
1736
330
170C
100
AcDbEntity
  8
0
 62
     0
380
     1
100
AcDbLine
 10
413.75
 20
442.4999999999999
 30
0.0
 11
413.75
 21
442.4999999999999
 31
0.0
  0
LINE
  5
1737
330
170C
100
AcDbEntity
  8
0
 62
     0
380
     1
100
AcDbLine
 10
416.2499999999999
 20
442.4999999999999
 30
0.0
 11
416.2499999999999
 21
442.4999999999999
 31
0.0
  0
LINE
  5
1738
330
170C
100
AcDbEntity
  8
0
 62
     0
380
     1
100
AcDbLine
 10
418.75
 20
442.4999999999999
 30
0.0
 11
418.75
 21
442.4999999999999
 31
0.0
  0
LINE
  5
1739
330
170C
100
AcDbEntity
  8
0
 62
     0
380
     1
100
AcDbLine
 10
421.25
 20
442.4999999999999
 30
0.0
 11
421.25
 21
442.4999999999999
 31
0.0
  0
LINE
  5
173A
330
170C
100
AcDbEntity
  8
0
 62
     0
380
     1
100
AcDbLine
 10
367.5
 20
445.0
 30
0.0
 11
367.5
 21
445.0
 31
0.0
  0
LINE
  5
173B
330
170C
100
AcDbEntity
  8
0
 62
     0
380
     1
100
AcDbLine
 10
370.0
 20
445.0
 30
0.0
 11
370.0
 21
445.0
 31
0.0
  0
LINE
  5
173C
330
170C
100
AcDbEntity
  8
0
 62
     0
380
     1
100
AcDbLine
 10
372.5
 20
445.0
 30
0.0
 11
372.5
 21
445.0
 31
0.0
  0
LINE
  5
173D
330
170C
100
AcDbEntity
  8
0
 62
     0
380
     1
100
AcDbLine
 10
375.0
 20
445.0
 30
0.0
 11
375.0
 21
445.0
 31
0.0
  0
LINE
  5
173E
330
170C
100
AcDbEntity
  8
0
 62
     0
380
     1
100
AcDbLine
 10
377.5
 20
445.0
 30
0.0
 11
377.5
 21
445.0
 31
0.0
  0
LINE
  5
173F
330
170C
100
AcDbEntity
  8
0
 62
     0
380
     1
100
AcDbLine
 10
380.0
 20
445.0
 30
0.0
 11
380.0
 21
445.0
 31
0.0
  0
LINE
  5
1740
330
170C
100
AcDbEntity
  8
0
 62
     0
380
     1
100
AcDbLine
 10
382.5
 20
445.0
 30
0.0
 11
382.5
 21
445.0
 31
0.0
  0
LINE
  5
1741
330
170C
100
AcDbEntity
  8
0
 62
     0
380
     1
100
AcDbLine
 10
385.0
 20
445.0
 30
0.0
 11
385.0
 21
445.0
 31
0.0
  0
LINE
  5
1742
330
170C
100
AcDbEntity
  8
0
 62
     0
380
     1
100
AcDbLine
 10
387.5
 20
445.0
 30
0.0
 11
387.5
 21
445.0
 31
0.0
  0
LINE
  5
1743
330
170C
100
AcDbEntity
  8
0
 62
     0
380
     1
100
AcDbLine
 10
390.0
 20
445.0
 30
0.0
 11
390.0
 21
445.0
 31
0.0
  0
LINE
  5
1744
330
170C
100
AcDbEntity
  8
0
 62
     0
380
     1
100
AcDbLine
 10
392.5
 20
445.0
 30
0.0
 11
392.5
 21
445.0
 31
0.0
  0
LINE
  5
1745
330
170C
100
AcDbEntity
  8
0
 62
     0
380
     1
100
AcDbLine
 10
395.0
 20
445.0
 30
0.0
 11
395.0
 21
445.0
 31
0.0
  0
LINE
  5
1746
330
170C
100
AcDbEntity
  8
0
 62
     0
380
     1
100
AcDbLine
 10
397.5
 20
445.0
 30
0.0
 11
397.5
 21
445.0
 31
0.0
  0
LINE
  5
1747
330
170C
100
AcDbEntity
  8
0
 62
     0
380
     1
100
AcDbLine
 10
400.0
 20
445.0
 30
0.0
 11
400.0
 21
445.0
 31
0.0
  0
LINE
  5
1748
330
170C
100
AcDbEntity
  8
0
 62
     0
380
     1
100
AcDbLine
 10
402.5
 20
445.0
 30
0.0
 11
402.5
 21
445.0
 31
0.0
  0
LINE
  5
1749
330
170C
100
AcDbEntity
  8
0
 62
     0
380
     1
100
AcDbLine
 10
405.0
 20
445.0
 30
0.0
 11
405.0
 21
445.0
 31
0.0
  0
LINE
  5
174A
330
170C
100
AcDbEntity
  8
0
 62
     0
380
     1
100
AcDbLine
 10
407.5
 20
445.0
 30
0.0
 11
407.5
 21
445.0
 31
0.0
  0
LINE
  5
174B
330
170C
100
AcDbEntity
  8
0
 62
     0
380
     1
100
AcDbLine
 10
410.0
 20
445.0
 30
0.0
 11
410.0
 21
445.0
 31
0.0
  0
LINE
  5
174C
330
170C
100
AcDbEntity
  8
0
 62
     0
380
     1
100
AcDbLine
 10
412.5
 20
445.0
 30
0.0
 11
412.5
 21
445.0
 31
0.0
  0
LINE
  5
174D
330
170C
100
AcDbEntity
  8
0
 62
     0
380
     1
100
AcDbLine
 10
415.0
 20
445.0
 30
0.0
 11
415.0
 21
445.0
 31
0.0
  0
LINE
  5
174E
330
170C
100
AcDbEntity
  8
0
 62
     0
380
     1
100
AcDbLine
 10
417.4999999999999
 20
445.0
 30
0.0
 11
417.4999999999999
 21
445.0
 31
0.0
  0
LINE
  5
174F
330
170C
100
AcDbEntity
  8
0
 62
     0
380
     1
100
AcDbLine
 10
420.0
 20
445.0
 30
0.0
 11
420.0
 21
445.0
 31
0.0
  0
LINE
  5
1750
330
170C
100
AcDbEntity
  8
0
 62
     0
380
     1
100
AcDbLine
 10
422.4999999999999
 20
445.0
 30
0.0
 11
422.4999999999999
 21
445.0
 31
0.0
  0
LINE
  5
1751
330
170C
100
AcDbEntity
  8
0
 62
     0
380
     1
100
AcDbLine
 10
368.75
 20
447.5
 30
0.0
 11
368.75
 21
447.5
 31
0.0
  0
LINE
  5
1752
330
170C
100
AcDbEntity
  8
0
 62
     0
380
     1
100
AcDbLine
 10
371.25
 20
447.5
 30
0.0
 11
371.25
 21
447.5
 31
0.0
  0
LINE
  5
1753
330
170C
100
AcDbEntity
  8
0
 62
     0
380
     1
100
AcDbLine
 10
373.75
 20
447.5
 30
0.0
 11
373.75
 21
447.5
 31
0.0
  0
LINE
  5
1754
330
170C
100
AcDbEntity
  8
0
 62
     0
380
     1
100
AcDbLine
 10
376.25
 20
447.5
 30
0.0
 11
376.25
 21
447.5
 31
0.0
  0
LINE
  5
1755
330
170C
100
AcDbEntity
  8
0
 62
     0
380
     1
100
AcDbLine
 10
378.75
 20
447.5
 30
0.0
 11
378.75
 21
447.5
 31
0.0
  0
LINE
  5
1756
330
170C
100
AcDbEntity
  8
0
 62
     0
380
     1
100
AcDbLine
 10
381.25
 20
447.5
 30
0.0
 11
381.25
 21
447.5
 31
0.0
  0
LINE
  5
1757
330
170C
100
AcDbEntity
  8
0
 62
     0
380
     1
100
AcDbLine
 10
383.75
 20
447.5
 30
0.0
 11
383.75
 21
447.5
 31
0.0
  0
LINE
  5
1758
330
170C
100
AcDbEntity
  8
0
 62
     0
380
     1
100
AcDbLine
 10
386.25
 20
447.5
 30
0.0
 11
386.25
 21
447.5
 31
0.0
  0
LINE
  5
1759
330
170C
100
AcDbEntity
  8
0
 62
     0
380
     1
100
AcDbLine
 10
388.75
 20
447.5
 30
0.0
 11
388.75
 21
447.5
 31
0.0
  0
LINE
  5
175A
330
170C
100
AcDbEntity
  8
0
 62
     0
380
     1
100
AcDbLine
 10
391.25
 20
447.5
 30
0.0
 11
391.25
 21
447.5
 31
0.0
  0
LINE
  5
175B
330
170C
100
AcDbEntity
  8
0
 62
     0
380
     1
100
AcDbLine
 10
393.75
 20
447.5
 30
0.0
 11
393.75
 21
447.5
 31
0.0
  0
LINE
  5
175C
330
170C
100
AcDbEntity
  8
0
 62
     0
380
     1
100
AcDbLine
 10
396.25
 20
447.5
 30
0.0
 11
396.25
 21
447.5
 31
0.0
  0
LINE
  5
175D
330
170C
100
AcDbEntity
  8
0
 62
     0
380
     1
100
AcDbLine
 10
398.75
 20
447.5
 30
0.0
 11
398.75
 21
447.5
 31
0.0
  0
LINE
  5
175E
330
170C
100
AcDbEntity
  8
0
 62
     0
380
     1
100
AcDbLine
 10
401.25
 20
447.5
 30
0.0
 11
401.25
 21
447.5
 31
0.0
  0
LINE
  5
175F
330
170C
100
AcDbEntity
  8
0
 62
     0
380
     1
100
AcDbLine
 10
403.7499999999999
 20
447.5
 30
0.0
 11
403.7499999999999
 21
447.5
 31
0.0
  0
LINE
  5
1760
330
170C
100
AcDbEntity
  8
0
 62
     0
380
     1
100
AcDbLine
 10
406.25
 20
447.5
 30
0.0
 11
406.25
 21
447.5
 31
0.0
  0
LINE
  5
1761
330
170C
100
AcDbEntity
  8
0
 62
     0
380
     1
100
AcDbLine
 10
408.75
 20
447.5
 30
0.0
 11
408.75
 21
447.5
 31
0.0
  0
LINE
  5
1762
330
170C
100
AcDbEntity
  8
0
 62
     0
380
     1
100
AcDbLine
 10
411.2499999999999
 20
447.5
 30
0.0
 11
411.2499999999999
 21
447.5
 31
0.0
  0
LINE
  5
1763
330
170C
100
AcDbEntity
  8
0
 62
     0
380
     1
100
AcDbLine
 10
413.75
 20
447.5
 30
0.0
 11
413.75
 21
447.5
 31
0.0
  0
LINE
  5
1764
330
170C
100
AcDbEntity
  8
0
 62
     0
380
     1
100
AcDbLine
 10
416.2499999999999
 20
447.5
 30
0.0
 11
416.2499999999999
 21
447.5
 31
0.0
  0
LINE
  5
1765
330
170C
100
AcDbEntity
  8
0
 62
     0
380
     1
100
AcDbLine
 10
418.75
 20
447.5
 30
0.0
 11
418.75
 21
447.5
 31
0.0
  0
LINE
  5
1766
330
170C
100
AcDbEntity
  8
0
 62
     0
380
     1
100
AcDbLine
 10
421.25
 20
447.5
 30
0.0
 11
421.25
 21
447.5
 31
0.0
  0
LINE
  5
1767
330
170C
100
AcDbEntity
  8
0
 62
     0
380
     1
100
AcDbLine
 10
367.5
 20
450.0
 30
0.0
 11
367.5
 21
450.0
 31
0.0
  0
LINE
  5
1768
330
170C
100
AcDbEntity
  8
0
 62
     0
380
     1
100
AcDbLine
 10
370.0
 20
450.0
 30
0.0
 11
370.0
 21
450.0
 31
0.0
  0
LINE
  5
1769
330
170C
100
AcDbEntity
  8
0
 62
     0
380
     1
100
AcDbLine
 10
372.5
 20
450.0
 30
0.0
 11
372.5
 21
450.0
 31
0.0
  0
LINE
  5
176A
330
170C
100
AcDbEntity
  8
0
 62
     0
380
     1
100
AcDbLine
 10
375.0
 20
450.0
 30
0.0
 11
375.0
 21
450.0
 31
0.0
  0
LINE
  5
176B
330
170C
100
AcDbEntity
  8
0
 62
     0
380
     1
100
AcDbLine
 10
377.5
 20
450.0
 30
0.0
 11
377.5
 21
450.0
 31
0.0
  0
LINE
  5
176C
330
170C
100
AcDbEntity
  8
0
 62
     0
380
     1
100
AcDbLine
 10
380.0
 20
450.0
 30
0.0
 11
380.0
 21
450.0
 31
0.0
  0
LINE
  5
176D
330
170C
100
AcDbEntity
  8
0
 62
     0
380
     1
100
AcDbLine
 10
382.5
 20
450.0
 30
0.0
 11
382.5
 21
450.0
 31
0.0
  0
LINE
  5
176E
330
170C
100
AcDbEntity
  8
0
 62
     0
380
     1
100
AcDbLine
 10
385.0
 20
450.0
 30
0.0
 11
385.0
 21
450.0
 31
0.0
  0
LINE
  5
176F
330
170C
100
AcDbEntity
  8
0
 62
     0
380
     1
100
AcDbLine
 10
387.5
 20
450.0
 30
0.0
 11
387.5
 21
450.0
 31
0.0
  0
LINE
  5
1770
330
170C
100
AcDbEntity
  8
0
 62
     0
380
     1
100
AcDbLine
 10
390.0
 20
450.0
 30
0.0
 11
390.0
 21
450.0
 31
0.0
  0
LINE
  5
1771
330
170C
100
AcDbEntity
  8
0
 62
     0
380
     1
100
AcDbLine
 10
392.5
 20
450.0
 30
0.0
 11
392.5
 21
450.0
 31
0.0
  0
LINE
  5
1772
330
170C
100
AcDbEntity
  8
0
 62
     0
380
     1
100
AcDbLine
 10
395.0
 20
450.0
 30
0.0
 11
395.0
 21
450.0
 31
0.0
  0
LINE
  5
1773
330
170C
100
AcDbEntity
  8
0
 62
     0
380
     1
100
AcDbLine
 10
397.5
 20
450.0
 30
0.0
 11
397.5
 21
450.0
 31
0.0
  0
LINE
  5
1774
330
170C
100
AcDbEntity
  8
0
 62
     0
380
     1
100
AcDbLine
 10
400.0
 20
450.0
 30
0.0
 11
400.0
 21
450.0
 31
0.0
  0
LINE
  5
1775
330
170C
100
AcDbEntity
  8
0
 62
     0
380
     1
100
AcDbLine
 10
402.5
 20
450.0
 30
0.0
 11
402.5
 21
450.0
 31
0.0
  0
LINE
  5
1776
330
170C
100
AcDbEntity
  8
0
 62
     0
380
     1
100
AcDbLine
 10
405.0
 20
450.0
 30
0.0
 11
405.0
 21
450.0
 31
0.0
  0
LINE
  5
1777
330
170C
100
AcDbEntity
  8
0
 62
     0
380
     1
100
AcDbLine
 10
407.5
 20
450.0
 30
0.0
 11
407.5
 21
450.0
 31
0.0
  0
LINE
  5
1778
330
170C
100
AcDbEntity
  8
0
 62
     0
380
     1
100
AcDbLine
 10
410.0
 20
450.0
 30
0.0
 11
410.0
 21
450.0
 31
0.0
  0
LINE
  5
1779
330
170C
100
AcDbEntity
  8
0
 62
     0
380
     1
100
AcDbLine
 10
412.5
 20
450.0
 30
0.0
 11
412.5
 21
450.0
 31
0.0
  0
LINE
  5
177A
330
170C
100
AcDbEntity
  8
0
 62
     0
380
     1
100
AcDbLine
 10
415.0
 20
450.0
 30
0.0
 11
415.0
 21
450.0
 31
0.0
  0
LINE
  5
177B
330
170C
100
AcDbEntity
  8
0
 62
     0
380
     1
100
AcDbLine
 10
417.4999999999999
 20
450.0
 30
0.0
 11
417.4999999999999
 21
450.0
 31
0.0
  0
LINE
  5
177C
330
170C
100
AcDbEntity
  8
0
 62
     0
380
     1
100
AcDbLine
 10
420.0
 20
450.0
 30
0.0
 11
420.0
 21
450.0
 31
0.0
  0
LINE
  5
177D
330
170C
100
AcDbEntity
  8
0
 62
     0
380
     1
100
AcDbLine
 10
422.4999999999999
 20
450.0
 30
0.0
 11
422.4999999999999
 21
450.0
 31
0.0
  0
LINE
  5
177E
330
170C
100
AcDbEntity
  8
0
 62
     0
380
     1
100
AcDbLine
 10
368.75
 20
437.5
 30
0.0
 11
368.75
 21
437.5
 31
0.0
  0
LINE
  5
177F
330
170C
100
AcDbEntity
  8
0
 62
     0
380
     1
100
AcDbLine
 10
371.25
 20
437.5
 30
0.0
 11
371.25
 21
437.5
 31
0.0
  0
LINE
  5
1780
330
170C
100
AcDbEntity
  8
0
 62
     0
380
     1
100
AcDbLine
 10
373.75
 20
437.5
 30
0.0
 11
373.75
 21
437.5
 31
0.0
  0
LINE
  5
1781
330
170C
100
AcDbEntity
  8
0
 62
     0
380
     1
100
AcDbLine
 10
376.25
 20
437.5
 30
0.0
 11
376.25
 21
437.5
 31
0.0
  0
LINE
  5
1782
330
170C
100
AcDbEntity
  8
0
 62
     0
380
     1
100
AcDbLine
 10
378.75
 20
437.5
 30
0.0
 11
378.75
 21
437.5
 31
0.0
  0
LINE
  5
1783
330
170C
100
AcDbEntity
  8
0
 62
     0
380
     1
100
AcDbLine
 10
381.25
 20
437.5
 30
0.0
 11
381.25
 21
437.5
 31
0.0
  0
LINE
  5
1784
330
170C
100
AcDbEntity
  8
0
 62
     0
380
     1
100
AcDbLine
 10
383.75
 20
437.5
 30
0.0
 11
383.75
 21
437.5
 31
0.0
  0
LINE
  5
1785
330
170C
100
AcDbEntity
  8
0
 62
     0
380
     1
100
AcDbLine
 10
386.25
 20
437.5
 30
0.0
 11
386.25
 21
437.5
 31
0.0
  0
LINE
  5
1786
330
170C
100
AcDbEntity
  8
0
 62
     0
380
     1
100
AcDbLine
 10
388.75
 20
437.5
 30
0.0
 11
388.75
 21
437.5
 31
0.0
  0
LINE
  5
1787
330
170C
100
AcDbEntity
  8
0
 62
     0
380
     1
100
AcDbLine
 10
391.25
 20
437.5
 30
0.0
 11
391.25
 21
437.5
 31
0.0
  0
LINE
  5
1788
330
170C
100
AcDbEntity
  8
0
 62
     0
380
     1
100
AcDbLine
 10
393.75
 20
437.5
 30
0.0
 11
393.75
 21
437.5
 31
0.0
  0
LINE
  5
1789
330
170C
100
AcDbEntity
  8
0
 62
     0
380
     1
100
AcDbLine
 10
396.25
 20
437.5
 30
0.0
 11
396.25
 21
437.5
 31
0.0
  0
LINE
  5
178A
330
170C
100
AcDbEntity
  8
0
 62
     0
380
     1
100
AcDbLine
 10
398.75
 20
437.5
 30
0.0
 11
398.75
 21
437.5
 31
0.0
  0
LINE
  5
178B
330
170C
100
AcDbEntity
  8
0
 62
     0
380
     1
100
AcDbLine
 10
401.25
 20
437.5
 30
0.0
 11
401.25
 21
437.5
 31
0.0
  0
LINE
  5
178C
330
170C
100
AcDbEntity
  8
0
 62
     0
380
     1
100
AcDbLine
 10
403.7499999999999
 20
437.5
 30
0.0
 11
403.7499999999999
 21
437.5
 31
0.0
  0
LINE
  5
178D
330
170C
100
AcDbEntity
  8
0
 62
     0
380
     1
100
AcDbLine
 10
406.25
 20
437.5
 30
0.0
 11
406.25
 21
437.5
 31
0.0
  0
LINE
  5
178E
330
170C
100
AcDbEntity
  8
0
 62
     0
380
     1
100
AcDbLine
 10
408.75
 20
437.5
 30
0.0
 11
408.75
 21
437.5
 31
0.0
  0
LINE
  5
178F
330
170C
100
AcDbEntity
  8
0
 62
     0
380
     1
100
AcDbLine
 10
411.2499999999999
 20
437.5
 30
0.0
 11
411.2499999999999
 21
437.5
 31
0.0
  0
LINE
  5
1790
330
170C
100
AcDbEntity
  8
0
 62
     0
380
     1
100
AcDbLine
 10
413.75
 20
437.5
 30
0.0
 11
413.75
 21
437.5
 31
0.0
  0
LINE
  5
1791
330
170C
100
AcDbEntity
  8
0
 62
     0
380
     1
100
AcDbLine
 10
416.2499999999999
 20
437.5
 30
0.0
 11
416.2499999999999
 21
437.5
 31
0.0
  0
LINE
  5
1792
330
170C
100
AcDbEntity
  8
0
 62
     0
380
     1
100
AcDbLine
 10
418.75
 20
437.5
 30
0.0
 11
418.75
 21
437.5
 31
0.0
  0
LINE
  5
1793
330
170C
100
AcDbEntity
  8
0
 62
     0
380
     1
100
AcDbLine
 10
421.25
 20
437.5
 30
0.0
 11
421.25
 21
437.5
 31
0.0
  0
LINE
  5
1794
330
170C
100
AcDbEntity
  8
0
 62
     0
380
     1
100
AcDbLine
 10
367.5
 20
435.0
 30
0.0
 11
367.5
 21
435.0
 31
0.0
  0
LINE
  5
1795
330
170C
100
AcDbEntity
  8
0
 62
     0
380
     1
100
AcDbLine
 10
370.0
 20
435.0
 30
0.0
 11
370.0
 21
435.0
 31
0.0
  0
LINE
  5
1796
330
170C
100
AcDbEntity
  8
0
 62
     0
380
     1
100
AcDbLine
 10
372.5
 20
435.0
 30
0.0
 11
372.5
 21
435.0
 31
0.0
  0
LINE
  5
1797
330
170C
100
AcDbEntity
  8
0
 62
     0
380
     1
100
AcDbLine
 10
375.0
 20
435.0
 30
0.0
 11
375.0
 21
435.0
 31
0.0
  0
LINE
  5
1798
330
170C
100
AcDbEntity
  8
0
 62
     0
380
     1
100
AcDbLine
 10
377.5
 20
435.0
 30
0.0
 11
377.5
 21
435.0
 31
0.0
  0
LINE
  5
1799
330
170C
100
AcDbEntity
  8
0
 62
     0
380
     1
100
AcDbLine
 10
380.0
 20
435.0
 30
0.0
 11
380.0
 21
435.0
 31
0.0
  0
LINE
  5
179A
330
170C
100
AcDbEntity
  8
0
 62
     0
380
     1
100
AcDbLine
 10
382.5
 20
435.0
 30
0.0
 11
382.5
 21
435.0
 31
0.0
  0
LINE
  5
179B
330
170C
100
AcDbEntity
  8
0
 62
     0
380
     1
100
AcDbLine
 10
385.0
 20
435.0
 30
0.0
 11
385.0
 21
435.0
 31
0.0
  0
LINE
  5
179C
330
170C
100
AcDbEntity
  8
0
 62
     0
380
     1
100
AcDbLine
 10
387.5
 20
435.0
 30
0.0
 11
387.5
 21
435.0
 31
0.0
  0
LINE
  5
179D
330
170C
100
AcDbEntity
  8
0
 62
     0
380
     1
100
AcDbLine
 10
390.0
 20
435.0
 30
0.0
 11
390.0
 21
435.0
 31
0.0
  0
LINE
  5
179E
330
170C
100
AcDbEntity
  8
0
 62
     0
380
     1
100
AcDbLine
 10
392.5
 20
435.0
 30
0.0
 11
392.5
 21
435.0
 31
0.0
  0
LINE
  5
179F
330
170C
100
AcDbEntity
  8
0
 62
     0
380
     1
100
AcDbLine
 10
395.0
 20
435.0
 30
0.0
 11
395.0
 21
435.0
 31
0.0
  0
LINE
  5
17A0
330
170C
100
AcDbEntity
  8
0
 62
     0
380
     1
100
AcDbLine
 10
397.5
 20
435.0
 30
0.0
 11
397.5
 21
435.0
 31
0.0
  0
LINE
  5
17A1
330
170C
100
AcDbEntity
  8
0
 62
     0
380
     1
100
AcDbLine
 10
400.0
 20
435.0
 30
0.0
 11
400.0
 21
435.0
 31
0.0
  0
LINE
  5
17A2
330
170C
100
AcDbEntity
  8
0
 62
     0
380
     1
100
AcDbLine
 10
402.5
 20
435.0
 30
0.0
 11
402.5
 21
435.0
 31
0.0
  0
LINE
  5
17A3
330
170C
100
AcDbEntity
  8
0
 62
     0
380
     1
100
AcDbLine
 10
405.0
 20
435.0
 30
0.0
 11
405.0
 21
435.0
 31
0.0
  0
LINE
  5
17A4
330
170C
100
AcDbEntity
  8
0
 62
     0
380
     1
100
AcDbLine
 10
407.5
 20
435.0
 30
0.0
 11
407.5
 21
435.0
 31
0.0
  0
LINE
  5
17A5
330
170C
100
AcDbEntity
  8
0
 62
     0
380
     1
100
AcDbLine
 10
410.0
 20
435.0
 30
0.0
 11
410.0
 21
435.0
 31
0.0
  0
LINE
  5
17A6
330
170C
100
AcDbEntity
  8
0
 62
     0
380
     1
100
AcDbLine
 10
412.5
 20
435.0
 30
0.0
 11
412.5
 21
435.0
 31
0.0
  0
LINE
  5
17A7
330
170C
100
AcDbEntity
  8
0
 62
     0
380
     1
100
AcDbLine
 10
415.0
 20
435.0
 30
0.0
 11
415.0
 21
435.0
 31
0.0
  0
LINE
  5
17A8
330
170C
100
AcDbEntity
  8
0
 62
     0
380
     1
100
AcDbLine
 10
417.4999999999999
 20
435.0
 30
0.0
 11
417.4999999999999
 21
435.0
 31
0.0
  0
LINE
  5
17A9
330
170C
100
AcDbEntity
  8
0
 62
     0
380
     1
100
AcDbLine
 10
420.0
 20
435.0
 30
0.0
 11
420.0
 21
435.0
 31
0.0
  0
LINE
  5
17AA
330
170C
100
AcDbEntity
  8
0
 62
     0
380
     1
100
AcDbLine
 10
422.4999999999999
 20
435.0
 30
0.0
 11
422.4999999999999
 21
435.0
 31
0.0
  0
LINE
  5
17AB
330
170C
100
AcDbEntity
  8
0
 62
     0
380
     1
100
AcDbLine
 10
368.75
 20
432.5
 30
0.0
 11
368.75
 21
432.5
 31
0.0
  0
LINE
  5
17AC
330
170C
100
AcDbEntity
  8
0
 62
     0
380
     1
100
AcDbLine
 10
371.25
 20
432.5
 30
0.0
 11
371.25
 21
432.5
 31
0.0
  0
LINE
  5
17AD
330
170C
100
AcDbEntity
  8
0
 62
     0
380
     1
100
AcDbLine
 10
373.75
 20
432.5
 30
0.0
 11
373.75
 21
432.5
 31
0.0
  0
LINE
  5
17AE
330
170C
100
AcDbEntity
  8
0
 62
     0
380
     1
100
AcDbLine
 10
376.25
 20
432.5
 30
0.0
 11
376.25
 21
432.5
 31
0.0
  0
LINE
  5
17AF
330
170C
100
AcDbEntity
  8
0
 62
     0
380
     1
100
AcDbLine
 10
378.75
 20
432.5
 30
0.0
 11
378.75
 21
432.5
 31
0.0
  0
LINE
  5
17B0
330
170C
100
AcDbEntity
  8
0
 62
     0
380
     1
100
AcDbLine
 10
381.25
 20
432.5
 30
0.0
 11
381.25
 21
432.5
 31
0.0
  0
LINE
  5
17B1
330
170C
100
AcDbEntity
  8
0
 62
     0
380
     1
100
AcDbLine
 10
383.75
 20
432.5
 30
0.0
 11
383.75
 21
432.5
 31
0.0
  0
LINE
  5
17B2
330
170C
100
AcDbEntity
  8
0
 62
     0
380
     1
100
AcDbLine
 10
386.25
 20
432.5
 30
0.0
 11
386.25
 21
432.5
 31
0.0
  0
LINE
  5
17B3
330
170C
100
AcDbEntity
  8
0
 62
     0
380
     1
100
AcDbLine
 10
388.75
 20
432.5
 30
0.0
 11
388.75
 21
432.5
 31
0.0
  0
LINE
  5
17B4
330
170C
100
AcDbEntity
  8
0
 62
     0
380
     1
100
AcDbLine
 10
391.25
 20
432.5
 30
0.0
 11
391.25
 21
432.5
 31
0.0
  0
LINE
  5
17B5
330
170C
100
AcDbEntity
  8
0
 62
     0
380
     1
100
AcDbLine
 10
393.75
 20
432.5
 30
0.0
 11
393.75
 21
432.5
 31
0.0
  0
LINE
  5
17B6
330
170C
100
AcDbEntity
  8
0
 62
     0
380
     1
100
AcDbLine
 10
396.25
 20
432.5
 30
0.0
 11
396.25
 21
432.5
 31
0.0
  0
LINE
  5
17B7
330
170C
100
AcDbEntity
  8
0
 62
     0
380
     1
100
AcDbLine
 10
398.75
 20
432.5
 30
0.0
 11
398.75
 21
432.5
 31
0.0
  0
LINE
  5
17B8
330
170C
100
AcDbEntity
  8
0
 62
     0
380
     1
100
AcDbLine
 10
401.25
 20
432.5
 30
0.0
 11
401.25
 21
432.5
 31
0.0
  0
LINE
  5
17B9
330
170C
100
AcDbEntity
  8
0
 62
     0
380
     1
100
AcDbLine
 10
403.7499999999999
 20
432.5
 30
0.0
 11
403.7499999999999
 21
432.5
 31
0.0
  0
LINE
  5
17BA
330
170C
100
AcDbEntity
  8
0
 62
     0
380
     1
100
AcDbLine
 10
406.25
 20
432.5
 30
0.0
 11
406.25
 21
432.5
 31
0.0
  0
LINE
  5
17BB
330
170C
100
AcDbEntity
  8
0
 62
     0
380
     1
100
AcDbLine
 10
408.75
 20
432.5
 30
0.0
 11
408.75
 21
432.5
 31
0.0
  0
LINE
  5
17BC
330
170C
100
AcDbEntity
  8
0
 62
     0
380
     1
100
AcDbLine
 10
411.2499999999999
 20
432.5
 30
0.0
 11
411.2499999999999
 21
432.5
 31
0.0
  0
LINE
  5
17BD
330
170C
100
AcDbEntity
  8
0
 62
     0
380
     1
100
AcDbLine
 10
413.75
 20
432.5
 30
0.0
 11
413.75
 21
432.5
 31
0.0
  0
LINE
  5
17BE
330
170C
100
AcDbEntity
  8
0
 62
     0
380
     1
100
AcDbLine
 10
416.2499999999999
 20
432.5
 30
0.0
 11
416.2499999999999
 21
432.5
 31
0.0
  0
LINE
  5
17BF
330
170C
100
AcDbEntity
  8
0
 62
     0
380
     1
100
AcDbLine
 10
418.75
 20
432.5
 30
0.0
 11
418.75
 21
432.5
 31
0.0
  0
LINE
  5
17C0
330
170C
100
AcDbEntity
  8
0
 62
     0
380
     1
100
AcDbLine
 10
421.25
 20
432.5
 30
0.0
 11
421.25
 21
432.5
 31
0.0
  0
LINE
  5
17C1
330
170C
100
AcDbEntity
  8
0
 62
     0
380
     1
100
AcDbLine
 10
367.5
 20
430.0
 30
0.0
 11
367.5
 21
430.0
 31
0.0
  0
LINE
  5
17C2
330
170C
100
AcDbEntity
  8
0
 62
     0
380
     1
100
AcDbLine
 10
370.0
 20
430.0
 30
0.0
 11
370.0
 21
430.0
 31
0.0
  0
LINE
  5
17C3
330
170C
100
AcDbEntity
  8
0
 62
     0
380
     1
100
AcDbLine
 10
372.5
 20
430.0
 30
0.0
 11
372.5
 21
430.0
 31
0.0
  0
LINE
  5
17C4
330
170C
100
AcDbEntity
  8
0
 62
     0
380
     1
100
AcDbLine
 10
375.0
 20
430.0
 30
0.0
 11
375.0
 21
430.0
 31
0.0
  0
LINE
  5
17C5
330
170C
100
AcDbEntity
  8
0
 62
     0
380
     1
100
AcDbLine
 10
377.5
 20
430.0
 30
0.0
 11
377.5
 21
430.0
 31
0.0
  0
LINE
  5
17C6
330
170C
100
AcDbEntity
  8
0
 62
     0
380
     1
100
AcDbLine
 10
380.0
 20
430.0
 30
0.0
 11
380.0
 21
430.0
 31
0.0
  0
LINE
  5
17C7
330
170C
100
AcDbEntity
  8
0
 62
     0
380
     1
100
AcDbLine
 10
382.5
 20
430.0
 30
0.0
 11
382.5
 21
430.0
 31
0.0
  0
LINE
  5
17C8
330
170C
100
AcDbEntity
  8
0
 62
     0
380
     1
100
AcDbLine
 10
385.0
 20
430.0
 30
0.0
 11
385.0
 21
430.0
 31
0.0
  0
LINE
  5
17C9
330
170C
100
AcDbEntity
  8
0
 62
     0
380
     1
100
AcDbLine
 10
387.5
 20
430.0
 30
0.0
 11
387.5
 21
430.0
 31
0.0
  0
LINE
  5
17CA
330
170C
100
AcDbEntity
  8
0
 62
     0
380
     1
100
AcDbLine
 10
390.0
 20
430.0
 30
0.0
 11
390.0
 21
430.0
 31
0.0
  0
LINE
  5
17CB
330
170C
100
AcDbEntity
  8
0
 62
     0
380
     1
100
AcDbLine
 10
392.5
 20
430.0
 30
0.0
 11
392.5
 21
430.0
 31
0.0
  0
LINE
  5
17CC
330
170C
100
AcDbEntity
  8
0
 62
     0
380
     1
100
AcDbLine
 10
395.0
 20
430.0
 30
0.0
 11
395.0
 21
430.0
 31
0.0
  0
LINE
  5
17CD
330
170C
100
AcDbEntity
  8
0
 62
     0
380
     1
100
AcDbLine
 10
397.5
 20
430.0
 30
0.0
 11
397.5
 21
430.0
 31
0.0
  0
LINE
  5
17CE
330
170C
100
AcDbEntity
  8
0
 62
     0
380
     1
100
AcDbLine
 10
400.0
 20
430.0
 30
0.0
 11
400.0
 21
430.0
 31
0.0
  0
LINE
  5
17CF
330
170C
100
AcDbEntity
  8
0
 62
     0
380
     1
100
AcDbLine
 10
402.5
 20
430.0
 30
0.0
 11
402.5
 21
430.0
 31
0.0
  0
LINE
  5
17D0
330
170C
100
AcDbEntity
  8
0
 62
     0
380
     1
100
AcDbLine
 10
405.0
 20
430.0
 30
0.0
 11
405.0
 21
430.0
 31
0.0
  0
LINE
  5
17D1
330
170C
100
AcDbEntity
  8
0
 62
     0
380
     1
100
AcDbLine
 10
407.5
 20
430.0
 30
0.0
 11
407.5
 21
430.0
 31
0.0
  0
LINE
  5
17D2
330
170C
100
AcDbEntity
  8
0
 62
     0
380
     1
100
AcDbLine
 10
410.0
 20
430.0
 30
0.0
 11
410.0
 21
430.0
 31
0.0
  0
LINE
  5
17D3
330
170C
100
AcDbEntity
  8
0
 62
     0
380
     1
100
AcDbLine
 10
412.5
 20
430.0
 30
0.0
 11
412.5
 21
430.0
 31
0.0
  0
LINE
  5
17D4
330
170C
100
AcDbEntity
  8
0
 62
     0
380
     1
100
AcDbLine
 10
415.0
 20
430.0
 30
0.0
 11
415.0
 21
430.0
 31
0.0
  0
LINE
  5
17D5
330
170C
100
AcDbEntity
  8
0
 62
     0
380
     1
100
AcDbLine
 10
417.4999999999999
 20
430.0
 30
0.0
 11
417.4999999999999
 21
430.0
 31
0.0
  0
LINE
  5
17D6
330
170C
100
AcDbEntity
  8
0
 62
     0
380
     1
100
AcDbLine
 10
420.0
 20
430.0
 30
0.0
 11
420.0
 21
430.0
 31
0.0
  0
LINE
  5
17D7
330
170C
100
AcDbEntity
  8
0
 62
     0
380
     1
100
AcDbLine
 10
422.4999999999999
 20
430.0
 30
0.0
 11
422.4999999999999
 21
430.0
 31
0.0
  0
ENDBLK
  5
17D9
330
170C
100
AcDbEntity
  8
0
100
AcDbBlockEnd
  0
BLOCK
  5
312B
330
312A
100
AcDbEntity
  8
0
 48
5.0
100
AcDbBlockBegin
  2
wädä
 70
     0
 10
0.0
 20
0.0
 30
0.0
  3
wädä
  1

  0
LWPOLYLINE
  5
312D
330
312A
100
AcDbEntity
  8
ISO10TES
100
AcDbPolyline
 90
        2
 70
     0
 43
0.0
 10
-60.4800000000001
 20
-0.0000000000001137
 10
-8.6399982384115
 20
8.639999999999758
  0
LINE
  5
312E
330
312A
100
AcDbEntity
  8
ISO10TES
100
AcDbLine
 10
-8.639998238411507
 20
8.639999999999758
 30
0.0
 11
-60.48000000000016
 21
17.27999999999986
 31
0.0
  0
LINE
  5
312F
330
312A
100
AcDbEntity
  8
ISO10TES
100
AcDbLine
 10
-8.639998238411507
 20
-8.639999999999986
 30
0.0
 11
-60.48000000000016
 21
0.0000000000002274
 31
0.0
  0
ARC
  5
3130
330
312A
100
AcDbEntity
  8
ISO10TES
100
AcDbCircle
 10
-60.48000000000006
 20
8.639999999999872
 30
0.0
 40
8.640000000000002
100
AcDbArc
 50
90.0
 51
180.0
  0
ARC
  5
3131
330
312A
100
AcDbEntity
  8
ISO10TES
100
AcDbCircle
 10
-60.48000000000006
 20
8.639999999999872
 30
0.0
 40
8.640000000000002
100
AcDbArc
 50
180.0
 51
270.0
  0
LWPOLYLINE
  5
3132
330
312A
100
AcDbEntity
  8
ISO10TES
100
AcDbPolyline
 90
        2
 70
     0
 43
0.0
 10
-8.64
 20
8.639999999999986
 42
-0.4142135623730951
 10
0.0
 20
0.0
 42
-0.4142135623730951
  0
ARC
  5
3133
330
312A
100
AcDbEntity
  8
ISO10TES
100
AcDbCircle
 10
-8.639999999999801
 20
0.0000000000002274
 30
0.0
 40
8.639999999999837
100
AcDbArc
 50
269.9999999999988
 51
0.0
  0
ENDBLK
  5
312C
330
312A
100
AcDbEntity
  8
0
 48
5.0
100
AcDbBlockEnd
  0
BLOCK
  5
34C7
330
34C5
100
AcDbEntity
  8
0
 48
5.0
100
AcDbBlockBegin
  2
DAEMM
 70
     0
 10
0.0
 20
0.0
 30
0.0
  3
DAEMM
  1

  0
LWPOLYLINE
  5
34C6
330
34C5
100
AcDbEntity
  8
INSULATION
100
AcDbPolyline
 90
        6
 70
     0
 43
0.0
 10
0.0
 20
0.0
 42
0.5249926553343702
 10
1.869693845669928
 20
2.710102051443413
 10
0.1303061543300714
 20
7.289897948556586
 42
-1.449489742783175
 10
3.869693845669928
 20
7.289897948556586
 10
2.130306154330071
 20
2.710102051443413
 42
0.5249926553343702
 10
4.0
 20
0.0
  0
ENDBLK
  5
34C8
330
34C5
100
AcDbEntity
  8
0
 48
5.0
100
AcDbBlockEnd
  0
BLOCK
  5
34D2
330
34C9
100
AcDbEntity
  8
0
 48
15.0
100
AcDbBlockBegin
  2
luft
 70
     0
 10
0.0
 20
0.0
 30
0.0
  3
luft
  1

  0
LINE
  5
34CA
330
34C9
100
AcDbEntity
  8
V5
  6
PUNKT
 48
0.05
100
AcDbLine
 10
-66.92263426701265
 20
-67.85087912496965
 30
0.0
 11
-56.82242626844686
 21
-50.19159053675616
 31
0.0
  0
LINE
  5
34CB
330
34C9
100
AcDbEntity
  8
V5
  6
PUNKT
 48
0.05
100
AcDbLine
 10
-49.26334567879928
 20
-57.75067112640385
 30
0.0
 11
-66.92263426701265
 21
-67.85087912496965
 31
0.0
  0
LINE
  5
34CC
330
34C9
100
AcDbEntity
  8
V5
  6
PUNKT
 48
0.05
100
AcDbLine
 10
-66.92263426701265
 20
-67.85087912496965
 30
0.0
 11
-43.15240142293748
 21
-44.08064628089448
 31
0.0
  0
LINE
  5
34CD
330
34C9
100
AcDbEntity
  8
V5
  6
PUNKT
 48
0.05
100
AcDbLine
 10
-56.82242626844686
 20
-50.19159053675616
 30
0.0
 11
-49.26334567879928
 21
-57.75067112640385
 31
0.0
  0
ARC
  5
34CE
330
34C9
100
AcDbEntity
  8
V5
  6
PUNKT
 48
0.05
100
AcDbCircle
 10
-55.88032348429533
 20
-31.35272421953664
 30
0.0
 40
18.0
100
AcDbArc
 50
315.0
 51
0.0
  0
ARC
  5
34CF
330
34C9
100
AcDbEntity
  8
V5
  6
PUNKT
 48
0.05
100
AcDbCircle
 10
-18.94016174214766
 20
28.66130959139673
 30
0.0
 40
18.94016174214766
100
AcDbArc
 50
0.0
 51
180.0
  0
LINE
  5
34D0
330
34C9
100
AcDbEntity
  8
V5
  6
PUNKT
 48
0.05
100
AcDbLine
 10
-37.88032348429533
 20
28.66130959139673
 30
0.0
 11
-37.88032348429533
 21
-31.35272421953664
 31
0.0
  0
LINE
  5
34D1
330
34C9
100
AcDbEntity
  8
V5
  6
PUNKT
 48
0.05
100
AcDbLine
 10
0.0
 20
28.66130959139673
 30
0.0
 11
0.0
 21
0.0
 31
0.0
  0
ENDBLK
  5
34D3
330
34C9
100
AcDbEntity
  8
0
 48
15.0
100
AcDbBlockEnd
  0
BLOCK
  5
44D3
330
44B0
100
AcDbEntity
  8
0
 62
     6
 48
10.0
100
AcDbBlockBegin
  2
e140
 70
     0
 10
0.0
 20
0.0
 30
0.0
  3
e140
  1

  0
LINE
  5
44B1
330
44B0
100
AcDbEntity
  8
0
 62
     3
100
AcDbLine
 10
1.761882177941579
 20
146.0000000000004
 30
0.0
 11
25.48733180248865
 21
11.0
 31
0.0
  0
LINE
  5
44B2
330
44B0
100
AcDbEntity
  8
0
 62
     3
100
AcDbLine
 10
-1.761882177942503
 20
146.0000000000001
 30
0.0
 11
-25.48733180248864
 21
11.0
 31
0.0
  0
LINE
  5
44B3
330
44B0
100
AcDbEntity
  8
0
 62
     3
100
AcDbLine
 10
-4.705591908087658
 20
12.70737123184409
 30
0.0
 11
-2.000000000000454
 21
29.0
 31
0.0
  0
LINE
  5
44B4
330
44B0
100
AcDbEntity
  8
0
 62
     3
100
AcDbLine
 10
4.705591908087637
 20
12.70737123184401
 30
0.0
 11
1.999999999999545
 21
29.0
 31
0.0
  0
LINE
  5
44B5
330
44B0
100
AcDbEntity
  8
0
 62
     4
100
AcDbLine
 10
-21.99999999999864
 20
18.45272980605568
 30
0.0
 11
-21.99999999999973
 21
-19.91791965098093
 31
0.0
  0
LINE
  5
44B6
330
44B0
100
AcDbEntity
  8
0
 62
     4
100
AcDbLine
 10
21.99999999999954
 20
18.45272980605341
 30
0.0
 11
21.99999999999954
 21
-19.91791965098093
 31
0.0
  0
LINE
  5
44B7
330
44B0
100
AcDbEntity
  8
0
 62
     3
100
AcDbLine
 10
-32.50000000000046
 20
0.0
 30
0.0
 11
32.50000000000046
 21
0.0
 31
0.0
  0
LINE
  5
44B8
330
44B0
100
AcDbEntity
  8
0
 62
     3
100
AcDbLine
 10
-6.684068191505676
 20
10.99999999999997
 30
0.0
 11
-32.00000000000045
 21
11.0
 31
0.0
  0
LINE
  5
44B9
330
44B0
100
AcDbEntity
  8
0
 62
     3
100
AcDbLine
 10
-32.50000000000046
 20
10.5
 30
0.0
 11
-32.50000000000046
 21
0.0
 31
0.0
  0
ARC
  5
44BA
330
44B0
100
AcDbEntity
  8
0
 62
     3
100
AcDbCircle
 10
-32.00000000000045
 20
10.5
 30
0.0
 40
0.5
100
AcDbArc
 50
90.0
 51
180.0
  0
LINE
  5
44BB
330
44B0
100
AcDbEntity
  8
0
 62
     3
100
AcDbLine
 10
6.684068191505641
 20
10.99999999999997
 30
0.0
 11
32.00000000000045
 21
11.0
 31
0.0
  0
ARC
  5
44BC
330
44B0
100
AcDbEntity
  8
0
 62
     3
100
AcDbCircle
 10
-6.684068191505676
 20
12.99999999999997
 30
0.0
 40
2.0
100
AcDbArc
 50
270.0
 51
351.5866003291716
  0
ARC
  5
44BD
330
44B0
100
AcDbEntity
  8
0
 62
     3
100
AcDbCircle
 10
6.684068191505641
 20
12.99999999999997
 30
0.0
 40
2.0
100
AcDbArc
 50
188.4133996708317
 51
270.0
  0
LINE
  5
44BE
330
44B0
100
AcDbEntity
  8
0
 62
     3
100
AcDbLine
 10
32.50000000000046
 20
10.5
 30
0.0
 11
32.50000000000046
 21
0.0
 31
0.0
  0
ARC
  5
44BF
330
44B0
100
AcDbEntity
  8
0
 62
     3
100
AcDbCircle
 10
32.00000000000045
 20
10.5
 30
0.0
 40
0.5
100
AcDbArc
 50
0.0
 51
90.0
  0
LINE
  5
44C0
330
44B0
100
AcDbEntity
  8
0
 62
     3
100
AcDbLine
 10
1.761882177941579
 20
146.0000000000004
 30
0.0
 11
1.999999999999545
 21
29.0
 31
0.0
  0
LINE
  5
44C1
330
44B0
100
AcDbEntity
  8
0
 62
     3
100
AcDbLine
 10
-1.761882177942503
 20
146.0000000000001
 30
0.0
 11
-2.000000000000454
 21
29.0
 31
0.0
  0
ARC
  5
44C2
330
44B0
100
AcDbEntity
  8
0
 62
     3
100
AcDbCircle
 10
-2.549919279120675
 20
189.2
 30
0.0
 40
0.8
100
AcDbArc
 50
359.9768564758476
 51
90.0
  0
ARC
  5
44C3
330
44B0
100
AcDbEntity
  8
0
 62
     3
100
AcDbCircle
 10
2.54991927911977
 20
189.2
 30
0.0
 40
0.8
100
AcDbArc
 50
90.0
 51
180.0231435241524
  0
LINE
  5
44C4
330
44B0
100
AcDbEntity
  8
0
 62
     3
100
AcDbLine
 10
1.749919344383773
 20
189.1996768554512
 30
0.0
 11
1.761882177941579
 21
146.0000000000004
 31
0.0
  0
LINE
  5
44C5
330
44B0
100
AcDbEntity
  8
0
 62
     3
100
AcDbLine
 10
-1.749919344384679
 20
189.1996768554512
 30
0.0
 11
-1.761882177942503
 21
146.0000000000001
 31
0.0
  0
ARC
  5
44C6
330
44B0
100
AcDbEntity
  8
0
 62
     3
100
AcDbCircle
 10
-0.0000000000004547
 20
198.0
 30
0.0
 40
3.0
100
AcDbArc
 50
0.0
 51
180.0
  0
LINE
  5
44C7
330
44B0
100
AcDbEntity
  8
0
 62
     3
100
AcDbLine
 10
-2.549919279120675
 20
190.0
 30
0.0
 11
-6.000000000000454
 21
190.0
 31
0.0
  0
LINE
  5
44C8
330
44B0
100
AcDbEntity
  8
0
 62
     3
100
AcDbLine
 10
-5.597271020094954
 20
193.5344394073002
 30
0.0
 11
-3.100682244976724
 21
196.847524613036
 31
0.0
  0
ARC
  5
44C9
330
44B0
100
AcDbEntity
  8
0
 62
     3
100
AcDbCircle
 10
-4.000000000000451
 20
192.330809360996
 30
0.0
 40
2.0
100
AcDbArc
 50
142.9999999999953
 51
180.0
  0
LINE
  5
44CA
330
44B0
100
AcDbEntity
  8
0
 62
     3
100
AcDbLine
 10
-6.000000000000454
 20
190.0
 30
0.0
 11
-6.000000000000451
 21
192.330809360996
 31
0.0
  0
LINE
  5
44CB
330
44B0
100
AcDbEntity
  8
0
 62
     3
100
AcDbLine
 10
-3.000000000000454
 20
197.1484321246121
 30
0.0
 11
-3.000000000000454
 21
198.0
 31
0.0
  0
ARC
  5
44CC
330
44B0
100
AcDbEntity
  8
0
 62
     3
100
AcDbCircle
 10
-3.500000000000454
 20
197.1484321246121
 30
0.0
 40
0.5
100
AcDbArc
 50
322.9999999999953
 51
0.0000000000032569
  0
ARC
  5
44CD
330
44B0
100
AcDbEntity
  8
0
 62
     3
100
AcDbCircle
 10
3.999999999999545
 20
192.330809360996
 30
0.0
 40
2.0
100
AcDbArc
 50
0.0
 51
37.00000000000466
  0
LINE
  5
44CE
330
44B0
100
AcDbEntity
  8
0
 62
     3
100
AcDbLine
 10
2.54991927911977
 20
190.0
 30
0.0
 11
5.999999999999545
 21
190.0
 31
0.0
  0
LINE
  5
44CF
330
44B0
100
AcDbEntity
  8
0
 62
     3
100
AcDbLine
 10
5.597271020094048
 20
193.5344394073003
 30
0.0
 11
3.100682244975814
 21
196.847524613036
 31
0.0
  0
ARC
  5
44D0
330
44B0
100
AcDbEntity
  8
0
 62
     3
100
AcDbCircle
 10
3.499999999999545
 20
197.1484321246121
 30
0.0
 40
0.5
100
AcDbArc
 50
179.9999999999967
 51
217.0000000000047
  0
LINE
  5
44D1
330
44B0
100
AcDbEntity
  8
0
 62
     3
100
AcDbLine
 10
2.999999999999545
 20
197.1484321246121
 30
0.0
 11
2.999999999999545
 21
198.0
 31
0.0
  0
LINE
  5
44D2
330
44B0
100
AcDbEntity
  8
0
 62
     3
100
AcDbLine
 10
5.999999999999545
 20
190.0
 30
0.0
 11
5.999999999999545
 21
192.330809360996
 31
0.0
  0
ENDBLK
  5
44D4
330
44B0
100
AcDbEntity
  8
0
 62
     6
 48
10.0
100
AcDbBlockEnd
  0
ENDSEC
  0
SECTION
  2
ENTITIES
  0
LINE
  5
1A78
330
18
100
AcDbEntity
  8
V5
 62
     7
100
AcDbLine
 10
329.2245767980052
 20
730.6349405729484
 30
0.0
 11
874.2858772749803
 21
730.6349405729483
 31
0.0
  0
LINE
  5
1A7D
330
18
100
AcDbEntity
  8
V5
 62
     7
100
AcDbLine
 10
329.2245767980052
 20
622.1349405729484
 30
0.0
 11
874.2858772749803
 21
622.1349405729483
 31
0.0
  0
LINE
  5
1A7F
330
18
100
AcDbEntity
  8
V5
100
AcDbLine
 10
329.2245767980053
 20
341.4924458674075
 30
0.0
 11
329.2245767980053
 21
659.3912750760594
 31
0.0
  0
LINE
  5
1A80
330
18
100
AcDbEntity
  8
V5
100
AcDbLine
 10
529.2245767980053
 20
341.4924458674075
 30
0.0
 11
529.2245767980053
 21
618.2738605417045
 31
0.0
  0
LINE
  5
1A81
330
18
100
AcDbEntity
  8
V5
100
AcDbLine
 10
329.2245767980053
 20
618.2738605417045
 30
0.0
 11
529.2245767980053
 21
618.2738605417045
 31
0.0
  0
LINE
  5
1A82
330
18
100
AcDbEntity
  8
ACHS
 62
     3
 48
3.5
100
AcDbLine
 10
874.2858772749803
 20
920.1503809366231
 30
0.0
 11
874.2858772749803
 21
607.1428571428571
 31
0.0
  0
LINE
  5
1A83
330
18
100
AcDbEntity
  8
V25
100
AcDbLine
 10
429.0680992646737
 20
591.9466969402166
 30
0.0
 11
429.0680992646737
 21
631.1178426262137
 31
0.0
  0
LINE
  5
1A84
330
18
100
AcDbEntity
  8
ACHS
 62
     3
 48
3.5
100
AcDbLine
 10
197.3353013728465
 20
341.4924458674075
 30
0.0
 11
545.7144487035519
 21
341.4924458674075
 31
0.0
  0
LWPOLYLINE
  5
1A8D
330
18
100
AcDbEntity
  8
V5
  6
GESTRICHELT
 48
5.0
100
AcDbPolyline
 90
        4
 70
   128
 43
4.0
 10
870.2858772749804
 20
737.7158492126972
 10
324.5422406037846
 20
737.7158492126972
 42
0.4142135623730951
 10
318.5422406037846
 20
731.7158492126972
 10
318.5422406037845
 20
555.086338409438
  0
LINE
  5
1AB4
330
18
100
AcDbEntity
  8
V5
 62
     7
100
AcDbLine
 10
329.2245767980052
 20
622.1349405729486
 30
0.0
 11
329.2245767980052
 21
730.6349405729484
 31
0.0
  0
LINE
  5
1B5C
330
18
100
AcDbEntity
  8
TXT-D
100
AcDbLine
 10
519.4201592202927
 20
1000.225511187055
 30
0.0
 11
463.3024709931047
 21
1000.225511187055
 31
0.0
  0
LINE
  5
1B5D
330
18
100
AcDbEntity
  8
TXT-D
100
AcDbLine
 10
519.4201592202924
 20
1038.510771589429
 30
0.0
 11
426.4893495732666
 21
1038.510771589429
 31
0.0
  0
LINE
  5
1B5E
330
18
100
AcDbEntity
  8
TXT-D
100
AcDbLine
 10
519.4201592202926
 20
1101.089445146698
 30
0.0
 11
389.8896509893087
 21
1101.089445146698
 31
0.0
  0
LINE
  5
1B5F
330
18
100
AcDbEntity
  8
TXT-D
100
AcDbLine
 10
519.4201592202926
 20
1136.360540166647
 30
0.0
 11
357.6219795398673
 21
1136.360540166647
 31
0.0
  0
LINE
  5
1B60
330
18
100
AcDbEntity
  8
TXT-D
100
AcDbLine
 10
519.4201592202926
 20
1174.229631766639
 30
0.0
 11
280.022917767264
 21
1174.229631766638
 31
0.0
  0
LINE
  5
1B61
330
18
100
AcDbEntity
  8
TXT-D
100
AcDbLine
 10
519.4201592202926
 20
1210.229631766639
 30
0.0
 11
238.0573424173917
 21
1210.229631766639
 31
0.0
  0
TEXT
  5
1B66
330
18
100
AcDbEntity
  8
TXT-D
 62
     7
100
AcDbText
 10
525.2746176998506
 20
1032.045129501961
 30
0.0
 40
14.0
  1
Kalzip minerální tepelná izolace
  7
ROMANS
100
AcDbText
  0
TEXT
  5
1B68
330
18
100
AcDbEntity
  8
TXT-D
 62
     7
100
AcDbText
 10
524.4558233669255
 20
995.0716519235937
 30
0.0
 40
14.0
  1
parotěsná vrstva
  7
ROMANS
100
AcDbText
  0
TEXT
  5
1B69
330
18
100
AcDbEntity
  8
TXT-D
 62
     7
100
AcDbText
 10
524.7236532602813
 20
1095.326919495309
 30
0.0
 40
14.0
  1
poplastovaná klipsa*
  7
ROMANS
100
AcDbText
  0
LINE
  5
1B6A
330
18
100
AcDbEntity
  8
TXT-D
100
AcDbLine
 10
463.3024709931046
 20
740.8975454132713
 30
0.0
 11
463.3024709931047
 21
1000.225511187055
 31
0.0
  0
LINE
  5
1B6D
330
18
100
AcDbEntity
  8
TXT-D
100
AcDbLine
 10
357.6219795398673
 20
889.2140775418273
 30
0.0
 11
357.6219795398673
 21
1136.360540166647
 31
0.0
  0
LINE
  5
1B87
330
18
100
AcDbEntity
  8
V25
 62
     4
100
AcDbLine
 10
420.6964106660699
 20
530.3300858899107
 30
0.0
 11
438.3740801957336
 21
548.0077554195744
 31
0.0
  0
LINE
  5
1B98
330
18
100
AcDbEntity
  8
TXT-D
100
AcDbLine
 10
238.0573424173916
 20
880.8466812611063
 30
0.0
 11
238.0573424173917
 21
1210.229631766639
 31
0.0
  0
TEXT
  5
1BA6
330
18
100
AcDbEntity
  8
TXT-D
 62
     7
100
AcDbText
 10
524.4357677343446
 20
1130.293375128234
 30
0.0
 40
14.0
  1
Kalzip - částečný profil
  7
ROMANS
100
AcDbText
  0
INSERT
  5
1BAA
330
18
100
AcDbEntity
  8
V25
100
AcDbBlockReference
  2
*X1
 10
34.28587727498058
 20
164.4263610001186
 30
0.0
  0
INSERT
  5
1BAB
330
18
100
AcDbEntity
  8
V25
100
AcDbBlockReference
  2
HALFEN
 10
429.0858877387888
 20
618.3214189494103
 30
0.0
  0
LINE
  5
1BD3
330
18
100
AcDbEntity
  8
V5
100
AcDbLine
 10
323.9818131110552
 20
733.6064701089758
 30
0.0
 11
421.7627479568524
 21
733.6064701089759
 31
0.0
  0
LWPOLYLINE
  5
1BD8
330
18
100
AcDbEntity
  8
V5
 62
     7
100
AcDbPolyline
 90
       33
 70
     0
 43
0.0
 10
386.1740512084834
 20
932.5541748130634
 42
-0.8518717637873237
 10
392.9019141573884
 20
952.8670975439935
 42
-0.3441842485073744
 10
396.249517509448
 20
949.2565389787136
 10
396.2792228993042
 20
948.9011348583794
 42
0.3077507175483973
 10
399.1243848731309
 20
945.4173026008756
 42
-0.3559174951861054
 10
401.970207725469
 20
941.2401896201139
 42
-0.2401758746392449
 10
396.7646911312307
 20
932.8860851453795
 42
0.2629884054316376
 10
395.3125906021825
 20
930.3162588423303
 10
395.3125906022129
 20
898.5768745035501
 42
0.2931365125316157
 10
395.9068905708895
 20
897.665198748264
 10
396.1711387922365
 20
897.5449382514199
 42
-0.2939859278524366
 10
399.3929029965631
 20
892.5390775418273
 42
0.4142135623730951
 10
403.492902996563
 20
888.4390775418273
 10
483.2325847322861
 20
888.4390775418273
 42
0.2446984432290329
 10
486.5911081138709
 20
890.1874141527882
 10
489.2565171138708
 20
893.9940131527883
 42
-0.5205670505517518
 10
498.2671896010496
 20
893.9940144109154
 10
500.9325996010498
 20
890.1874154109153
 42
0.2446984432290355
 10
504.2911221329685
 20
888.439079167761
 10
585.2311221329686
 20
888.439079167761
 42
0.2446984432290357
 10
588.589644664887
 20
890.1874154109153
 10
591.2550546648871
 20
893.9940144109154
 42
-0.5205670505517466
 10
600.265727152066
 20
893.9940131527881
 10
602.9311361520659
 20
890.1874141527882
 42
0.2446984432290353
 10
606.2896595336509
 20
888.4390775418273
 10
683.8536834957716
 20
888.4390775418273
 42
0.4142135623731031
 10
687.9535834957716
 20
892.5389775418274
 42
-0.2939817751607098
 10
691.1753477013263
 20
897.5449382514199
 10
691.4395959226734
 20
897.665198748264
 42
0.2931365125316157
 10
692.0338958913499
 20
898.5768745035501
 10
692.0338958913784
 20
925.6324436856859
 42
0.2992947414849744
 10
690.2230008162344
 20
928.386718450066
 42
-3.892127811935753
 10
704.6297568613339
 20
929.7656092474731
  0
LWPOLYLINE
  5
1BDA
330
18
100
AcDbEntity
  8
V5
 62
     7
100
AcDbPolyline
 90
       18
 70
     0
 43
0.0
 10
168.6924474747954
 20
805.9991126799967
 10
157.6287867546332
 20
794.9354519598345
 10
157.6287867546332
 20
908.4390791677609
 10
177.6287867546333
 20
888.439079167761
 10
280.2311221329686
 20
888.439079167761
 42
0.2446984432290357
 10
283.589644664887
 20
890.1874154109153
 10
286.2550546648871
 20
893.9940144109154
 42
-0.5205670505517466
 10
295.265727152066
 20
893.9940131527881
 10
297.931136152066
 20
890.1874141527882
 42
0.2446984432290353
 10
301.2896595336509
 20
888.4390775418273
 10
378.8536834957716
 20
888.4390775418273
 42
0.4142135623731031
 10
382.9535834957716
 20
892.5389775418274
 42
-0.2939817751607098
 10
386.1753477013264
 20
897.5449382514199
 10
386.4395959226735
 20
897.665198748264
 42
0.2931365125316157
 10
387.03389589135
 20
898.5768745035501
 10
387.0338958913784
 20
925.6324436856859
 42
0.2992947414849744
 10
385.2230008162345
 20
928.386718450066
 42
-3.892127811935753
 10
399.6297568613339
 20
929.7656092474731
  0
LINE
  5
1BDE
330
18
100
AcDbEntity
  8
TXT-D
100
AcDbLine
 10
280.0229177672641
 20
883.5891722718017
 30
0.0
 11
280.022917767264
 21
1174.229631766638
 31
0.0
  0
LWPOLYLINE
  5
1CAE
330
18
100
AcDbEntity
  8
V25
  6
Continuous
100
AcDbPolyline
 90
        4
 70
   128
 43
0.0
 10
870.2858772749804
 20
735.7158492126972
 10
324.5422406037846
 20
735.7158492126972
 42
0.4142135623730951
 10
320.5422406037846
 20
731.7158492126972
 10
320.5422406037846
 20
555.086338409438
  0
LWPOLYLINE
  5
1CAF
330
18
100
AcDbEntity
  8
V25
  6
Continuous
100
AcDbPolyline
 90
        4
 70
   128
 43
0.0
 10
870.2858772749804
 20
739.7158492126972
 10
324.5422406037846
 20
739.7158492126972
 42
0.4142135623730951
 10
316.5422406037846
 20
731.7158492126972
 10
316.5422406037845
 20
555.086338409438
  0
LINE
  5
1CB0
330
18
100
AcDbEntity
  8
V5
100
AcDbLine
 10
323.9818131110552
 20
555.5895074985537
 30
0.0
 11
323.9818131110552
 21
733.6064701089758
 31
0.0
  0
LINE
  5
2D3E
330
18
100
AcDbEntity
  8
V25
  6
VERDECKT
 48
4.0
100
AcDbLine
 10
251.2245767980051
 20
341.4924458674075
 30
0.0
 11
251.2245767980052
 21
852.6395902942672
 31
0.0
  0
LINE
  5
2D3F
330
18
100
AcDbEntity
  8
V25
 48
5.0
100
AcDbLine
 10
221.224576798005
 20
341.4924458674075
 30
0.0
 11
221.2245767980052
 21
852.6395902942674
 31
0.0
  0
LINE
  5
2D40
330
18
100
AcDbEntity
  8
V25
 48
5.0
100
AcDbLine
 10
223.2245767980052
 20
341.4924458674075
 30
0.0
 11
223.2245767980052
 21
852.6395902942674
 31
0.0
  0
LINE
  5
2D4C
330
18
100
AcDbEntity
  8
V25
  6
VERDECKT
 62
     6
 48
1.8
100
AcDbLine
 10
235.3732837256293
 20
590.6487473664956
 30
0.0
 11
235.3732837256293
 21
578.1487473664956
 31
0.0
  0
LINE
  5
2D4D
330
18
100
AcDbEntity
  8
V25
 62
     6
 48
5.0
100
AcDbLine
 10
325.3732837256292
 20
590.6487473664956
 30
0.0
 11
325.3732837256292
 21
500.6487473664954
 31
0.0
  0
LINE
  5
2D4E
330
18
100
AcDbEntity
  8
V25
 62
     6
 48
5.0
100
AcDbLine
 10
322.3732837256292
 20
590.6487473664956
 30
0.0
 11
322.3732837256292
 21
500.6487473664956
 31
0.0
  0
LINE
  5
2D59
330
18
100
AcDbEntity
  8
V25
 62
     6
 48
5.0
100
AcDbLine
 10
235.3732837256293
 20
513.1487473664954
 30
0.0
 11
288.3732837256292
 21
513.1487473664956
 31
0.0
  0
LINE
  5
2D5A
330
18
100
AcDbEntity
  8
V25
 62
     6
 48
5.0
100
AcDbLine
 10
235.3732837256293
 20
528.1487473664956
 30
0.0
 11
288.3732837256292
 21
528.1487473664953
 31
0.0
  0
LINE
  5
2D5B
330
18
100
AcDbEntity
  8
V25
 62
     6
 48
5.0
100
AcDbLine
 10
235.3732837256293
 20
578.1487473664956
 30
0.0
 11
288.3732837256295
 21
578.1487473664953
 31
0.0
  0
LINE
  5
2D5C
330
18
100
AcDbEntity
  8
V25
 62
     6
 48
5.0
100
AcDbLine
 10
235.3732837256293
 20
563.1487473664956
 30
0.0
 11
288.3732837256295
 21
563.1487473664956
 31
0.0
  0
LINE
  5
2D5D
330
18
100
AcDbEntity
  8
V25
 62
     6
 48
5.0
100
AcDbLine
 10
264.3732837256292
 20
500.6487473664954
 30
0.0
 11
325.3732837256292
 21
500.6487473664954
 31
0.0
  0
LINE
  5
2D67
330
18
100
AcDbEntity
  8
V25
 48
5.0
100
AcDbLine
 10
317.6111829634177
 20
545.6487473664956
 30
0.0
 11
366.7377317152613
 21
545.6487473664956
 31
0.0
  0
LINE
  5
2D6B
330
18
100
AcDbEntity
  8
V25
 62
     6
 48
5.0
100
AcDbLine
 10
288.3732837256292
 20
528.1487473664953
 30
0.0
 11
288.3732837256292
 21
513.1487473664954
 31
0.0
  0
LWPOLYLINE
  5
2D6F
330
18
100
AcDbEntity
  8
V25
  6
VERDECKTX2
 62
     6
 48
5.0
100
AcDbPolyline
 90
        3
 70
     1
 43
0.0
 10
320.9590701632561
 20
547.0629609288687
 10
320.9590701632561
 20
544.2345338041225
 10
322.3732837256292
 20
545.6487473664956
  0
LINE
  5
2D70
330
18
100
AcDbEntity
  8
V25
 62
     6
 48
5.0
100
AcDbLine
 10
288.3732837256295
 20
578.1487473664953
 30
0.0
 11
288.3732837256295
 21
563.1487473664954
 31
0.0
  0
LINE
  5
2D75
330
18
100
AcDbEntity
  8
V25
  6
VERDECKT
 62
     6
 48
1.8
100
AcDbLine
 10
235.3732837256293
 20
563.1487473664954
 30
0.0
 11
235.3732837256293
 21
528.1487473664956
 31
0.0
  0
LINE
  5
2D76
330
18
100
AcDbEntity
  8
V25
  6
VERDECKT
 62
     6
 48
1.8
100
AcDbLine
 10
235.3732837256293
 20
500.6487473664956
 30
0.0
 11
264.3732837256292
 21
500.6487473664956
 31
0.0
  0
CIRCLE
  5
2D77
330
18
100
AcDbEntity
  8
V25
 62
     6
 48
5.0
100
AcDbCircle
 10
244.8732837256292
 20
506.8987473664956
 30
0.0
 40
3.0
  0
LINE
  5
2D78
330
18
100
AcDbEntity
  8
V25
  6
VERDECKT
 62
     6
 48
1.8
100
AcDbLine
 10
235.3732837256293
 20
513.1487473664954
 30
0.0
 11
235.3732837256293
 21
500.6487473664956
 31
0.0
  0
LINE
  5
2D79
330
18
100
AcDbEntity
  8
V25
 62
     6
 48
5.0
100
AcDbLine
 10
236.5809956111258
 20
528.1487473664956
 30
0.0
 11
236.5809956111258
 21
513.1487473664956
 31
0.0
  0
LWPOLYLINE
  5
2D7B
330
18
100
AcDbEntity
  8
V25
 62
     6
 48
5.0
100
AcDbPolyline
 90
        4
 70
     1
 43
0.0
 10
241.8732837256293
 20
550.6487473664954
 10
241.8732837256293
 20
540.6487473664953
 42
0.9999999999999998
 10
247.8732837256293
 20
540.6487473664953
 10
247.8732837256293
 20
550.6487473664954
 42
0.9999999999999998
  0
CIRCLE
  5
2D7C
330
18
100
AcDbEntity
  8
V25
 62
     6
 48
5.0
100
AcDbCircle
 10
244.8732837256292
 20
584.3987473664956
 30
0.0
 40
3.0
  0
LINE
  5
2D7E
330
18
100
AcDbEntity
  8
V25
 62
     6
 48
5.0
100
AcDbLine
 10
236.580995611126
 20
578.1487473664956
 30
0.0
 11
236.580995611126
 21
563.1487473664956
 31
0.0
  0
LINE
  5
2D80
330
18
100
AcDbEntity
  8
V25
 62
     6
 48
5.0
100
AcDbLine
 10
264.3732837256292
 20
590.6487473664956
 30
0.0
 11
325.3732837256292
 21
590.6487473664956
 31
0.0
  0
LINE
  5
2D8B
330
18
100
AcDbEntity
  8
V25
  6
VERDECKT
 62
     6
 48
1.8
100
AcDbLine
 10
235.3732837256293
 20
590.6487473664956
 30
0.0
 11
264.3732837256292
 21
590.6487473664956
 31
0.0
  0
LINE
  5
2F64
330
18
100
AcDbEntity
  8
V25
 48
5.0
100
AcDbLine
 10
221.2245767980052
 20
852.6395902942672
 30
0.0
 11
251.2245767980052
 21
852.6395902942672
 31
0.0
  0
HATCH
  5
3097
330
18
100
AcDbEntity
  8
V25
 48
5.0
100
AcDbHatch
 10
0.0
 20
0.0
 30
0.0
210
0.0
220
0.0
230
1.0
  2
ANSI37
 70
     0
 71
     1
 91
        1
 92
        7
 72
     0
 73
     1
 93
        4
 10
329.2245767980053
 20
597.1506373133311
 10
324.2245767980052
 20
597.1506373133311
 10
324.2245767980053
 20
567.150637313331
 10
329.2245767980053
 20
567.150637313331
 97
        1
330
3098
 75
     0
 76
     1
 52
-90.00000000000001
 41
1.0
 77
     0
 78
     2
 53
315.0
 43
-327.9581881888575
 44
1081.466661281325
 45
2.245064030267288
 46
2.245064030267287
 79
     0
 53
44.99999999999999
 43
-327.9581881888575
 44
1081.466661281325
 45
-2.245064030267287
 46
2.245064030267288
 79
     0
 47
0.1149827854136383
 98
        1
 10
327.5550887803905
 20
578.8748736589703
  0
LWPOLYLINE
  5
3098
102
{ACAD_REACTORS
330
3097
102
}
330
18
100
AcDbEntity
  8
SV35
  6
AUSGEZOGEN
 48
5.0
100
AcDbPolyline
 90
        4
 70
     1
 43
0.0
 10
324.2245767980053
 20
597.1506373133311
 10
324.2245767980053
 20
567.150637313331
 10
329.2245767980053
 20
567.150637313331
 10
329.2245767980053
 20
597.1506373133311
  0
LINE
  5
309D
330
18
100
AcDbEntity
  8
V25
 48
5.0
100
AcDbLine
 10
302.1466625035839
 20
582.1506373133311
 30
0.0
 11
348.3252163169455
 21
582.1506373133311
 31
0.0
  0
TEXT
  5
30A0
330
18
100
AcDbEntity
  8
TXT-D
 62
     7
100
AcDbText
 10
14.17746082285573
 20
566.9042574334378
 30
0.0
 40
14.0
  1
těsnící pásek
  7
ROMANS
100
AcDbText
  0
LINE
  5
30A3
330
18
100
AcDbEntity
  8
TXT-D
100
AcDbLine
 10
134.7695983375006
 20
571.8422812503205
 30
0.0
 11
326.8108939508747
 21
571.8422812503204
 31
0.0
  0
TEXT
  5
30A5
330
18
100
AcDbEntity
  8
TXT-D
 62
     7
100
AcDbText
 10
-99.08981742522833
 20
492.1349464636575
 30
0.0
 40
14.0
  1
fasádní profil Kalzip TF 800R
  7
ROMANS
100
AcDbText
  0
LINE
  5
30A6
330
18
100
AcDbEntity
  8
TXT-D
100
AcDbLine
 10
169.262227903393
 20
500.2858964704018
 30
0.0
 11
216.7732075929715
 21
500.2858964704018
 31
0.0
  0
LINE
  5
30A9
330
18
100
AcDbEntity
  8
TXT-D
 48
5.0
100
AcDbLine
 10
426.4893495732666
 20
1038.510771589429
 30
0.0
 11
426.4893495732665
 21
788.5369285995694
 31
0.0
  0
LWPOLYLINE
  5
30EB
102
{ACAD_REACTORS
330
30EC
102
}
330
18
100
AcDbEntity
  8
V25
 48
5.0
100
AcDbPolyline
 90
        4
 70
     1
 43
0.0
 10
326.3732837256292
 20
590.6487473664956
 10
326.3732837256292
 20
500.6487473664956
 10
329.3732837256292
 20
500.6487473664956
 10
329.3732837256292
 20
590.6487473664956
  0
HATCH
  5
30EC
330
18
100
AcDbEntity
  8
WD
 48
5.0
100
AcDbHatch
 10
0.0
 20
0.0
 30
0.0
210
0.0
220
0.0
230
1.0
  2
ANSI37
 70
     0
 71
     1
 91
        1
 92
        1
 93
        4
 72
     1
 10
326.3732837256292
 20
590.6487473664956
 11
326.3732837256292
 21
500.6487473664956
 72
     1
 10
326.3732837256292
 20
500.6487473664956
 11
329.3732837256292
 21
500.6487473664956
 72
     1
 10
329.3732837256292
 20
500.6487473664956
 11
329.3732837256292
 21
590.6487473664956
 72
     1
 10
329.3732837256292
 20
590.6487473664956
 11
326.3732837256292
 21
590.6487473664956
 97
        1
330
30EB
 75
     0
 76
     1
 52
0.0
 41
0.8
 77
     0
 78
     2
 53
45.00000000000001
 43
448.1541682220355
 44
160.164423805784
 45
-1.79605122421383
 46
1.79605122421383
 79
     0
 53
135.0
 43
448.1541682220355
 44
160.164423805784
 45
-1.79605122421383
 46
-1.79605122421383
 79
     0
 98
        1
 10
448.1541682220355
 20
160.164423805784
  0
INSERT
  5
313F
330
18
100
AcDbEntity
  8
TXT-D
100
AcDbBlockReference
  2
wädä
 10
316.542242404361
 20
745.9251130110792
 30
0.0
 41
1.022129657154519
 42
1.022129657154519
 43
1.022129657154519
  0
INSERT
  5
3140
330
18
100
AcDbEntity
  8
TXT-D
100
AcDbBlockReference
  2
wädä
 10
316.542242404361
 20
728.2627125354491
 30
0.0
 41
1.022129657154519
 42
1.022129657154519
 43
1.022129657154519
  0
INSERT
  5
3141
330
18
100
AcDbEntity
  8
TXT-D
100
AcDbBlockReference
  2
wädä
 10
316.542242404361
 20
710.6003120598192
 30
0.0
 41
1.022129657154519
 42
1.022129657154519
 43
1.022129657154519
  0
INSERT
  5
3142
330
18
100
AcDbEntity
  8
TXT-D
100
AcDbBlockReference
  2
wädä
 10
316.542242404361
 20
692.9379115841891
 30
0.0
 41
1.022129657154519
 42
1.022129657154519
 43
1.022129657154519
  0
INSERT
  5
3143
330
18
100
AcDbEntity
  8
TXT-D
100
AcDbBlockReference
  2
wädä
 10
316.542242404361
 20
675.2755111085591
 30
0.0
 41
1.022129657154519
 42
1.022129657154519
 43
1.022129657154519
  0
INSERT
  5
3148
330
18
100
AcDbEntity
  8
TXT-D
100
AcDbBlockReference
  2
wädä
 10
320.5422406037846
 20
585.8801758981834
 30
0.0
 41
1.08
 42
1.08
 43
1.08
  0
INSERT
  5
3149
330
18
100
AcDbEntity
  8
TXT-D
100
AcDbBlockReference
  2
wädä
 10
320.5422406037846
 20
567.2177758981835
 30
0.0
 41
1.08
 42
1.08
 43
1.08
  0
INSERT
  5
314A
330
18
100
AcDbEntity
  8
TXT-D
100
AcDbBlockReference
  2
wädä
 10
320.5422406037846
 20
548.5553758981835
 30
0.0
 41
1.08
 42
1.08
 43
1.08
  0
INSERT
  5
314B
330
18
100
AcDbEntity
  8
TXT-D
100
AcDbBlockReference
  2
wädä
 10
320.5422406037846
 20
529.8929758981836
 30
0.0
 41
1.08
 42
1.08
 43
1.08
  0
INSERT
  5
314C
330
18
100
AcDbEntity
  8
TXT-D
100
AcDbBlockReference
  2
wädä
 10
320.5422406037846
 20
511.2305758981837
 30
0.0
 41
1.08
 42
1.08
 43
1.08
  0
INSERT
  5
314D
330
18
100
AcDbEntity
  8
TXT-D
100
AcDbBlockReference
  2
wädä
 10
326.6888545405763
 20
490.9034679613211
 30
0.0
 41
1.168926706261454
 42
1.168926706261454
 43
1.168926706261454
  0
INSERT
  5
314E
330
18
100
AcDbEntity
  8
TXT-D
100
AcDbBlockReference
  2
wädä
 10
326.6888545405763
 20
470.7044144771232
 30
0.0
 41
1.168926706261454
 42
1.168926706261454
 43
1.168926706261454
  0
INSERT
  5
314F
330
18
100
AcDbEntity
  8
TXT-D
100
AcDbBlockReference
  2
wädä
 10
326.6888545405763
 20
450.5053609929254
 30
0.0
 41
1.168926706261454
 42
1.168926706261454
 43
1.168926706261454
  0
INSERT
  5
3150
330
18
100
AcDbEntity
  8
TXT-D
100
AcDbBlockReference
  2
wädä
 10
326.6888545405763
 20
430.3063075087275
 30
0.0
 41
1.168926706261454
 42
1.168926706261454
 43
1.168926706261454
  0
INSERT
  5
3151
330
18
100
AcDbEntity
  8
TXT-D
100
AcDbBlockReference
  2
wädä
 10
326.6888545405763
 20
410.1072540245296
 30
0.0
 41
1.168926706261454
 42
1.168926706261454
 43
1.168926706261454
  0
INSERT
  5
3152
330
18
100
AcDbEntity
  8
TXT-D
100
AcDbBlockReference
  2
wädä
 10
326.6888545405763
 20
389.9082005403318
 30
0.0
 41
1.168926706261454
 42
1.168926706261454
 43
1.168926706261454
  0
INSERT
  5
3153
330
18
100
AcDbEntity
  8
TXT-D
100
AcDbBlockReference
  2
wädä
 10
326.6888545405763
 20
369.709147056134
 30
0.0
 41
1.168926706261454
 42
1.168926706261454
 43
1.168926706261454
  0
LWPOLYLINE
  5
3D7B
330
18
100
AcDbEntity
  8
V30
  6
VERDECKT
 48
2.0
100
AcDbPolyline
 90
        3
 70
     0
 43
1.5
 10
242.7943525861804
 20
880.1947874732674
 10
219.4663050507554
 20
880.1947874732674
 10
219.4663050507554
 20
821.2995207033282
  0
LINE
  5
3D7C
330
18
100
AcDbEntity
  8
V25
  6
VERDECKTX2
 48
5.0
100
AcDbLine
 10
217.7664989764228
 20
836.9735966017033
 30
0.0
 11
231.6244672728628
 21
836.9741030899755
 31
0.0
  0
LWPOLYLINE
  5
3D7D
330
18
100
AcDbEntity
  8
0
100
AcDbPolyline
 90
      118
 70
     0
 43
2.2
 10
216.4135830456705
 20
342.1388724375115
 10
215.998419349703
 20
344.5413656505694
 42
-0.0857671004931528
 10
215.998419349703
 20
345.2224920914621
 10
216.9195547258314
 20
350.552971396257
 42
0.0857671004931536
 10
216.9195547258314
 20
351.7108863457746
 10
215.998419349703
 20
357.0413656505694
 42
-0.0857671004931528
 10
215.998419349703
 20
357.7224920914621
 10
216.9195547258314
 20
363.052971396257
 42
0.0428049761761252
 10
216.9692102297504
 20
363.6319288710156
 10
216.9692102271949
 20
370.6309306914315
 42
0.4142135623730938
 10
214.9692102271949
 20
372.6309306914315
 10
183.7692101975647
 20
372.6309306914316
 42
-0.7002075382097079
 10
181.9694048904423
 20
377.5758551321647
 10
216.2547854190473
 20
406.3447052884899
 42
0.2216946626429403
 10
216.9692101996741
 20
407.8767941747278
 10
216.9692101996741
 20
437.3309306842998
 42
0.4142135623730948
 10
214.9692101996741
 20
439.3309306842998
 10
183.7692101996742
 20
439.3309306842998
 42
-0.7002075382097079
 10
181.9694048925519
 20
444.275855125033
 10
216.2547854211569
 20
473.0447052813582
 42
0.221694662642941
 10
216.9692102017839
 20
474.5767941675961
 10
216.9692102017839
 20
480.3309306771679
 42
0.042804976176125
 10
216.9195546978649
 20
480.9098881519268
 10
215.9984193217365
 20
486.2403674567217
 42
-0.0857671004931521
 10
215.9984193217365
 20
486.9214938976145
 10
216.9195546978649
 20
492.2519732024093
 42
0.0857671004931536
 10
216.9195546978649
 20
493.4098881519268
 10
215.9984193217365
 20
498.7403674567217
 42
-0.0857671004931521
 10
215.9984193217365
 20
499.4214938976145
 10
216.9195546978649
 20
504.7519732024093
 42
0.0857671004931536
 10
216.9195546978649
 20
505.9098881519268
 10
215.9984193217365
 20
511.2403674567217
 42
-0.0857671004931521
 10
215.9984193217365
 20
511.9214938976145
 10
216.9195546978649
 20
517.2519732024093
 42
0.0857671004931536
 10
216.9195546978649
 20
518.4098881519268
 10
215.9984193217365
 20
523.7403674567217
 42
-0.0857671004931521
 10
215.9984193217365
 20
524.4214938976145
 10
216.9195546978649
 20
529.7519732024093
 42
0.0857671004931536
 10
216.9195546978649
 20
530.9098881519268
 10
215.9984193217365
 20
536.2403674567217
 42
-0.0857671004931521
 10
215.9984193217365
 20
536.9214938976145
 10
216.9195546978649
 20
542.2519732024093
 42
0.0857671004931536
 10
216.9195546978649
 20
543.4098881519268
 10
215.9984193217365
 20
548.7403674567217
 42
-0.0857671004931521
 10
215.9984193217365
 20
549.4214938976145
 10
216.9195546978649
 20
554.7519732024093
 42
0.0857671004931536
 10
216.9195546978649
 20
555.9098881519268
 10
215.9984193217365
 20
561.2403674567217
 42
-0.0857671004931521
 10
215.9984193217365
 20
561.9214938976145
 10
216.9195546978649
 20
567.2519732024093
 42
0.0857671004931536
 10
216.9195546978649
 20
568.4098881519268
 10
215.9984193217365
 20
573.7403674567217
 42
-0.0857671004931521
 10
215.9984193217365
 20
574.4214938976145
 10
216.9195546978649
 20
579.7519732024093
 42
0.0857671004931536
 10
216.9195546978649
 20
580.9098881519268
 10
215.9984193217365
 20
586.2403674567217
 42
-0.0857671004931521
 10
215.9984193217365
 20
586.9214938976145
 10
216.9195546978649
 20
592.2519732024094
 42
0.0857671004931536
 10
216.9195546978649
 20
593.409888151927
 10
215.9984193217365
 20
598.7403674567218
 42
-0.0857671004931521
 10
215.9984193217365
 20
599.4214938976145
 10
216.9195546978649
 20
604.7519732024094
 42
0.0857671004931536
 10
216.9195546978649
 20
605.909888151927
 10
215.9984193217365
 20
611.2403674567218
 42
-0.0857671004931528
 10
215.9984193217365
 20
611.9214938976146
 10
216.9195546978649
 20
617.2519732024094
 42
0.0857671004931536
 10
216.9195546978649
 20
618.409888151927
 10
215.9984193217365
 20
623.7403674567218
 42
-0.0857671004931528
 10
215.9984193217365
 20
624.4214938976146
 10
216.9195546978649
 20
629.7519732024094
 42
0.0428782089823676
 10
216.9692102271949
 20
630.3319288214314
 10
216.9692102271949
 20
637.3309306914315
 42
0.4142135623730938
 10
214.9692102271949
 20
639.3309306914314
 10
183.7692101975644
 20
639.3309306914314
 42
-0.7002075382097079
 10
181.9694048904423
 20
644.2758551321646
 10
216.2547854190473
 20
673.0447052884898
 42
0.2216946626429403
 10
216.9692101996741
 20
674.5767941747277
 10
216.9692101996741
 20
704.0309306842998
 42
0.4142135623730948
 10
214.9692101996741
 20
706.0309306842998
 10
183.7692101996742
 20
706.0309306842998
 42
-0.7002075382097079
 10
181.9694048925519
 20
710.9758551250329
 10
216.2547854211569
 20
739.7447052813581
 42
0.221694662642941
 10
216.9692102017839
 20
741.276794167596
 10
216.9692102017839
 20
747.030930677168
 42
0.042804976176125
 10
216.9195546978649
 20
747.6098881519269
 10
215.9984193217365
 20
752.9403674567218
 42
-0.0857671004931521
 10
215.9984193217365
 20
753.6214938976144
 10
216.9195546978649
 20
758.9519732024093
 42
0.0857671004931536
 10
216.9195546978649
 20
760.1098881519269
 10
215.9984193217365
 20
765.4403674567218
 42
-0.0857671004931521
 10
215.9984193217365
 20
766.1214938976144
 10
216.9195546978649
 20
771.4519732024093
 42
0.0857671004931536
 10
216.9195546978649
 20
772.6098881519269
 10
215.9984193217365
 20
777.9403674567218
 42
-0.0857671004931521
 10
215.9984193217365
 20
778.6214938976144
 10
216.9195546978649
 20
783.9519732024093
 42
0.0857671004931536
 10
216.9195546978649
 20
785.1098881519269
 10
215.9984193217365
 20
790.4403674567218
 42
-0.0857671004931521
 10
215.9984193217365
 20
791.1214938976144
 10
216.9195546978649
 20
796.4519732024093
 42
0.0857671004931536
 10
216.9195546978649
 20
797.6098881519269
 10
215.9984193217365
 20
802.9403674567218
 42
-0.0857671004931521
 10
215.9984193217365
 20
803.6214938976144
 10
216.9195546978649
 20
808.9519732024093
 42
0.0857671004931536
 10
216.9195546978649
 20
810.109888151927
 10
215.9984193217365
 20
815.4403674567218
 42
-0.0857671004931521
 10
215.9984193217365
 20
816.1214938976144
 10
216.9195546978649
 20
821.4519732024093
 42
0.0857671004931536
 10
216.9195546978649
 20
822.609888151927
 10
215.9984193217365
 20
827.9403674567218
 42
-0.0857671004931521
 10
215.9984193217365
 20
828.6214938976144
 10
216.9195546978649
 20
833.9519732024093
 42
0.0857671004931536
 10
216.9195546978649
 20
835.109888151927
 10
215.9984193217365
 20
840.4403674567218
 42
-0.0857671004931521
 10
215.9984193217365
 20
841.1214938976144
 10
216.9195546978649
 20
846.4519732024093
 42
0.0857671004931536
 10
216.9195546978649
 20
847.609888151927
 10
216.050395226496
 20
852.6395902942672
  0
LINE
  5
3D7E
330
18
100
AcDbEntity
  8
V25
  6
VERDECKTX2
 48
5.0
100
AcDbLine
 10
210.8551625940022
 20
811.0434133933686
 30
0.0
 11
229.653676394925
 21
811.0434133933686
 31
0.0
  0
LWPOLYLINE
  5
3D7F
330
18
100
AcDbEntity
  8
V25
  6
VERDECKTX2
 48
5.0
100
AcDbPolyline
 90
        3
 70
     1
 43
0.0
 10
213.7894190338764
 20
812.4576269557417
 10
213.7894190338764
 20
809.6291998309954
 10
215.2036325962495
 20
811.0434133933686
  0
LINE
  5
3D80
330
18
100
AcDbEntity
  8
V25
  6
VERDECKTX2
 48
5.0
100
AcDbLine
 10
211.8259534719398
 20
689.3038624295138
 30
0.0
 11
230.6244672728628
 21
689.3038624295138
 31
0.0
  0
LWPOLYLINE
  5
3D81
330
18
100
AcDbEntity
  8
V25
  6
VERDECKTX2
 48
5.0
100
AcDbPolyline
 90
        3
 70
     1
 43
0.0
 10
214.7602099118142
 20
690.7180759918869
 10
214.7602099118142
 20
687.8896488671407
 10
216.174423474187
 20
689.3038624295138
  0
INSERT
  5
3D82
330
18
100
AcDbEntity
  8
V5
  6
VERDECKT
100
AcDbBlockReference
  2
luft
 10
238.1196740004941
 20
819.2421025580433
 30
0.0
  0
LINE
  5
3D83
330
18
100
AcDbEntity
  8
V25
  6
VERDECKTX2
 48
5.0
100
AcDbLine
 10
211.82595347194
 20
419.0165169714065
 30
0.0
 11
230.6244672728628
 21
419.0165169714065
 31
0.0
  0
LWPOLYLINE
  5
3D84
330
18
100
AcDbEntity
  8
V25
  6
VERDECKTX2
 48
5.0
100
AcDbPolyline
 90
        3
 70
     1
 43
0.0
 10
214.7602099118142
 20
420.4307305337796
 10
214.7602099118142
 20
417.6023034090333
 10
216.1744234741873
 20
419.0165169714065
  0
ARC
  5
3D9F
330
18
100
AcDbEntity
  8
ISO10TES
100
AcDbCircle
 10
311.2110406037849
 20
650.5997086585677
 30
0.0
 40
9.331199999999824
100
AcDbArc
 50
308.8026183093814
 51
0.0
  0
INSERT
  5
3DAE
330
18
100
AcDbEntity
  8
TXT-D
100
AcDbBlockReference
  2
wädä
 10
316.5422406037846
 20
763.5875131866132
 30
0.0
 41
1.022129657154519
 42
1.022129657154519
 43
1.022129657154519
  0
TEXT
  5
3DD7
330
18
100
AcDbEntity
  8
TXT-D
 62
     7
100
AcDbText
 10
524.8821799560728
 20
1204.876752442512
 30
0.0
 40
14.0
  1
uzavírací oplechování
  7
ROMANS
100
AcDbText
  0
TEXT
  5
3DD8
330
18
100
AcDbEntity
  8
TXT-D
 62
     7
100
AcDbText
 10
524.4357677343446
 20
1169.71261555974
 30
0.0
 40
14.0
  1
vnitřní vyplechování
  7
ROMANS
100
AcDbText
  0
TEXT
  5
3DD9
330
18
100
AcDbEntity
  8
TXT-D
 62
     7
100
AcDbText
 10
524.4558233669255
 20
956.7863915212202
 30
0.0
 40
14.0
  1
trapézový plech
  7
ROMANS
100
AcDbText
  0
LINE
  5
3DDA
330
18
100
AcDbEntity
  8
TXT-D
100
AcDbLine
 10
519.4201592202927
 20
961.9402507846816
 30
0.0
 11
501.5877313954781
 21
961.9402507846816
 31
0.0
  0
LINE
  5
3DDB
330
18
100
AcDbEntity
  8
TXT-D
100
AcDbLine
 10
501.587731395478
 20
678.6884163203668
 30
0.0
 11
501.5877313954781
 21
961.9402507846816
 31
0.0
  0
LWPOLYLINE
  5
3DE6
330
18
100
AcDbEntity
  8
V35
100
AcDbPolyline
 90
        2
 70
     1
 43
2.9
 10
500.0377313954781
 20
678.6884163203668
 42
1.0
 10
503.137731395478
 20
678.6884163203668
 42
1.0
  0
LWPOLYLINE
  5
3DE7
330
18
100
AcDbEntity
  8
V35
100
AcDbPolyline
 90
        2
 70
     1
 43
2.9
 10
461.7524709931045
 20
740.8975454132713
 42
1.0
 10
464.8524709931045
 20
740.8975454132713
 42
1.0
  0
LWPOLYLINE
  5
3DE8
330
18
100
AcDbEntity
  8
V35
100
AcDbPolyline
 90
        2
 70
     1
 43
2.9
 10
424.9393495732666
 20
788.5369285995694
 42
1.0
 10
428.0393495732665
 20
788.5369285995694
 42
1.0
  0
LWPOLYLINE
  5
3DE9
330
18
100
AcDbEntity
  8
V35
100
AcDbPolyline
 90
        2
 70
     1
 43
2.9
 10
356.0719795398674
 20
889.2140775418273
 42
1.0
 10
359.1719795398673
 20
889.2140775418273
 42
1.0
  0
LWPOLYLINE
  5
3DEA
330
18
100
AcDbEntity
  8
V35
100
AcDbPolyline
 90
        2
 70
     1
 43
2.9
 10
236.5073424173917
 20
880.1947874732674
 42
1.0
 10
239.6073424173916
 20
880.1947874732674
 42
1.0
  0
LWPOLYLINE
  5
3DEB
330
18
100
AcDbEntity
  8
V35
100
AcDbPolyline
 90
        2
 70
     1
 43
2.9
 10
278.4729177672641
 20
882.9372784839627
 42
1.0
 10
281.5729177672641
 20
882.9372784839627
 42
1.0
  0
LWPOLYLINE
  5
3DEC
330
18
100
AcDbEntity
  8
V35
100
AcDbPolyline
 90
        2
 70
     1
 43
2.9
 10
325.2608939508748
 20
571.8422812503204
 42
1.0
 10
328.3608939508747
 20
571.8422812503204
 42
1.0
  0
LWPOLYLINE
  5
3DED
330
18
100
AcDbEntity
  8
V35
100
AcDbPolyline
 90
        2
 70
     1
 43
2.9
 10
215.2232075929715
 20
500.2858964704018
 42
1.0
 10
218.3232075929714
 20
500.2858964704018
 42
1.0
  0
LINE
  5
42C1
330
18
100
AcDbEntity
  8
V25
100
AcDbLine
 10
874.2858772749803
 20
695.6349411642475
 30
0.0
 11
329.2245767980053
 21
695.6349411642477
 31
0.0
  0
LINE
  5
42C2
330
18
100
AcDbEntity
  8
V25
100
AcDbLine
 10
874.2858748787622
 20
655.6958037119194
 30
0.0
 11
329.2245744017869
 21
655.6958037119193
 31
0.0
  0
LINE
  5
42D7
330
18
100
AcDbEntity
  8
TXT-D
100
AcDbLine
 10
165.5916418273209
 20
643.4134292871215
 30
0.0
 11
323.9818131110552
 21
643.398666030239
 31
0.0
  0
TEXT
  5
42D8
330
18
100
AcDbEntity
  8
TXT-D
 62
     7
100
AcDbText
 10
24.47448649402537
 20
638.79610632229
 30
0.0
 40
14.0
  1
vnitřní uzavírací
  7
ROMANS
100
AcDbText
  0
LWPOLYLINE
  5
42D9
330
18
100
AcDbEntity
  8
V35
100
AcDbPolyline
 90
        2
 70
     1
 43
2.9
 10
322.4318131110552
 20
643.398666030239
 42
1.0
 10
325.5318131110552
 20
643.398666030239
 42
1.0
  0
LINE
  5
42DD
330
18
100
AcDbEntity
  8
ISO10TES
100
AcDbLine
 10
316.5893298576452
 20
359.6096203140348
 30
0.0
 11
255.9921673458835
 21
369.7091470561339
 31
0.0
  0
INSERT
  5
42E3
330
18
100
AcDbEntity
  8
TXT-D
100
AcDbBlockReference
  2
wädä
 10
316.542242404361
 20
639.9507101572992
 30
0.0
 41
1.022129657154519
 42
1.022129657154519
 43
1.022129657154519
  0
INSERT
  5
42E4
330
18
100
AcDbEntity
  8
TXT-D
100
AcDbBlockReference
  2
wädä
 10
316.542242404361
 20
657.6131106329293
 30
0.0
 41
1.022129657154519
 42
1.022129657154519
 43
1.022129657154519
  0
INSERT
  5
42E5
330
18
100
AcDbEntity
  8
TXT-D
100
AcDbBlockReference
  2
wädä
 10
316.542242404361
 20
604.6259092060394
 30
0.0
 41
1.022129657154519
 42
1.022129657154519
 43
1.022129657154519
  0
INSERT
  5
42E6
330
18
100
AcDbEntity
  8
TXT-D
100
AcDbBlockReference
  2
wädä
 10
316.542242404361
 20
622.2883096816694
 30
0.0
 41
1.022129657154519
 42
1.022129657154519
 43
1.022129657154519
  0
LINE
  5
42E8
330
18
100
AcDbEntity
  8
ISO10TES
100
AcDbLine
 10
304.0980552077533
 20
341.4924458674075
 30
0.0
 11
255.9921673458835
 21
349.510093571936
 31
0.0
  0
LINE
  5
42EC
330
18
100
AcDbEntity
  8
ISO10TES
100
AcDbLine
 10
304.0980552077533
 20
341.4924458674075
 30
0.0
 11
255.9921673458835
 21
349.510093571936
 31
0.0
  0
ARC
  5
42EE
330
18
100
AcDbEntity
  8
ISO10TES
100
AcDbCircle
 10
255.9921673458835
 20
339.4105668298371
 30
0.0
 40
10.09952674209896
100
AcDbArc
 50
90.0
 51
168.1039751572015
  0
LWPOLYLINE
  5
42F2
330
18
100
AcDbEntity
  8
ISO10TES
100
AcDbPolyline
 90
        2
 70
     0
 43
0.0
 10
255.9921673458835
 20
349.510093571936
 10
316.5893298576452
 20
359.6096203140348
  0
LINE
  5
42F3
330
18
100
AcDbEntity
  8
ISO10TES
100
AcDbLine
 10
316.5893298576452
 20
359.6096203140348
 30
0.0
 11
255.9921673458835
 21
369.7091470561339
 31
0.0
  0
LINE
  5
42F4
330
18
100
AcDbEntity
  8
ISO10TES
100
AcDbLine
 10
304.0980552077547
 20
341.4924458674075
 30
0.0
 11
255.9921673458835
 21
349.5100935719364
 31
0.0
  0
ARC
  5
42F5
330
18
100
AcDbEntity
  8
ISO10TES
100
AcDbCircle
 10
255.9921673458835
 20
359.609620314035
 30
0.0
 40
10.09952674209896
100
AcDbArc
 50
90.0
 51
180.0
  0
ARC
  5
42F6
330
18
100
AcDbEntity
  8
ISO10TES
100
AcDbCircle
 10
255.9921673458835
 20
359.609620314035
 30
0.0
 40
10.09952674209896
100
AcDbArc
 50
180.0
 51
270.0
  0
LWPOLYLINE
  5
42F7
330
18
100
AcDbEntity
  8
ISO10TES
100
AcDbPolyline
 90
        2
 70
     0
 43
0.0
 10
316.5893277984774
 20
359.609620314035
 42
-0.4142135623730951
 10
326.6888545405763
 20
349.5100935719361
 42
-0.4142135623730951
  0
ARC
  5
42F8
330
18
100
AcDbEntity
  8
ISO10TES
100
AcDbCircle
 10
316.5893277984776
 20
349.5100935719364
 30
0.0
 40
10.09952674209877
100
AcDbArc
 50
307.4519390355596
 51
0.0
  0
LINE
  5
42FD
330
18
100
AcDbEntity
  8
V25
100
AcDbLine
 10
310.6207601209826
 20
854.1145353656448
 30
0.0
 11
329.0609632676205
 21
854.1145353656448
 31
0.0
  0
INSERT
  5
42FE
330
18
100
AcDbEntity
  8
TXT-D
100
AcDbBlockReference
  2
wädä
 10
316.5422388032082
 20
781.2499133621472
 30
0.0
 41
1.022129657154519
 42
1.022129657154519
 43
1.022129657154519
  0
INSERT
  5
42FF
330
18
100
AcDbEntity
  8
TXT-D
100
AcDbBlockReference
  2
wädä
 10
316.5422370026318
 20
798.9123135376813
 30
0.0
 41
1.022129657154519
 42
1.022129657154519
 43
1.022129657154519
  0
INSERT
  5
4300
330
18
100
AcDbEntity
  8
TXT-D
100
AcDbBlockReference
  2
wädä
 10
316.5422352020554
 20
816.5747137132152
 30
0.0
 41
1.022129657154519
 42
1.022129657154519
 43
1.022129657154519
  0
INSERT
  5
4301
330
18
100
AcDbEntity
  8
TXT-D
100
AcDbBlockReference
  2
wädä
 10
316.542233401479
 20
834.2371138887493
 30
0.0
 41
1.022129657154519
 42
1.022129657154519
 43
1.022129657154519
  0
INSERT
  5
4302
330
18
100
AcDbEntity
  8
TXT-D
100
AcDbBlockReference
  2
wädä
 10
316.5422316009026
 20
851.8995140642832
 30
0.0
 41
1.022129657154519
 42
1.022129657154519
 43
1.022129657154519
  0
LWPOLYLINE
  5
4304
330
18
100
AcDbEntity
  8
ISO10TES
100
AcDbPolyline
 90
        2
 70
     0
 43
0.0
 10
254.7238281356207
 20
869.5619142398172
 10
307.711031363083
 20
878.3931144776319
  0
LINE
  5
4306
330
18
100
AcDbEntity
  8
ISO10TES
100
AcDbLine
 10
307.711031363083
 20
860.7307140020022
 30
0.0
 11
254.7238281356207
 21
869.5619142398175
 31
0.0
  0
ARC
  5
4308
330
18
100
AcDbEntity
  8
ISO10TES
100
AcDbCircle
 10
254.7238281356208
 20
878.3931144776321
 30
0.0
 40
8.831200237815048
100
AcDbArc
 50
180.0
 51
270.0
  0
LWPOLYLINE
  5
4309
330
18
100
AcDbEntity
  8
ISO10TES
100
AcDbPolyline
 90
        2
 70
     0
 43
0.0
 10
307.7110295625112
 20
878.3931144776323
 42
-0.4142135623730951
 10
316.5422298003262
 20
869.5619142398172
 42
-0.4142135623730951
  0
ARC
  5
430A
330
18
100
AcDbEntity
  8
ISO10TES
100
AcDbCircle
 10
307.7110295625113
 20
869.5619142398175
 30
0.0
 40
8.831200237814879
100
AcDbArc
 50
270.0
 51
0.0
  0
INSERT
  5
5063
330
18
100
AcDbEntity
  8
V35
  6
AUSGEZOGEN
 62
     6
 48
10.0
100
AcDbBlockReference
  2
e140
 10
389.9301985199277
 20
747.4091744284582
 30
0.0
  0
INSERT
  5
5067
330
18
100
AcDbEntity
  8
V35
  6
AUSGEZOGEN
 62
     6
 48
10.0
100
AcDbBlockReference
  2
e140
 10
697.4340051036628
 20
744.4649352412393
 30
0.0
  0
LWPOLYLINE
  5
5068
330
18
100
AcDbEntity
  8
V5
 62
     7
100
AcDbPolyline
 90
       20
 70
     0
 43
0.0
 10
692.4237328917724
 20
932.5541748130634
 42
-0.8518717637873161
 10
699.1515958406774
 20
952.8670975439935
 42
-0.3441842485073744
 10
702.499199192737
 20
949.2565389787136
 10
702.5289045825932
 20
948.9011348583794
 42
0.3077507175483973
 10
705.3740665564199
 20
945.4173026008756
 42
-0.3559174951861054
 10
708.219889408758
 20
941.2401896201139
 42
-0.2401758746392449
 10
703.0143728145198
 20
932.8860851453795
 42
0.2629884054316376
 10
701.5622722854716
 20
930.3162588423303
 10
701.5622722855019
 20
898.5768745035501
 42
0.2931365125316157
 10
702.1565722541785
 20
897.665198748264
 10
702.4208204755256
 20
897.5449382514199
 42
-0.2939859278524366
 10
705.6425846798521
 20
892.5390775418273
 42
0.4142135623730951
 10
709.7425846798521
 20
888.4390775418273
 10
789.4822664155752
 20
888.4390775418273
 42
0.2446984432290329
 10
792.8407897971599
 20
890.1874141527882
 10
795.5061987971598
 20
893.9940131527883
 42
-0.5205670505517518
 10
804.5168712843388
 20
893.9940144109154
 10
807.1822812843388
 20
890.1874154109153
 42
0.2446984432290355
 10
810.5408038162575
 20
888.439079167761
 10
873.2737772200513
 20
888.439079167761
  0
LINE
  5
506E
330
18
100
AcDbEntity
  8
V25
 48
5.0
100
AcDbLine
 10
329.2245767980053
 20
598.6322604300796
 30
0.0
 11
348.8661769096302
 21
618.2738605417045
 31
0.0
  0
LINE
  5
506F
330
18
100
AcDbEntity
  8
V25
 48
5.0
100
AcDbLine
 10
329.2245767980052
 20
544.7507237036647
 30
0.0
 11
398.5464926654132
 21
614.0726395710728
 31
0.0
  0
LINE
  5
5070
330
18
100
AcDbEntity
  8
V25
 48
5.0
100
AcDbLine
 10
402.3722813946563
 20
617.8984283003159
 30
0.0
 11
402.7477136360451
 21
618.2738605417045
 31
0.0
  0
LINE
  5
5071
330
18
100
AcDbEntity
  8
V25
 48
5.0
100
AcDbLine
 10
329.2245767980053
 20
490.8691869772499
 30
0.0
 11
422.0941895913516
 21
583.7387997705962
 31
0.0
  0
LINE
  5
5072
330
18
100
AcDbEntity
  8
V25
 48
5.0
100
AcDbLine
 10
456.2211185285222
 20
617.8657287077669
 30
0.0
 11
456.6292503624597
 21
618.2738605417044
 31
0.0
  0
LINE
  5
5073
330
18
100
AcDbEntity
  8
V25
 48
5.0
100
AcDbLine
 10
329.2245767980053
 20
436.987650250835
 30
0.0
 11
423.6965991628117
 21
531.4596726156414
 31
0.0
  0
LINE
  5
5074
330
18
100
AcDbEntity
  8
V25
 48
5.0
100
AcDbLine
 10
435.684819799768
 20
543.4478932525978
 30
0.0
 11
510.5107870888748
 21
618.2738605417045
 31
0.0
  0
LINE
  5
5075
330
18
100
AcDbEntity
  8
V25
 48
5.0
100
AcDbLine
 10
329.2245767980053
 20
383.1061135244202
 30
0.0
 11
529.2245767980054
 21
583.1061135244201
 31
0.0
  0
LINE
  5
5076
330
18
100
AcDbEntity
  8
V25
 48
5.0
100
AcDbLine
 10
341.4924458674075
 20
341.4924458674074
 30
0.0
 11
529.2245767980053
 21
529.2245767980051
 31
0.0
  0
LINE
  5
5077
330
18
100
AcDbEntity
  8
V25
 48
5.0
100
AcDbLine
 10
395.3739825938225
 20
341.4924458674075
 30
0.0
 11
529.2245767980053
 21
475.3430400715902
 31
0.0
  0
LINE
  5
5078
330
18
100
AcDbEntity
  8
V25
 48
5.0
100
AcDbLine
 10
449.2555193202373
 20
341.4924458674075
 30
0.0
 11
529.2245767980053
 21
421.4615033451753
 31
0.0
  0
LINE
  5
5079
330
18
100
AcDbEntity
  8
V25
 48
5.0
100
AcDbLine
 10
503.1370560466522
 20
341.4924458674075
 30
0.0
 11
529.2245767980053
 21
367.5799666187605
 31
0.0
  0
LINE
  5
507B
330
18
100
AcDbEntity
  8
V25
 48
5.0
100
AcDbLine
 10
329.2245767980053
 20
571.6914804300797
 30
0.0
 11
330.0244240860839
 21
572.4913277181583
 31
0.0
  0
LINE
  5
507C
330
18
100
AcDbEntity
  8
V25
 48
5.0
100
AcDbLine
 10
336.7596161768858
 20
579.2265198089602
 30
0.0
 11
350.2300003584895
 21
592.696903990564
 31
0.0
  0
LINE
  5
507D
330
18
100
AcDbEntity
  8
V25
 48
5.0
100
AcDbLine
 10
356.9651924492914
 20
599.4320960813658
 30
0.0
 11
370.4355766308951
 21
612.9024802629697
 31
0.0
  0
LINE
  5
507E
330
18
100
AcDbEntity
  8
V25
 48
5.0
100
AcDbLine
 10
329.2245767980053
 20
517.8099437036649
 30
0.0
 11
336.7596161768857
 21
525.3449830825453
 31
0.0
  0
LINE
  5
507F
330
18
100
AcDbEntity
  8
V25
 48
5.0
100
AcDbLine
 10
343.4948082676876
 20
532.0801751733472
 30
0.0
 11
356.9651924492913
 21
545.550559354951
 31
0.0
  0
LINE
  5
5080
330
18
100
AcDbEntity
  8
V25
 48
5.0
100
AcDbLine
 10
363.7003845400932
 20
552.2857514457529
 30
0.0
 11
377.1707687216969
 21
565.7561356273567
 31
0.0
  0
LINE
  5
5081
330
18
100
AcDbEntity
  8
V25
 48
5.0
100
AcDbLine
 10
383.9059608124988
 20
572.4913277181586
 30
0.0
 11
397.3763449941025
 21
585.9617118997623
 31
0.0
  0
LINE
  5
5082
330
18
100
AcDbEntity
  8
V25
 48
5.0
100
AcDbLine
 10
404.1115370849044
 20
592.6969039905642
 30
0.0
 11
405.2947730696426
 21
593.8801399753024
 31
0.0
  0
LINE
  5
5083
330
18
100
AcDbEntity
  8
V25
 48
5.0
100
AcDbLine
 10
429.6137830419255
 20
618.1991499475851
 30
0.0
 11
429.6884936360449
 21
618.2738605417045
 31
0.0
  0
LINE
  5
5084
330
18
100
AcDbEntity
  8
V25
 48
5.0
100
AcDbLine
 10
330.0244240860839
 20
464.7282542653285
 30
0.0
 11
343.4948082676876
 21
478.1986384469322
 31
0.0
  0
LINE
  5
5085
330
18
100
AcDbEntity
  8
V25
 48
5.0
100
AcDbLine
 10
350.2300003584895
 20
484.9338305377341
 30
0.0
 11
363.7003845400932
 21
498.4042147193378
 31
0.0
  0
LINE
  5
5086
330
18
100
AcDbEntity
  8
V25
 48
5.0
100
AcDbLine
 10
370.4355766308951
 20
505.1394068101397
 30
0.0
 11
383.9059608124988
 21
518.6097909917434
 31
0.0
  0
LINE
  5
5087
330
18
100
AcDbEntity
  8
V25
 48
5.0
100
AcDbLine
 10
390.6411529033007
 20
525.3449830825453
 30
0.0
 11
404.1115370849044
 21
538.8153672641491
 31
0.0
  0
LINE
  5
5088
330
18
100
AcDbEntity
  8
V25
 48
5.0
100
AcDbLine
 10
410.8467291757063
 20
545.550559354951
 30
0.0
 11
424.31711335731
 21
559.0209435365547
 31
0.0
  0
LINE
  5
5089
330
18
100
AcDbEntity
  8
V25
 48
5.0
100
AcDbLine
 10
460.2510203619782
 20
594.9548505412228
 30
0.0
 11
464.7282659021211
 21
599.4320960813658
 31
0.0
  0
LINE
  5
508A
330
18
100
AcDbEntity
  8
V25
 48
5.0
100
AcDbLine
 10
471.4634579929231
 20
606.1672881721677
 30
0.0
 11
483.5700303624598
 21
618.2738605417045
 31
0.0
  0
LINE
  5
508B
330
18
100
AcDbEntity
  8
V25
 48
5.0
100
AcDbLine
 10
431.2457710181438
 20
565.9496011973885
 30
0.0
 11
444.5226896297156
 21
579.2265198089603
 31
0.0
  0
LINE
  5
508C
330
18
100
AcDbEntity
  8
V25
 48
5.0
100
AcDbLine
 10
451.2578817205175
 20
585.9617118997622
 30
0.0
 11
459.4926950964234
 21
594.1965252756681
 31
0.0
  0
LINE
  5
508D
330
18
100
AcDbEntity
  8
V25
 48
5.0
100
AcDbLine
 10
329.2245767980053
 20
410.046870250835
 30
0.0
 11
330.024424086084
 21
410.8467175389137
 31
0.0
  0
LINE
  5
508E
330
18
100
AcDbEntity
  8
V25
 48
5.0
100
AcDbLine
 10
336.7596161768859
 20
417.5819096297156
 30
0.0
 11
350.2300003584896
 21
431.0522938113193
 31
0.0
  0
LINE
  5
508F
330
18
100
AcDbEntity
  8
V25
 48
5.0
100
AcDbLine
 10
356.9651924492915
 20
437.7874859021212
 30
0.0
 11
370.4355766308952
 21
451.2578700837249
 31
0.0
  0
LINE
  5
5090
330
18
100
AcDbEntity
  8
V25
 48
5.0
100
AcDbLine
 10
377.1707687216971
 20
457.9930621745268
 30
0.0
 11
390.6411529033008
 21
471.4634463561305
 31
0.0
  0
LINE
  5
5091
330
18
100
AcDbEntity
  8
V25
 48
5.0
100
AcDbLine
 10
397.3763449941027
 20
478.1986384469324
 30
0.0
 11
410.8467291757063
 21
491.6690226285362
 31
0.0
  0
LINE
  5
5092
330
18
100
AcDbEntity
  8
V25
 48
5.0
100
AcDbLine
 10
417.5819212665082
 20
498.404214719338
 30
0.0
 11
431.0523054481119
 21
511.8745989009418
 31
0.0
  0
LINE
  5
5093
330
18
100
AcDbEntity
  8
V25
 48
5.0
100
AcDbLine
 10
437.7874975389139
 20
518.6097909917436
 30
0.0
 11
451.2578817205175
 21
532.0801751733474
 31
0.0
  0
LINE
  5
5094
330
18
100
AcDbEntity
  8
V25
 48
5.0
100
AcDbLine
 10
457.9930738113195
 20
538.8153672641493
 30
0.0
 11
471.4634579929231
 21
552.2857514457531
 31
0.0
  0
LINE
  5
5095
330
18
100
AcDbEntity
  8
V25
 48
5.0
100
AcDbLine
 10
478.1986500837251
 20
559.020943536555
 30
0.0
 11
491.6690342653288
 21
572.4913277181587
 31
0.0
  0
LINE
  5
5096
330
18
100
AcDbEntity
  8
V25
 48
5.0
100
AcDbLine
 10
498.4042263561307
 20
579.2265198089607
 30
0.0
 11
511.8746105377344
 21
592.6969039905644
 31
0.0
  0
LINE
  5
5097
330
18
100
AcDbEntity
  8
V25
 48
5.0
100
AcDbLine
 10
518.6098026285362
 20
599.4320960813663
 30
0.0
 11
529.2245767980054
 21
610.0468702508355
 31
0.0
  0
LINE
  5
5098
330
18
100
AcDbEntity
  8
V25
 48
5.0
100
AcDbLine
 10
329.2245767980053
 20
356.1653335244201
 30
0.0
 11
336.7596161768859
 21
363.7003729033007
 31
0.0
  0
LINE
  5
5099
330
18
100
AcDbEntity
  8
V25
 48
5.0
100
AcDbLine
 10
343.4948082676878
 20
370.4355649941026
 30
0.0
 11
356.9651924492915
 21
383.9059491757063
 31
0.0
  0
LINE
  5
509A
330
18
100
AcDbEntity
  8
V25
 48
5.0
100
AcDbLine
 10
363.7003845400934
 20
390.6411412665082
 30
0.0
 11
377.1707687216971
 21
404.1115254481119
 31
0.0
  0
LINE
  5
509B
330
18
100
AcDbEntity
  8
V25
 48
5.0
100
AcDbLine
 10
383.905960812499
 20
410.8467175389137
 30
0.0
 11
397.3763449941027
 21
424.3171017205175
 31
0.0
  0
LINE
  5
509C
330
18
100
AcDbEntity
  8
V25
 48
5.0
100
AcDbLine
 10
404.1115370849046
 20
431.0522938113193
 30
0.0
 11
417.5819212665082
 21
444.5226779929231
 31
0.0
  0
LINE
  5
509D
330
18
100
AcDbEntity
  8
V25
 48
5.0
100
AcDbLine
 10
424.3171133573102
 20
451.257870083725
 30
0.0
 11
437.7874975389139
 21
464.7282542653287
 31
0.0
  0
LINE
  5
509E
330
18
100
AcDbEntity
  8
V25
 48
5.0
100
AcDbLine
 10
444.5226896297158
 20
471.4634463561306
 30
0.0
 11
457.9930738113195
 21
484.9338305377343
 31
0.0
  0
LINE
  5
509F
330
18
100
AcDbEntity
  8
V25
 48
5.0
100
AcDbLine
 10
464.7282659021214
 20
491.6690226285362
 30
0.0
 11
478.1986500837251
 21
505.13940681014
 31
0.0
  0
LINE
  5
50A0
330
18
100
AcDbEntity
  8
V25
 48
5.0
100
AcDbLine
 10
484.933842174527
 20
511.8745989009418
 30
0.0
 11
498.4042263561307
 21
525.3449830825456
 31
0.0
  0
LINE
  5
50A1
330
18
100
AcDbEntity
  8
V25
 48
5.0
100
AcDbLine
 10
505.1394184469326
 20
532.0801751733474
 30
0.0
 11
518.6098026285363
 21
545.5505593549512
 31
0.0
  0
LINE
  5
50A2
330
18
100
AcDbEntity
  8
V25
 48
5.0
100
AcDbLine
 10
525.3449947193383
 20
552.2857514457531
 30
0.0
 11
529.2245767980055
 21
556.1653335244204
 31
0.0
  0
LINE
  5
50A5
330
18
100
AcDbEntity
  8
V25
 48
5.0
100
AcDbLine
 10
370.4355766308952
 20
343.4947966308951
 30
0.0
 11
383.9059608124989
 21
356.9651808124988
 31
0.0
  0
LINE
  5
50A6
330
18
100
AcDbEntity
  8
V25
 48
5.0
100
AcDbLine
 10
390.6411529033008
 20
363.7003729033007
 30
0.0
 11
404.1115370849045
 21
377.1707570849045
 31
0.0
  0
LINE
  5
50A7
330
18
100
AcDbEntity
  8
V25
 48
5.0
100
AcDbLine
 10
410.8467291757063
 20
383.9059491757063
 30
0.0
 11
424.3171133573101
 21
397.3763333573101
 31
0.0
  0
LINE
  5
50A8
330
18
100
AcDbEntity
  8
V25
 48
5.0
100
AcDbLine
 10
431.0523054481119
 20
404.1115254481119
 30
0.0
 11
444.5226896297157
 21
417.5819096297156
 31
0.0
  0
LINE
  5
50A9
330
18
100
AcDbEntity
  8
V25
 48
5.0
100
AcDbLine
 10
451.2578817205175
 20
424.3171017205175
 30
0.0
 11
464.7282659021213
 21
437.7874859021212
 31
0.0
  0
LINE
  5
50AA
330
18
100
AcDbEntity
  8
V25
 48
5.0
100
AcDbLine
 10
471.4634579929231
 20
444.5226779929231
 30
0.0
 11
484.9338421745269
 21
457.9930621745268
 31
0.0
  0
LINE
  5
50AB
330
18
100
AcDbEntity
  8
V25
 48
5.0
100
AcDbLine
 10
491.6690342653288
 20
464.7282542653287
 30
0.0
 11
505.1394184469325
 21
478.1986384469324
 31
0.0
  0
LINE
  5
50AC
330
18
100
AcDbEntity
  8
V25
 48
5.0
100
AcDbLine
 10
511.8746105377343
 20
484.9338305377342
 30
0.0
 11
525.344994719338
 21
498.4042147193378
 31
0.0
  0
LINE
  5
50AF
330
18
100
AcDbEntity
  8
V25
 48
5.0
100
AcDbLine
 10
422.3147625938224
 20
341.4924458674075
 30
0.0
 11
431.0523054481119
 21
350.229988721697
 31
0.0
  0
LINE
  5
50B0
330
18
100
AcDbEntity
  8
V25
 48
5.0
100
AcDbLine
 10
437.7874975389138
 20
356.9651808124989
 30
0.0
 11
451.2578817205175
 21
370.4355649941026
 31
0.0
  0
LINE
  5
50B1
330
18
100
AcDbEntity
  8
V25
 48
5.0
100
AcDbLine
 10
457.9930738113194
 20
377.1707570849045
 30
0.0
 11
471.4634579929231
 21
390.6411412665082
 31
0.0
  0
LINE
  5
50B2
330
18
100
AcDbEntity
  8
V25
 48
5.0
100
AcDbLine
 10
478.198650083725
 20
397.3763333573101
 30
0.0
 11
491.6690342653287
 21
410.8467175389137
 31
0.0
  0
LINE
  5
50B3
330
18
100
AcDbEntity
  8
V25
 48
5.0
100
AcDbLine
 10
498.4042263561306
 20
417.5819096297157
 30
0.0
 11
511.8746105377343
 21
431.0522938113193
 31
0.0
  0
LINE
  5
50B4
330
18
100
AcDbEntity
  8
V25
 48
5.0
100
AcDbLine
 10
518.6098026285362
 20
437.7874859021213
 30
0.0
 11
529.2245767980054
 21
448.4022600715904
 31
0.0
  0
LINE
  5
50B7
330
18
100
AcDbEntity
  8
V25
 48
5.0
100
AcDbLine
 10
476.1962993202373
 20
341.4924458674075
 30
0.0
 11
478.1986500837249
 21
343.494796630895
 31
0.0
  0
LINE
  5
50B8
330
18
100
AcDbEntity
  8
V25
 48
5.0
100
AcDbLine
 10
484.9338421745268
 20
350.2299887216969
 30
0.0
 11
498.4042263561305
 21
363.7003729033007
 31
0.0
  0
LINE
  5
50B9
330
18
100
AcDbEntity
  8
V25
 48
5.0
100
AcDbLine
 10
505.1394184469324
 20
370.4355649941025
 30
0.0
 11
518.6098026285361
 21
383.9059491757063
 31
0.0
  0
LINE
  5
50BA
330
18
100
AcDbEntity
  8
V25
 48
5.0
100
AcDbLine
 10
525.344994719338
 20
390.6411412665081
 30
0.0
 11
529.2245767980054
 21
394.5207233451754
 31
0.0
  0
LWPOLYLINE
  5
50BD
330
18
100
AcDbEntity
  8
V5
100
AcDbPolyline
 90
        4
 70
     0
 43
2.0
 10
322.5422406037846
 20
830.5694428963452
 10
322.5422406037846
 20
882.9372784839627
 10
160.4475710080439
 20
882.9372784839625
 10
160.4475710080439
 20
802.7685493656699
  0
LWPOLYLINE
  5
50C1
330
18
100
AcDbEntity
  8
V5
100
AcDbPolyline
 90
        3
 70
     0
 43
2.0
 10
423.3971107147863
 20
742.8712530521539
 10
318.5422406037846
 20
742.8712530521539
 10
318.5422406037846
 20
873.3586543073711
  0
INSERT
  5
50C4
330
18
100
AcDbEntity
  8
INSULATION
 48
5.0
100
AcDbBlockReference
  2
DAEMM
 10
445.8148620372943
 20
747.8738764325944
 30
0.0
 41
15.17046565179058
 42
13.8007010066296
 43
15.17046565179058
  0
INSERT
  5
50C5
330
18
100
AcDbEntity
  8
INSULATION
  6
VERDECKT
 48
3.0
100
AcDbBlockReference
  2
DAEMM
 10
506.4967246444567
 20
747.8738764325944
 30
0.0
 41
15.17046565179058
 42
13.8007010066296
 43
15.17046565179058
  0
INSERT
  5
50C6
330
18
100
AcDbEntity
  8
INSULATION
 48
5.0
100
AcDbBlockReference
  2
DAEMM
 10
567.178587251619
 20
747.8738764325944
 30
0.0
 41
15.17046565179058
 42
13.8007010066296
 43
15.17046565179058
  0
INSERT
  5
50C9
330
18
100
AcDbEntity
  8
INSULATION
 48
5.0
100
AcDbBlockReference
  2
DAEMM
 10
749.224175073106
 20
747.8738764325944
 30
0.0
 41
15.17046565179058
 42
13.8007010066296
 43
15.17046565179058
  0
INSERT
  5
50CA
330
18
100
AcDbEntity
  8
INSULATION
 48
5.0
100
AcDbBlockReference
  2
DAEMM
 10
809.9060376802682
 20
747.8738764325944
 30
0.0
 41
15.17046565179058
 42
13.8007010066296
 43
15.17046565179058
  0
LWPOLYLINE
  5
50CC
330
18
100
AcDbEntity
  8
V35
100
AcDbPolyline
 90
        2
 70
     1
 43
2.9
 10
388.2521166571952
 20
941.5807348060688
 42
1.0
 10
391.3521166571951
 20
941.5807348060688
 42
1.0
  0
LINE
  5
50CD
330
18
100
AcDbEntity
  8
TXT-D
 48
5.0
100
AcDbLine
 10
389.8896509893086
 20
941.0326475434558
 30
0.0
 11
389.8896509893087
 21
1101.089445146698
 31
0.0
  0
TEXT
  5
50CF
330
18
100
AcDbEntity
  8
TXT-D
 62
     7
100
AcDbText
 10
524.7236532602813
 20
1072.064907646677
 30
0.0
 40
14.0
  1
alternativa: Al klipsa s termopodložkou
  7
ROMANS
100
AcDbText
  0
ELLIPSE
  5
50D7
330
18
100
AcDbEntity
  8
INSULATION
  6
VERDECKT
 48
3.0
100
AcDbEllipse
 10
385.1329994301319
 20
775.475278445854
 30
0.0
 11
30.34093130358165
 21
0.0000000000002242
 31
0.0
210
0.0
220
0.0
230
1.0
 40
0.9097084640246816
 41
4.712388980384687
 42
5.498400106183455
  0
LINE
  5
50D8
330
18
100
AcDbEntity
  8
INSULATION
100
AcDbLine
 10
413.4971256952319
 20
785.2751845420185
 30
0.0
 11
410.7225065270019
 21
791.9211082104118
 31
0.0
  0
ELLIPSE
  5
50D9
330
18
100
AcDbEntity
  8
INSULATION
100
AcDbEllipse
 10
415.4739307337131
 20
858.2794844856307
 30
0.0
 11
-30.34093130358151
 21
0.0000000000000019
 31
0.0
210
0.0
220
0.0
230
1.0
 40
0.9097084640246817
 41
2.778624004984154
 42
5.516807894058273
  0
LINE
  5
50DA
330
18
100
AcDbEntity
  8
INSULATION
100
AcDbLine
 10
443.838056998813
 20
848.4795783894664
 30
0.0
 11
417.4507357721944
 21
785.2751845420185
 31
0.0
  0
ELLIPSE
  5
50DB
330
18
100
AcDbEntity
  8
INSULATION
100
AcDbEllipse
 10
445.8148620372944
 20
775.475278445854
 30
0.0
 11
-30.34093130358165
 21
0.0000000000001838
 31
0.0
210
0.0
220
0.0
230
1.0
 40
0.9097084640246816
 41
-0.3629686486056391
 42
1.570796326794897
  0
ELLIPSE
  5
50DC
330
18
100
AcDbEntity
  8
INSULATION
100
AcDbEllipse
 10
324.4511368229695
 20
775.475278445854
 30
0.0
 11
30.34093130358165
 21
0.0000000000002242
 31
0.0
210
0.0
220
0.0
230
1.0
 40
0.9097084640246816
 41
4.712388980384687
 42
6.646153955785219
  0
LINE
  5
50DD
330
18
100
AcDbEntity
  8
INSULATION
100
AcDbLine
 10
352.8152630880695
 20
785.2751845420185
 30
0.0
 11
326.4279418614508
 21
848.4795783894664
 31
0.0
  0
ELLIPSE
  5
50DE
330
18
100
AcDbEntity
  8
INSULATION
100
AcDbEllipse
 10
354.7920681265507
 20
858.2794844856307
 30
0.0
 11
-30.34093130358151
 21
0.0000000000000019
 31
0.0
210
0.0
220
0.0
230
1.0
 40
0.9097084640246817
 41
2.778624004984154
 42
6.646153955785225
  0
LINE
  5
50DF
330
18
100
AcDbEntity
  8
INSULATION
100
AcDbLine
 10
383.1561943916507
 20
848.4795783894664
 30
0.0
 11
356.768873165032
 21
785.2751845420185
 31
0.0
  0
ELLIPSE
  5
50E0
330
18
100
AcDbEntity
  8
INSULATION
100
AcDbEllipse
 10
385.1329994301321
 20
775.475278445854
 30
0.0
 11
-30.34093130358169
 21
0.0000000000004869
 31
0.0
210
0.0
220
0.0
230
1.0
 40
0.9097084640246805
 41
-0.3629686486056283
 42
0.7410046748654043
  0
ELLIPSE
  5
50E1
330
18
100
AcDbEntity
  8
INSULATION
  6
VERDECKT
 48
3.0
100
AcDbEllipse
 10
688.5423124659435
 20
775.475278445854
 30
0.0
 11
30.34093130358165
 21
0.0000000000002242
 31
0.0
210
0.0
220
0.0
230
1.0
 40
0.9097084640246816
 41
4.712388980384687
 42
6.646153955785219
  0
LINE
  5
50E2
330
18
100
AcDbEntity
  8
INSULATION
  6
VERDECKT
 48
3.0
100
AcDbLine
 10
716.9064387310436
 20
785.2751845420185
 30
0.0
 11
690.519117504425
 21
848.4795783894664
 31
0.0
  0
ELLIPSE
  5
50E3
330
18
100
AcDbEntity
  8
INSULATION
100
AcDbEllipse
 10
718.8832437695249
 20
858.2794844856307
 30
0.0
 11
30.34093130358145
 21
0.0000000000008373
 31
0.0
210
0.0
220
0.0
230
1.0
 40
0.9097084640246837
 41
-0.3629686486056689
 42
2.059500668782493
  0
LINE
  5
50E4
330
18
100
AcDbEntity
  8
INSULATION
100
AcDbLine
 10
747.2473700346247
 20
848.4795783894664
 30
0.0
 11
720.8600488080061
 21
785.2751845420185
 31
0.0
  0
ELLIPSE
  5
50E5
330
18
100
AcDbEntity
  8
INSULATION
100
AcDbEllipse
 10
749.2241750731061
 20
775.475278445854
 30
0.0
 11
-30.34093130358169
 21
0.0000000000004869
 31
0.0
210
0.0
220
0.0
230
1.0
 40
0.9097084640246805
 41
-0.3629686486056283
 42
1.570796326794906
  0
ELLIPSE
  5
50E6
330
18
100
AcDbEntity
  8
INSULATION
100
AcDbEllipse
 10
627.8604498587813
 20
775.475278445854
 30
0.0
 11
30.34093130358165
 21
0.0000000000002242
 31
0.0
210
0.0
220
0.0
230
1.0
 40
0.9097084640246816
 41
4.712388980384687
 42
6.646153955785219
  0
LINE
  5
50E7
330
18
100
AcDbEntity
  8
INSULATION
100
AcDbLine
 10
656.2245761238813
 20
785.2751845420185
 30
0.0
 11
629.8372548972626
 21
848.4795783894664
 31
0.0
  0
ELLIPSE
  5
50E8
330
18
100
AcDbEntity
  8
INSULATION
100
AcDbEllipse
 10
658.2013811623625
 20
858.2794844856307
 30
0.0
 11
30.34093130358145
 21
0.0000000000008373
 31
0.0
210
0.0
220
0.0
230
1.0
 40
0.9097084640246837
 41
-0.3629686486056689
 42
3.504561302195401
  0
LINE
  5
50E9
330
18
100
AcDbEntity
  8
INSULATION
100
AcDbLine
 10
686.5655074274624
 20
848.4795783894664
 30
0.0
 11
660.1781862008437
 21
785.2751845420185
 31
0.0
  0
ELLIPSE
  5
50EA
330
18
100
AcDbEntity
  8
INSULATION
100
AcDbEllipse
 10
688.5423124659438
 20
775.475278445854
 30
0.0
 11
-30.34093130358169
 21
0.0000000000004869
 31
0.0
210
0.0
220
0.0
230
1.0
 40
0.9097084640246805
 41
-0.3629686486056283
 42
0.8596840701578754
  0
ELLIPSE
  5
50EB
330
18
100
AcDbEntity
  8
INSULATION
  6
VERDECKT
 48
3.0
100
AcDbEllipse
 10
385.1329994301321
 20
775.475278445854
 30
0.0
 11
-30.34093130358169
 21
0.0000000000004869
 31
0.0
210
0.0
220
0.0
230
1.0
 40
0.9097084640246805
 41
0.8628874431002284
 42
1.570796326794906
  0
LINE
  5
50EC
330
18
100
AcDbEntity
  8
INSULATION
  6
VERDECKT
 48
3.0
100
AcDbLine
 10
406.2015140023395
 20
802.7500434272946
 30
0.0
 11
387.1098044686132
 21
848.4795783894664
 31
0.0
  0
ELLIPSE
  5
50ED
330
18
100
AcDbEntity
  8
INSULATION
100
AcDbEllipse
 10
385.1329994301319
 20
775.475278445854
 30
0.0
 11
30.34093130358165
 21
0.0000000000002242
 31
0.0
210
0.0
220
0.0
230
1.0
 40
0.9097084640246816
 41
5.628914400713899
 42
6.646153955785219
  0
ELLIPSE
  5
50EE
330
18
100
AcDbEntity
  8
INSULATION
  6
VERDECKT
 48
3.0
100
AcDbEllipse
 10
415.4739307337131
 20
858.2794844856307
 30
0.0
 11
-30.34093130358151
 21
0.0000000000000019
 31
0.0
210
0.0
220
0.0
230
1.0
 40
0.9097084640246817
 41
5.652175837543185
 42
6.646153955785225
  0
ELLIPSE
  5
50EF
330
18
100
AcDbEntity
  8
INSULATION
  6
VERDECKT
 48
3.0
100
AcDbEllipse
 10
718.8832437695249
 20
858.2794844856307
 30
0.0
 11
30.34093130358145
 21
0.0000000000008373
 31
0.0
210
0.0
220
0.0
230
1.0
 40
0.9097084640246837
 41
2.275124577868348
 42
3.504561302195401
  0
ELLIPSE
  5
50F0
330
18
100
AcDbEntity
  8
INSULATION
  6
VERDECKT
 48
3.0
100
AcDbEllipse
 10
688.5423124659438
 20
775.475278445854
 30
0.0
 11
-30.34093130358169
 21
0.0000000000004869
 31
0.0
210
0.0
220
0.0
230
1.0
 40
0.9097084640246805
 41
0.9662291561872573
 42
1.570796326794906
  0
TEXT
  5
5161
330
18
100
AcDbEntity
  8
TXT-D
 62
     7
100
AcDbText
 10
24.47448649402537
 20
618.9084306876873
 30
0.0
 40
14.0
  1
oplechování
  7
ROMANS
100
AcDbText
  0
VIEWPORT
  5
2106
330
2105
100
AcDbEntity
 67
     1
  8
0
100
AcDbViewport
 10
323.1167143813216
 20
139.0786369548254
 30
0.0
 40
1034.42403760915
 41
401.7878694342878
 68
     1
 69
     1
 12
323.1167143813216
 22
139.0786369548254
 13
0.0
 23
0.0
 14
10.0
 24
10.0
 15
10.0
 25
10.0
 16
0.0
 26
0.0
 36
1.0
 17
0.0
 27
0.0
 37
0.0
 42
50.0
 43
0.0
 44
0.0
 45
401.7878694342878
 50
0.0
 51
0.0
 72
   100
 90
    32800
  1

281
     0
 71
     1
 74
     0
110
0.0
120
0.0
130
0.0
111
1.0
121
0.0
131
0.0
112
0.0
122
1.0
132
0.0
 79
     0
146
0.0
170
     0
  0
LINE
  5
2107
330
2105
100
AcDbEntity
 67
     1
  8
V5
 62
     1
100
AcDbLine
 10
6.703993716677643
 20
270.0663649349316
 30
0.0
 11
195.3571025992262
 21
270.0663649349316
 31
0.0
  0
LINE
  5
2108
330
2105
100
AcDbEntity
 67
     1
  8
V5
 62
     1
100
AcDbLine
 10
6.703993716677643
 20
20.03769334085069
 30
0.0
 11
195.3571025992261
 21
20.03769334085069
 31
0.0
  0
TEXT
  5
210A
330
2105
100
AcDbEntity
 67
     1
  8
0
 62
     7
100
AcDbText
 10
6.703993716677643
 20
273.0276699878348
 30
0.0
 40
2.585627078393893
  1
Štít s částečným profilem Kalzip 
  7
Stil1
100
AcDbText
  0
TEXT
  5
210B
330
2105
100
AcDbEntity
 67
     1
  8
0
 62
     7
100
AcDbText
 10
6.703993716677643
 20
277.6427615215756
 30
0.0
 40
2.585627078393893
  1
Detail - Vazníková střecha
  7
Stil1
100
AcDbText
  0
LWPOLYLINE
  5
210C
102
{ACAD_REACTORS
330
210D
102
}
330
2105
100
AcDbEntity
 67
     1
  8
0
 62
     1
100
AcDbPolyline
 90
        7
 70
     1
 43
0.0
 10
170.4677456996693
 20
12.63776080342012
 10
169.5305623613118
 20
12.63776080342012
 10
169.5305623613119
 20
6.734358271736043
 42
0.3265321329225733
 10
170.6743697367195
 20
5.70730316541911
 10
171.3494243836386
 20
5.707308068730622
 10
171.3494243836386
 20
6.444913155378106
 42
-0.4142135623730951
 10
170.4677456996693
 20
7.326591839347472
  0
HATCH
  5
210D
330
2105
100
AcDbEntity
 67
     1
  8
0
 62
     1
100
AcDbHatch
 10
0.0
 20
0.0
 30
0.0
210
0.0
220
0.0
230
1.0
  2
SOLID
 70
     1
 71
     1
 91
        5
 92
        7
 72
     1
 73
     1
 93
       12
 10
156.3464674905753
 20
14.89694922096763
 42
0.2659775848638656
 10
155.8651703086714
 20
14.05618615838462
 42
0.0
 10
155.8651703086714
 20
3.617657989685739
 42
0.4142135623731021
 10
156.8401703086714
 20
2.642657989685744
 42
0.0
 10
171.2051703086715
 20
2.642657989685745
 42
0.0
 10
171.2051703086714
 20
3.097657989685743
 42
0.0
 10
156.8401703086714
 20
3.097657989685743
 42
-0.4142135623730816
 10
156.3201703086714
 20
3.617657989685748
 42
0.0
 10
156.3201703086714
 20
14.05618615838461
 42
-0.2659775848638894
 10
156.5768621390202
 20
14.50459312509557
 42
-0.2516648824931138
 10
171.1059497407555
 20
15.05508074642154
 42
0.0
 10
171.305994780026
 20
15.46374562411875
 42
0.2516648824931148
 97
        1
330
210E
 92
       23
 72
     0
 73
     1
 93
       12
 10
160.0345399360571
 20
12.41897150711669
 10
159.0059834045405
 20
12.41897150711669
 10
159.0059834045405
 20
5.707406646944892
 10
160.0345399360571
 20
5.707406646944892
 10
160.0345399360571
 20
7.607080171612804
 10
160.8385798030196
 20
8.678332632823764
 10
162.7857286040134
 20
5.707406646944896
 10
163.9232119282562
 20
5.70740664694489
 10
161.4710555024882
 20
9.521003721101143
 10
163.6461558803167
 20
12.41897150711669
 10
162.4967321489943
 20
12.41897150711669
 10
160.0345399360571
 20
8.991742055666053
 97
        1
330
210F
 92
       23
 72
     1
 73
     1
 93
       18
 10
164.4700372096952
 20
10.23961706042952
 42
0.0
 10
164.8536562507456
 20
9.541100142545243
 42
-0.125089082906134
 10
166.1764313965473
 20
9.896315450135563
 42
-0.2678367822511334
 10
166.9770350102184
 20
9.489295003113456
 42
-0.1602289575784415
 10
167.1007092518527
 20
8.957038322130811
 42
-0.4569276421982519
 10
166.9992728062643
 20
8.87707596321626
 42
0.0541248642832566
 10
166.1801208870098
 20
8.87465310032838
 42
0.1876748474912706
 10
164.5473108086486
 20
8.053594607004125
 42
0.1827818212654542
 10
164.2554792626758
 20
6.861926575029807
 42
0.3920539506815877
 10
165.4179705010726
 20
5.710316639618223
 42
0.0
 10
166.1412295778804
 20
5.710316639618223
 42
0.1547524270167677
 10
167.0950864485441
 20
6.015676490084731
 42
-0.3793030021022749
 10
167.3758372082912
 20
6.049341431860516
 42
0.2176802859589672
 10
168.4740029181432
 20
5.700801680734325
 42
0.6162695522438762
 10
168.5615787757366
 20
5.988683940490737
 42
-0.2171983840453288
 10
168.1125736908251
 20
7.007375237320943
 42
0.0
 10
168.1125736908251
 20
9.072944898722395
 42
0.2771818233459465
 10
167.1210032295033
 20
10.60509243797142
 42
0.2393084470231861
 97
        1
330
2111
 92
       22
 72
     1
 73
     1
 93
        8
 10
166.203911055979
 20
8.181566853410675
 42
0.0
 10
166.9659117944846
 20
8.181566853410675
 42
-0.4387538430829223
 10
167.1819722592392
 20
7.951713556446768
 42
0.0
 10
167.1819722592394
 20
7.203942434941795
 42
-0.2149773677828588
 10
166.9574949112071
 20
6.675082406628293
 42
-0.2311376311760497
 10
165.7274814031318
 20
6.327851333195364
 42
-0.2451258193605041
 10
165.1935029952948
 20
6.729499610924346
 42
-0.1420187448230565
 10
165.2074413274432
 20
7.550617961830784
 42
-0.2899718709828813
 97
        1
330
2110
 92
        7
 72
     1
 73
     1
 93
        7
 10
170.4677456996692
 20
12.63776080342012
 42
0.0
 10
169.5305623613118
 20
12.63776080342012
 42
0.0
 10
169.5305623613119
 20
6.734358271736073
 42
0.3265321329225785
 10
170.6743697367195
 20
5.70730316541911
 42
0.0
 10
171.3494243836386
 20
5.707308068730622
 42
0.0
 10
171.3494243836386
 20
6.444913155378106
 42
-0.4142135623730958
 10
170.4677456996693
 20
7.326591839347473
 42
0.0
 97
        1
330
210C
 75
     0
 76
     1
 47
0.2105755737740495
 98
        5
 10
168.6116339460508
 20
16.30532310860333
 10
159.5711898770211
 20
11.21360576732915
 10
166.1460583471306
 20
10.33761137006547
 10
166.1460583471306
 20
10.33761137006547
 10
170.118374675803
 20
8.339249177091296
450
        0
451
        0
460
0.0
461
0.0
452
        0
462
0.0
453
        0
470

  0
LWPOLYLINE
  5
210E
102
{ACAD_REACTORS
330
210D
102
}
330
2105
100
AcDbEntity
 67
     1
  8
0
 62
     1
100
AcDbPolyline
 90
       12
 70
     1
 43
0.0
 10
156.8401703086714
 20
2.642657989685744
 42
-0.4142135623730951
 10
155.8651703086714
 20
3.617657989685744
 10
155.8651703086714
 20
14.05618615838464
 42
-0.2659775848638765
 10
156.3464674905754
 20
14.89694922096765
 42
-0.2516648824931137
 10
171.305994780026
 20
15.46374562411874
 10
171.1059497407555
 20
15.05508074642154
 42
0.2516648824931138
 10
156.5768621390202
 20
14.50459312509557
 42
0.2659775848638775
 10
156.3201703086714
 20
14.05618615838464
 10
156.3201703086714
 20
3.617657989685744
 42
0.4142135623730951
 10
156.8401703086714
 20
3.097657989685743
 10
171.2051703086714
 20
3.097657989685743
 10
171.2051703086714
 20
2.642657989685744
  0
LWPOLYLINE
  5
210F
102
{ACAD_REACTORS
330
210D
102
}
330
2105
100
AcDbEntity
 67
     1
  8
0
 62
     1
100
AcDbPolyline
 90
       13
 70
     0
 43
0.0
 10
160.0345399360571
 20
8.991742055666069
 10
160.0345399360571
 20
12.41897150711669
 10
159.0059834045404
 20
12.41897150711669
 10
159.0059834045404
 20
5.707406646944892
 10
160.0345399360571
 20
5.707406646944892
 10
160.0345399360571
 20
7.6070801716128
 10
160.8385798030197
 20
8.678332632823778
 10
162.7857286040134
 20
5.707406646944896
 10
163.9232119282561
 20
5.707406646944889
 10
161.4710555024882
 20
9.521003721101163
 10
163.6461558803167
 20
12.41897150711669
 10
162.4967321489943
 20
12.41897150711668
 10
160.0232627037426
 20
8.976044799165943
  0
LWPOLYLINE
  5
2110
102
{ACAD_REACTORS
330
210D
102
}
330
2105
100
AcDbEntity
 67
     1
  8
0
 62
     1
100
AcDbPolyline
 90
        8
 70
     1
 43
0.0
 10
165.727481403132
 20
6.327851333195315
 42
-0.2451258193606399
 10
165.1935029952948
 20
6.729499610924428
 42
-0.1420187448230164
 10
165.2074413274432
 20
7.550617961830644
 42
-0.2899718709829171
 10
166.203911055979
 20
8.181566853410675
 10
166.9704579831368
 20
8.181566853410675
 42
-0.3900918559591556
 10
167.1819722592392
 20
7.982744937864822
 10
167.1819722592394
 20
7.173048935136726
 42
-0.2034436104283782
 10
166.9574949112069
 20
6.675082406628096
 42
-0.2311376311759479
  0
LWPOLYLINE
  5
2111
102
{ACAD_REACTORS
330
210D
102
}
330
2105
100
AcDbEntity
 67
     1
  8
0
 62
     1
100
AcDbPolyline
 90
       18
 70
     1
 43
0.0
 10
167.1007092518527
 20
8.957038322131019
 42
0.1602289575782981
 10
166.9770350102185
 20
9.48929500311322
 42
0.2678367822512051
 10
166.1764313965473
 20
9.896315450135563
 42
0.1250890829061368
 10
164.8536562507456
 20
9.541100142545236
 10
164.4700372096952
 20
10.23961706042952
 42
-0.2393084470231862
 10
167.1210032295033
 20
10.60509243797143
 42
-0.2771818233458632
 10
168.1125736908251
 20
9.072944898722962
 10
168.1125736908251
 20
6.97355132321682
 42
0.2106080285028759
 10
168.5615787757363
 20
5.988683940490972
 42
-0.655875337136226
 10
168.4551400230725
 20
5.698632480071225
 42
-0.2140955845208337
 10
167.3758372082913
 20
6.049341431860447
 42
0.3793030021024653
 10
167.0950864485441
 20
6.015676490084718
 42
-0.1547524270167758
 10
166.1412295778803
 20
5.710316639618223
 10
165.4179705010726
 20
5.710316639618223
 42
-0.3920539506815679
 10
164.2554792626758
 20
6.86192657502975
 42
-0.1827818212654531
 10
164.5473108086485
 20
8.053594607004075
 42
-0.1876748474912757
 10
166.1801208870098
 20
8.874653100328377
 42
-0.0541248642832585
 10
166.9992728062643
 20
8.87707596321626
 42
0.4569276421989473
  0
HATCH
  5
2112
330
2105
100
AcDbEntity
 67
     1
  8
0
 62
     1
100
AcDbHatch
 10
0.0
 20
0.0
 30
0.0
210
0.0
220
0.0
230
1.0
  2
SOLID
 70
     1
 71
     1
 91
        9
 92
       23
 72
     1
 73
     1
 93
       12
 10
171.8908858842419
 20
10.77490737173337
 42
0.0
 10
171.890885884242
 20
9.815300931198191
 42
0.0
 10
174.4128204368067
 20
9.815300931198191
 42
-0.7299518516212804
 10
174.4873259824473
 20
9.676068307280827
 42
0.0
 10
171.8169922913236
 20
6.020268981102183
 42
0.50718022741599
 10
171.9697485045201
 20
5.707312574502982
 42
0.0
 10
176.1255657939197
 20
5.707342760602259
 42
0.0
 10
176.1255657939197
 20
6.670566757922292
 42
0.0
 10
173.543764448377
 20
6.670566757922292
 42
-0.6989832493953289
 10
173.5083136547038
 20
6.747219420546859
 42
0.0
 10
176.0792849517381
 20
10.30088496212109
 42
0.0
 10
176.079284951738
 20
10.77490737173337
 42
0.0
 97
        1
330
2114
 92
       23
 72
     0
 73
     1
 93
        6
 10
178.2921440989943
 20
10.76669905952824
 10
176.5681893018727
 20
10.76669905952825
 10
176.5681893018727
 20
9.838115706771706
 10
177.2159044314413
 20
9.838115706771711
 10
177.2159044314413
 20
5.707350680361073
 10
178.2921440989943
 20
5.707358497710934
 97
        1
330
2115
 92
       23
 72
     1
 73
     1
 93
       12
 10
179.51773749452
 20
3.799755387185154
 42
0.0
 10
180.6747539757431
 20
3.799755387185154
 42
0.0
 10
180.674753975743
 20
5.717742550126925
 42
-0.5640200146066899
 10
180.7896625441664
 20
5.804282531762956
 42
0.1631429899295819
 10
182.5120018826798
 20
5.705950674351199
 42
0.2143211476369445
 10
183.8573053258582
 20
7.118160369269403
 42
0.1454787830754844
 10
183.8927056711252
 20
9.452852759694209
 42
0.2090289610022575
 10
182.7435295731329
 20
10.71591071200417
 42
0.2333951007067763
 10
180.7796676223216
 20
10.64075346765236
 42
0.0
 10
180.6524573319572
 20
10.64075346765235
 42
0.0
 10
180.6524573319572
 20
10.77826047763267
 42
0.0
 10
179.51773749452
 20
10.77826047763267
 42
0.0
 97
        1
330
2118
 92
       22
 72
     1
 73
     1
 93
        7
 10
180.6524573319572
 20
9.649303832430231
 42
-0.2989352106795097
 10
182.363922395637
 20
9.813694992411338
 42
-0.1898212309736138
 10
182.937761277829
 20
8.933127238281548
 42
-0.0659282931228529
 10
182.9382694878724
 20
7.566155516116743
 42
-0.1241286129051029
 10
182.5913009427372
 20
6.9662939946905
 42
-0.0600684322457551
 10
182.2008715780786
 20
6.666462805026003
 42
-0.2741033349168765
 10
180.6524573319572
 20
6.737411717605815
 42
0.0
 97
        1
330
2117
 92
        7
 72
     1
 73
     1
 93
       14
 10
186.0939696331581
 20
13.30265798968574
 42
0.0
 10
183.4251703086687
 20
13.30265798968571
 42
-0.0829624126767163
 10
171.9315996848019
 20
15.15561449868119
 42
0.0
 10
171.7861472595918
 20
14.72448970004339
 42
0.0829624126767251
 10
183.4277657357725
 20
12.84766539220951
 42
0.0
 10
186.0901703086715
 20
12.84766539220951
 42
-0.414213562373081
 10
186.6101703086714
 20
12.32766539220951
 42
0.0
 10
186.6101703086714
 20
3.617657989685748
 42
-0.4142135623730816
 10
186.0901703086715
 20
3.097657989685743
 42
0.0
 10
171.8551703086714
 20
3.097657989685743
 42
0.0
 10
171.8551703086714
 20
2.642657989685744
 42
0.0
 10
186.0901703086714
 20
2.642657989685744
 42
0.4142135623730996
 10
187.0651703086714
 20
3.617657989685759
 42
0.0
 10
187.0651703086714
 20
12.32766539220952
 42
0.4130726898721656
 97
        1
330
2113
 92
        7
 72
     1
 73
     1
 93
        2
 10
188.5562462468801
 20
14.48202895398631
 42
1.0
 10
186.8922860442322
 20
14.48202895398631
 42
1.0
 97
        1
330
2119
 92
       22
 72
     1
 73
     1
 93
        2
 10
187.0312439029755
 20
14.48202895398631
 42
-1.0
 10
188.4172883881367
 20
14.48202895398631
 42
-1.0
 97
        1
330
211A
 92
        6
 72
     1
 73
     1
 93
       16
 10
187.4147161756227
 20
14.04344269414789
 42
0.0
 10
187.4147161756227
 20
14.87685082043883
 42
-0.4302925980955889
 10
187.4857604627371
 20
14.95062377538656
 42
0.0
 10
187.7516923904778
 20
14.95062377538655
 42
-0.1568897140508004
 10
188.0262152539065
 20
14.8834518751411
 42
-0.2411188226969702
 10
188.1008082257039
 20
14.77693979931692
 42
0.0
 10
188.1008082257039
 20
14.54460919492266
 42
-0.108022292716617
 10
188.0467470382031
 20
14.42411548719077
 42
-0.0878146924641597
 10
188.1008082257039
 20
14.29185258888383
 42
0.0
 10
188.1008082257039
 20
14.043442694148
 42
0.0
 10
187.9598936880826
 20
14.04344269414801
 42
0.0
 10
187.9598936880826
 20
14.20746020516914
 42
0.3344300509710908
 10
187.8072164772984
 20
14.34121969975355
 42
0.0
 10
187.6765379953518
 20
14.34121969975355
 42
0.33200365023858
 10
187.5741113512689
 20
14.2209106453635
 42
0.0
 10
187.5741113512689
 20
14.04344269414801
 42
0.0
 97
        1
330
211D
 92
        6
 72
     1
 73
     1
 93
       10
 10
187.598594894158
 20
14.60574623298982
 42
0.0
 10
187.5985948941579
 20
14.70635490265327
 42
-0.4700313181861818
 10
187.676433508506
 20
14.78863575978702
 42
0.0
 10
187.8184131695166
 20
14.78863575978702
 42
-0.2024912017596684
 10
187.9005238078028
 20
14.72920109052658
 42
-0.1629090778538176
 10
187.9186956751402
 20
14.66258826751202
 42
0.0
 10
187.9186956751402
 20
14.57619629999126
 42
-0.2807969913979313
 10
187.8975189938926
 20
14.54091967679401
 42
-0.141313362400572
 10
187.8171334514133
 20
14.51927846821619
 42
0.0
 10
187.6886076531863
 20
14.51927846821619
 42
-0.4644547038390189
 97
        1
330
211B
 75
     0
 76
     1
 47
0.2105755736759934
 98
        9
 10
174.9708984761404
 20
10.2800670495476
 10
177.8200081155729
 20
9.705195731500037
 10
180.0938167716078
 20
9.842069878418275
 10
180.0938167716078
 20
9.842069878418275
 10
186.7508710743824
 20
12.79855093480507
 10
187.38096261289
 20
13.78404458359732
 10
187.38096261289
 20
13.78404458359732
 10
187.38096261289
 20
13.78404458359732
 10
187.38096261289
 20
13.78404458359732
450
        0
451
        0
460
0.0
461
0.0
452
        0
462
0.0
453
        0
470

  0
LWPOLYLINE
  5
2113
102
{ACAD_REACTORS
330
2112
102
}
330
2105
100
AcDbEntity
 67
     1
  8
0
 62
     1
100
AcDbPolyline
 90
       15
 70
     0
 43
0.0
 10
186.0901703086714
 20
13.30266539220951
 42
-0.4142135623730951
 10
187.0651703086714
 20
12.32766539220951
 10
187.0651703086714
 20
3.617657989685744
 42
-0.4142135623730951
 10
186.0901703086714
 20
2.642657989685744
 10
171.8551703086714
 20
2.642657989685744
 10
171.8551703086714
 20
3.097657989685743
 10
186.0901703086714
 20
3.097657989685743
 42
0.4142135623730951
 10
186.6101703086714
 20
3.617657989685744
 10
186.6101703086714
 20
12.32766539220951
 42
0.4142135623730951
 10
186.0901703086714
 20
12.84766539220951
 10
183.427765735774
 20
12.84766539220951
 42
-0.0829624126767354
 10
171.7861472595918
 20
14.72448970004339
 10
171.9315996848019
 20
15.15561449868119
 42
0.0829624126767356
 10
183.4251703086714
 20
13.30265798968572
 10
186.0939696331581
 20
13.30265798968574
  0
LWPOLYLINE
  5
2114
102
{ACAD_REACTORS
330
2112
102
}
330
2105
100
AcDbEntity
 67
     1
  8
0
 62
     1
100
AcDbPolyline
 90
       13
 70
     0
 43
0.0
 10
173.5363557358466
 20
6.670566757922292
 10
176.1255657939198
 20
6.670566757922292
 10
176.1255657939198
 20
5.707342760602259
 10
171.9697485045201
 20
5.707312574502982
 42
-0.5071802274160878
 10
171.8169922913236
 20
6.020268981102255
 10
174.5008649608893
 20
9.694603739174606
 42
0.5083225216873333
 10
174.4427714370007
 20
9.815300931198191
 10
171.890885884242
 20
9.815300931198191
 10
171.890885884242
 20
10.77490737173337
 10
176.0792849517381
 20
10.77490737173337
 10
176.0792849517381
 20
10.30088496212111
 10
173.4998849101563
 20
6.735568983573102
 42
0.5855768765223777
 10
173.543764448377
 20
6.670566757922292
  0
LWPOLYLINE
  5
2115
102
{ACAD_REACTORS
330
2112
102
}
330
2105
100
AcDbEntity
 67
     1
  8
0
 62
     1
100
AcDbPolyline
 90
        6
 70
     1
 43
0.0
 10
176.5681893018727
 20
9.838115706771706
 10
176.5681893018727
 20
10.76669905952824
 10
178.2921440989943
 20
10.76669905952824
 10
178.2921440989943
 20
5.707358497710934
 10
177.2159044314413
 20
5.707350680361074
 10
177.2159044314413
 20
9.838115706771713
  0
LWPOLYLINE
  5
2116
330
2105
100
AcDbEntity
 67
     1
  8
0
 62
     1
100
AcDbPolyline
 90
        2
 70
     1
 43
0.5199938194713205
 10
177.4940337513765
 20
12.09962512678654
 42
1.0
 10
178.0140275708478
 20
12.09962512678654
 42
1.0
  0
LWPOLYLINE
  5
2117
102
{ACAD_REACTORS
330
2112
102
}
330
2105
100
AcDbEntity
 67
     1
  8
0
 62
     1
100
AcDbPolyline
 90
        7
 70
     1
 43
0.0
 10
182.9377612778289
 20
8.933127238281983
 42
0.1898212309735227
 10
182.363922395637
 20
9.813694992411306
 42
0.2989352106795207
 10
180.6524573319572
 20
9.649303832430234
 10
180.6524573319572
 20
6.737411717605818
 42
0.2741033349168594
 10
182.2008715780785
 20
6.666462805025961
 42
0.0600684322456349
 10
182.5913009427365
 20
6.96629399468974
 42
0.1241286129052769
 10
182.9382694878724
 20
7.566155516116644
 42
0.0659282931228788
  0
LWPOLYLINE
  5
2118
102
{ACAD_REACTORS
330
2112
102
}
330
2105
100
AcDbEntity
 67
     1
  8
0
 62
     1
100
AcDbPolyline
 90
       12
 70
     1
 43
0.0
 10
180.6524573319572
 20
10.64075346765235
 10
180.6524573319572
 20
10.77826047763267
 10
179.51773749452
 20
10.77826047763267
 10
179.51773749452
 20
3.799755387185154
 10
180.674753975743
 20
3.799755387185154
 10
180.674753975743
 20
5.734822214632103
 42
-0.4980732597277929
 10
180.7894922542756
 20
5.80435064655672
 42
0.1631603344019285
 10
182.5120018826798
 20
5.70595067435121
 42
0.2143211476370474
 10
183.8573053258585
 20
7.118160369270324
 42
0.1454787830754339
 10
183.8927056711252
 20
9.452852759694359
 42
0.209028960994081
 10
182.7435295731937
 20
10.71591071197696
 42
0.2333951007146881
 10
180.7796676223216
 20
10.64075346765236
  0
CIRCLE
  5
2119
102
{ACAD_REACTORS
330
2112
102
}
330
2105
100
AcDbEntity
 67
     1
  8
0
 62
     1
100
AcDbCircle
 10
187.7242661455561
 20
14.48202895398631
 30
0.0
 40
0.8319801013239141
  0
CIRCLE
  5
211A
102
{ACAD_REACTORS
330
2112
102
}
330
2105
100
AcDbEntity
 67
     1
  8
0
 62
     1
100
AcDbCircle
 10
187.7242661455561
 20
14.48202895398631
 30
0.0
 40
0.6930222425806165
  0
LWPOLYLINE
  5
211B
102
{ACAD_REACTORS
330
2112
102
}
330
2105
100
AcDbEntity
 67
     1
  8
0
 62
     1
100
AcDbPolyline
 90
       10
 70
     1
 43
0.0
 10
187.9005238078026
 20
14.72920109052687
 42
0.2024912017590097
 10
187.8184131695166
 20
14.78863575978702
 10
187.6667845987138
 20
14.78863575978702
 42
0.3605152320615398
 10
187.5985948941579
 20
14.72412753393324
 10
187.598594894158
 20
14.5952765909802
 42
0.3656960469701174
 10
187.6715999644762
 20
14.51927846821619
 10
187.8224763905955
 20
14.51927846821619
 42
0.143350963341212
 10
187.9030430393933
 20
14.54442567510559
 42
0.2365834905846161
 10
187.9186956751402
 20
14.57619629999332
 10
187.9186956751402
 20
14.67490823679983
 42
0.133951748517549
  0
HATCH
  5
211C
330
2105
100
AcDbEntity
 67
     1
  8
0
 62
     1
100
AcDbHatch
 10
0.0
 20
0.0
 30
0.0
210
0.0
220
0.0
230
1.0
  2
SOLID
 70
     1
 71
     0
 91
        2
 92
        7
 72
     1
 73
     1
 93
       16
 10
187.9598936880826
 20
14.20746020516914
 42
0.0
 10
187.9598936880826
 20
14.04344269414801
 42
0.0
 10
188.1008082257039
 20
14.043442694148
 42
0.0
 10
188.1008082257039
 20
14.29185258888377
 42
0.0878146924641936
 10
188.0467470382031
 20
14.42411548719076
 42
0.1080222927165532
 10
188.1008082257039
 20
14.54460919492257
 42
0.0
 10
188.1008082257039
 20
14.77693979931692
 42
0.192215680109946
 10
188.0484746905956
 20
14.86886648353821
 42
0.171699417140815
 10
187.7516923904778
 20
14.95062377538655
 42
0.0
 10
187.4845683712188
 20
14.95062377538656
 42
0.3983152836439984
 10
187.4147161756227
 20
14.88335522903354
 42
0.0
 10
187.4147161756227
 20
14.043442694148
 42
0.0
 10
187.574111351269
 20
14.043442694148
 42
0.0
 10
187.5741113512689
 20
14.20396741150131
 42
-0.3680258038893664
 10
187.6765379953518
 20
14.34121969975355
 42
0.0
 10
187.7822790124695
 20
14.34121969975355
 42
-0.3760883100637826
 97
        0
 92
       22
 72
     1
 73
     1
 93
       10
 10
187.8171334514133
 20
14.51927846821619
 42
0.0
 10
187.6886076531863
 20
14.51927846821619
 42
-0.4644547038390189
 10
187.598594894158
 20
14.60574623298982
 42
0.0
 10
187.5985948941579
 20
14.70635490265327
 42
-0.4700313181861818
 10
187.676433508506
 20
14.78863575978702
 42
0.0
 10
187.8184131695166
 20
14.78863575978702
 42
-0.2024912017596684
 10
187.9005238078028
 20
14.72920109052658
 42
-0.1629090778538176
 10
187.9186956751402
 20
14.66258826751202
 42
0.0
 10
187.9186956751402
 20
14.57619629999126
 42
-0.2807969913979313
 10
187.8975189938926
 20
14.54091967679401
 42
-0.1413133624004751
 97
        0
 75
     0
 76
     1
 47
0.025620434889365
 98
        2
 10
187.9005540315049
 20
14.44298061465923
 10
187.9005540315049
 20
14.44298061465923
450
        0
451
        0
460
0.0
461
0.0
452
        0
462
0.0
453
        0
470

  0
LWPOLYLINE
  5
211D
102
{ACAD_REACTORS
330
2112
102
}
330
2105
100
AcDbEntity
 67
     1
  8
0
 62
     1
100
AcDbPolyline
 90
       17
 70
     0
 43
0.0
 10
187.4147161756227
 20
14.88335522903302
 10
187.4147161756227
 20
14.043442694148
 10
187.5741113512689
 20
14.04344269414801
 10
187.5741113512689
 20
14.22091064536369
 42
-0.3320036502381971
 10
187.6765379953518
 20
14.34121969975355
 10
187.8072164772984
 20
14.34121969975355
 42
-0.3344300509710546
 10
187.9598936880826
 20
14.20746020516917
 10
187.9598936880826
 20
14.04344269414801
 10
188.1008082257039
 20
14.043442694148
 10
188.1008082257039
 20
14.29185258888386
 42
0.0878146924641325
 10
188.0467470382032
 20
14.42411548719077
 42
0.1080222927165679
 10
188.1008082257039
 20
14.54460919492261
 10
188.1008082257039
 20
14.77693979931685
 42
0.2411188226969047
 10
188.0262152539066
 20
14.88345187514104
 42
0.1568897140508559
 10
187.7516923904778
 20
14.95062377538655
 10
187.4845683712188
 20
14.95062377538656
 42
0.4252932903388871
 10
187.4147161756227
 20
14.87685082043922
  0
TEXT
  5
211E
330
2105
100
AcDbEntity
 67
     1
  8
0
 62
     7
100
AcDbText
 10
109.1695333194297
 20
277.6427615215756
 30
0.0
 40
2.872918975993215
  1
02.01.04
  7
Stil1
100
AcDbText
  0
TEXT
  5
211F
330
2105
100
AcDbEntity
 67
     1
  8
0
 62
     7
100
AcDbText
 10
109.1695333194297
 20
273.0276699878348
 30
0.0
 40
2.872918975993215
  1
M 1:5
  7
Stil1
100
AcDbText
  0
TEXT
  5
2120
330
2105
100
AcDbEntity
 67
     1
  8
0
 62
     7
100
AcDbText
 10
178.1840006872409
 20
277.6427615215756
 30
0.0
 40
2.872918975993215
  1
střecha
  7
Stil1
100
AcDbText
  0
TEXT
  5
2121
330
2105
100
AcDbEntity
 67
     1
  8
0
 62
     7
100
AcDbText
 10
184.9060723546846
 20
273.0276699878348
 30
0.0
 40
2.872918975993215
  1
164
  7
Stil1
100
AcDbText
  0
VIEWPORT
  5
2122
330
2105
100
AcDbEntity
 67
     1
  8
Mansfen
100
AcDbViewport
 10
101.0305481579519
 20
145.0520291378911
 30
0.0
 40
188.6531088825485
 41
250.0286715940809
 68
     2
 69
     2
 12
436.1091969030566
 22
758.9131752029124
 13
0.0
 23
0.0
 14
10.0
 24
10.0
 15
10.0
 25
10.0
 16
0.0
 26
0.0
 36
1.0
 17
0.0
 27
0.0
 37
0.0
 42
50.0
 43
0.0
 44
0.0
 45
1250.143359365766
 50
0.0
 51
0.0
 72
 20000
 90
    32768
  1

281
     0
 71
     1
 74
     0
110
0.0
120
0.0
130
0.0
111
1.0
121
0.0
131
0.0
112
0.0
122
1.0
132
0.0
 79
     0
146
0.0
170
     0
  0
MTEXT
  5
51E6
102
{ACAD_XDICTIONARY
360
52B3
102
}
330
2105
100
AcDbEntity
 67
     1
  8
TXT-D
100
AcDbMText
 10
6.359054383132626
 20
17.34376436168821
 30
0.0
 40
2.8
 41
106.1716
 71
     1
 72
     5
  1
{\C7;* Poplastovan\U+00E9 klipsy nejsou vyr\U+00E1b\U+011Bny ve v\U+0161ech rozm\U+011Brech}
  7
ROMANS
 73
     1
 44
1.0
  0
ENDSEC
  0
SECTION
  2
OBJECTS
  0
DICTIONARY
  5
C
330
0
100
AcDbDictionary
281
     1
  3
ACAD_CIP_PREVIOUS_PRODUCT_INFO
350
51BA
  3
ACAD_COLOR
350
519B
  3
ACAD_DETAILVIEWSTYLE
350
51B4
  3
ACAD_GROUP
350
D
  3
ACAD_IMAGE_DICT
350
6C4
  3
ACAD_IMAGE_VARS
350
6C5
  3
ACAD_LAYOUT
350
5E9
  3
ACAD_MATERIAL
350
5169
  3
ACAD_MLEADERSTYLE
350
51B0
  3
ACAD_MLINESTYLE
350
1B
  3
ACAD_PLOTSETTINGS
350
5EA
  3
ACAD_PLOTSTYLENAME
350
5E7
  3
ACAD_SCALELIST
350
519E
  3
ACAD_SECTIONVIEWSTYLE
350
51B2
  3
ACAD_TABLESTYLE
350
519C
  3
ACAD_VISUALSTYLE
350
5182
  3
ACDB_RECOMPOSE_DATA
350
5273
  3
AcDbVariableDictionary
350
7F0
  3
AcDsDecomposeData
350
5279
  0
DICTIONARY
  5
51BF
330
2
100
AcDbDictionary
280
     1
281
     1
  3
ACAD_LAYERSTATES
360
51C0
  0
DICTIONARY
  5
51E7
330
E
100
AcDbDictionary
280
     1
281
     1
  3
ADSK_XREC_LAYER_RECONCILED
360
51E8
  0
DICTIONARY
  5
51E9
330
B7
100
AcDbDictionary
280
     1
281
     1
  3
ADSK_XREC_LAYER_RECONCILED
360
51EA
  0
DICTIONARY
  5
51EB
330
8F4
100
AcDbDictionary
280
     1
281
     1
  3
ADSK_XREC_LAYER_RECONCILED
360
51EC
  0
DICTIONARY
  5
51ED
330
120A
100
AcDbDictionary
280
     1
281
     1
  3
ADSK_XREC_LAYER_RECONCILED
360
51EE
  0
DICTIONARY
  5
51EF
330
120B
100
AcDbDictionary
280
     1
281
     1
  3
ADSK_XREC_LAYER_RECONCILED
360
51F0
  0
DICTIONARY
  5
51F1
330
120C
100
AcDbDictionary
280
     1
281
     1
  3
ADSK_XREC_LAYER_RECONCILED
360
51F2
  0
DICTIONARY
  5
51F3
330
120D
100
AcDbDictionary
280
     1
281
     1
  3
ADSK_XREC_LAYER_RECONCILED
360
51F4
  0
DICTIONARY
  5
51F5
330
120E
100
AcDbDictionary
280
     1
281
     1
  3
ADSK_XREC_LAYER_RECONCILED
360
51F6
  0
DICTIONARY
  5
51F7
330
1828
100
AcDbDictionary
280
     1
281
     1
  3
ADSK_XREC_LAYER_RECONCILED
360
51F8
  0
DICTIONARY
  5
51F9
330
2CDF
100
AcDbDictionary
280
     1
281
     1
  3
ADSK_XREC_LAYER_RECONCILED
360
51FA
  0
DICTIONARY
  5
51FB
330
34D6
100
AcDbDictionary
280
     1
281
     1
  3
ADSK_XREC_LAYER_RECONCILED
360
51FC
  0
DICTIONARY
  5
51FD
330
34D8
100
AcDbDictionary
280
     1
281
     1
  3
ADSK_XREC_LAYER_RECONCILED
360
51FE
  0
DICTIONARY
  5
81C
330
18
100
AcDbDictionary
280
     1
281
     1
  3
ACAD_LAYOUTSELFREF
360
1CF1
  0
DICTIONARY
  5
52B3
330
51E6
100
AcDbDictionary
280
     1
281
     1
  3
ACAD_MTEXT_2008_RT
360
52B4
  0
XRECORD
  5
51BA
102
{ACAD_REACTORS
330
C
102
}
330
C
100
AcDbXrecord
280
     1
300
ACD
300
2013
300
ACD_F_S
  0
DICTIONARY
  5
519B
102
{ACAD_REACTORS
330
C
102
}
330
C
100
AcDbDictionary
281
     1
  0
DICTIONARY
  5
51B4
102
{ACAD_REACTORS
330
C
102
}
330
C
100
AcDbDictionary
281
     1
  3
Metric50
350
51B5
  0
DICTIONARY
  5
D
102
{ACAD_REACTORS
330
C
102
}
330
C
100
AcDbDictionary
281
     1
  0
DICTIONARY
  5
6C4
102
{ACAD_REACTORS
330
C
102
}
330
C
100
AcDbDictionary
281
     1
  3
Kalzip
350
6C6
  0
RASTERVARIABLES
  5
6C5
102
{ACAD_REACTORS
330
C
102
}
330
C
100
AcDbRasterVariables
 90
        0
 70
     1
 71
     1
 72
     0
  0
DICTIONARY
  5
5E9
102
{ACAD_REACTORS
330
C
102
}
330
C
100
AcDbDictionary
281
     1
  3
A4
350
2104
  3
Model
350
5EB
  0
DICTIONARY
  5
5169
102
{ACAD_REACTORS
330
C
102
}
330
C
100
AcDbDictionary
281
     1
  3
ByBlock
350
5172
  3
ByLayer
350
516A
  3
Global
350
517A
  0
DICTIONARY
  5
51B0
102
{ACAD_REACTORS
330
C
102
}
330
C
100
AcDbDictionary
281
     1
  3
Standard
350
51B1
  0
DICTIONARY
  5
1B
102
{ACAD_REACTORS
330
C
102
}
330
C
100
AcDbDictionary
281
     1
  3
STANDARD
350
1C
  0
DICTIONARY
  5
5EA
102
{ACAD_REACTORS
330
C
102
}
330
C
100
AcDbDictionary
281
     1
  3
kzform
350
4879
  0
ACDBDICTIONARYWDFLT
  5
5E7
102
{ACAD_REACTORS
330
C
102
}
330
C
100
AcDbDictionary
281
     1
  3
Normal
350
5E8
100
AcDbDictionaryWithDefault
340
5E8
  0
DICTIONARY
  5
519E
102
{ACAD_REACTORS
330
C
102
}
330
C
100
AcDbDictionary
281
     1
  3
A0
350
519F
  3
A1
350
51A0
  3
A2
350
51A1
  3
A3
350
51A2
  3
A4
350
51A3
  3
A5
350
51A4
  3
A6
350
51A5
  3
A7
350
51A6
  3
A8
350
51A7
  3
A9
350
51A8
  3
B0
350
51A9
  3
B1
350
51AA
  3
B2
350
51AB
  3
B3
350
51AC
  3
B4
350
51AD
  3
B5
350
51AE
  3
B6
350
51AF
  0
DICTIONARY
  5
51B2
102
{ACAD_REACTORS
330
C
102
}
330
C
100
AcDbDictionary
281
     1
  3
Metric50
350
51B3
  0
DICTIONARY
  5
519C
102
{ACAD_REACTORS
330
C
102
}
330
C
100
AcDbDictionary
281
     1
  3
Standard
350
519D
  0
DICTIONARY
  5
5182
102
{ACAD_REACTORS
330
C
102
}
330
C
100
AcDbDictionary
281
     1
  3
2dWireframe
350
5188
  3
Basic
350
5187
  3
Brighten
350
518E
  3
ColorChange
350
5192
  3
Conceptual
350
518B
  3
Dim
350
518D
  3
EdgeColorOff
350
519A
  3
Facepattern
350
5191
  3
Flat
350
5183
  3
FlatWithEdges
350
5184
  3
Gouraud
350
5185
  3
GouraudWithEdges
350
5186
  3
Hidden
350
518A
  3
JitterOff
350
5198
  3
Linepattern
350
5190
  3
OverhangOff
350
5199
  3
Realistic
350
518C
  3
Shaded
350
5197
  3
Shaded with edges
350
5196
  3
Shades of Gray
350
5193
  3
Sketchy
350
5194
  3
Thicken
350
518F
  3
Wireframe
350
5189
  3
X-Ray
350
5195
  0
XRECORD
  5
5273
102
{ACAD_REACTORS
330
C
102
}
330
C
100
AcDbXrecord
280
     1
 90
        1
330
519D
  0
DICTIONARY
  5
7F0
102
{ACAD_REACTORS
330
C
102
}
330
C
100
AcDbDictionary
281
     1
  3
CANNOSCALE
350
5204
  3
CMLEADERSTYLE
350
5200
  3
CTABLESTYLE
350
51FF
  3
CVIEWDETAILSTYLE
350
5201
  3
CVIEWSECTIONSTYLE
350
5202
  3
DIMASSOC
350
212B
  3
LAYEREVAL
350
5206
  3
LAYERNOTIFY
350
5207
  3
LIGHTINGUNITS
350
5205
  3
MSLTSCALE
350
5203
  3
SORTENTS
350
7F1
  3
XCLIPFRAME
350
5270
  0
DICTIONARY
  5
5279
102
{ACAD_REACTORS
330
C
102
}
330
C
100
AcDbDictionary
281
     1
  3
AcDsRecords
350
527B
  3
AcDsSchemas
350
527A
1001
ACAD
1070
     2
  0
DICTIONARY
  5
51C0
102
{ACAD_REACTORS
330
51BF
102
}
330
51BF
100
AcDbDictionary
281
     1
  0
XRECORD
  5
51E8
102
{ACAD_REACTORS
330
51E7
102
}
330
51E7
100
AcDbXrecord
280
     1
290
     1
  0
XRECORD
  5
51EA
102
{ACAD_REACTORS
330
51E9
102
}
330
51E9
100
AcDbXrecord
280
     1
290
     1
  0
XRECORD
  5
51EC
102
{ACAD_REACTORS
330
51EB
102
}
330
51EB
100
AcDbXrecord
280
     1
290
     1
  0
XRECORD
  5
51EE
102
{ACAD_REACTORS
330
51ED
102
}
330
51ED
100
AcDbXrecord
280
     1
290
     1
  0
XRECORD
  5
51F0
102
{ACAD_REACTORS
330
51EF
102
}
330
51EF
100
AcDbXrecord
280
     1
290
     1
  0
XRECORD
  5
51F2
102
{ACAD_REACTORS
330
51F1
102
}
330
51F1
100
AcDbXrecord
280
     1
290
     1
  0
XRECORD
  5
51F4
102
{ACAD_REACTORS
330
51F3
102
}
330
51F3
100
AcDbXrecord
280
     1
290
     1
  0
XRECORD
  5
51F6
102
{ACAD_REACTORS
330
51F5
102
}
330
51F5
100
AcDbXrecord
280
     1
290
     1
  0
XRECORD
  5
51F8
102
{ACAD_REACTORS
330
51F7
102
}
330
51F7
100
AcDbXrecord
280
     1
290
     1
  0
XRECORD
  5
51FA
102
{ACAD_REACTORS
330
51F9
102
}
330
51F9
100
AcDbXrecord
280
     1
290
     1
  0
XRECORD
  5
51FC
102
{ACAD_REACTORS
330
51FB
102
}
330
51FB
100
AcDbXrecord
280
     1
290
     1
  0
XRECORD
  5
51FE
102
{ACAD_REACTORS
330
51FD
102
}
330
51FD
100
AcDbXrecord
280
     1
290
     1
  0
XRECORD
  5
1CF1
102
{ACAD_REACTORS
330
81C
102
}
330
81C
100
AcDbXrecord
280
     1
340
18
  0
XRECORD
  5
52B4
102
{ACAD_REACTORS
330
52B3
102
}
330
52B3
100
AcDbXrecord
280
     1
 40
350889.0
  1
{\C7;* Poplastované klipsy nejsou vyráběny ve všech rozměrech}
  0
ACDBDETAILVIEWSTYLE
  5
51B5
102
{ACAD_REACTORS
330
51B4
102
}
330
51B4
100
AcDbModelDocViewStyle
 70
     0
  3
Metric50
290
     0
100
AcDbDetailViewStyle
 70
     0
 71
     0
 90
        3
 71
     1
340
F
 62
   256
 40
5.0
340
0
 62
   256
 40
5.0
300

 40
0.0
280
     1
 71
     2
340
14
 90
       25
 62
   256
 71
     3
340
F
 62
   256
 40
5.0
 90
        0
 40
15.0
 90
        1
300
%<\AcVar ViewDetailId>% (%<\AcVar ViewScale \f "%sn">%)
 71
     4
340
14
 90
       25
 62
   256
340
14
 90
       25
 62
   256
280
     0
  0
IMAGEDEF
  5
6C6
102
{ACAD_REACTORS
330
6C4
102
}
330
6C4
100
AcDbRasterImageDef
 90
        0
  1
C:\Kalzip.pcx
 10
944.0
 20
1927.0
 11
0.0010593220338983
 21
0.0010593220338983
280
     1
281
     0
  0
LAYOUT
  5
2104
102
{ACAD_REACTORS
330
5E9
102
}
330
5E9
100
AcDbPlotSettings
  1

  2
Brother HL-760
  4
A4
  6

 40
6.043083
 41
6.762742
 42
7.736419999999999
 43
5.027069
 44
209.973328
 45
296.968323
 46
0.0
 47
0.0
 48
0.0
 49
0.0
140
210.0
141
297.0
142
1.0
143
1.0
 70
   688
 72
     1
 73
     0
 74
     5
  7
CORUS_Mono.ctb
 75
    16
147
1.0
 76
     0
 77
     2
 78
   300
148
0.0
149
0.0
100
AcDbLayout
  1
A4
 70
     0
 71
     1
 10
-6.043083
 20
-6.762742
 11
203.930245
 21
290.205581
 12
0.0
 22
0.0
 32
0.0
 14
6.236817002505068
 24
2.642657989685733
 34
0.0
 15
195.3571025992262
 25
281.2760437736162
 35
0.0
146
0.0
 13
0.0
 23
0.0
 33
0.0
 16
1.0
 26
0.0
 36
0.0
 17
0.0
 27
1.0
 37
0.0
 76
     0
330
2105
331
2106
  0
LAYOUT
  5
5EB
102
{ACAD_REACTORS
330
5E9
102
}
330
5E9
100
AcDbPlotSettings
  1

  2
\\BSSRV01\Océ 5120 A0
  4
A4
  6

 40
3.174999952316284
 41
3.174999952316284
 42
3.175003051757812
 43
3.17498779296875
 44
209.9733276367187
 45
296.9683227539062
 46
0.0
 47
0.0
 48
0.0
 49
0.0
140
0.0
141
0.0
142
1.0
143
1.0
 70
 11952
 72
     1
 73
     1
 74
     0
  7

 75
     0
147
1.0
 76
     0
 77
     2
 78
   300
148
973.0712272420497
149
544.3184272033454
100
AcDbLayout
  1
Model
 70
     1
 71
     0
 10
0.0
 20
0.0
 11
12.0
 21
9.0
 12
0.0
 22
0.0
 32
0.0
 14
0.0
 24
0.0
 34
0.0
 15
0.0
 25
0.0
 35
0.0
146
0.0
 13
0.0
 23
0.0
 33
0.0
 16
1.0
 26
0.0
 36
0.0
 17
0.0
 27
1.0
 37
0.0
 76
     0
330
18
331
5167
  0
MATERIAL
  5
5172
102
{ACAD_XDICTIONARY
360
5173
102
}
102
{ACAD_REACTORS
330
5169
102
}
330
5169
100
AcDbMaterial
  1
ByBlock
 72
     0
 43
0.0208333333333333
 43
0.0
 43
0.0
 43
0.0
 43
0.0
 43
0.0208333333333333
 43
0.0
 43
0.0
 43
0.0
 43
0.0
 43
1.0
 43
0.0
 43
0.0
 43
0.0
 43
0.0
 43
1.0
 77
     0
 47
0.0208333333333333
 47
0.0
 47
0.0
 47
0.0
 47
0.0
 47
0.0208333333333333
 47
0.0
 47
0.0
 47
0.0
 47
0.0
 47
1.0
 47
0.0
 47
0.0
 47
0.0
 47
0.0
 47
1.0
171
     0
 49
0.0208333333333333
 49
0.0
 49
0.0
 49
0.0
 49
0.0
 49
0.0208333333333333
 49
0.0
 49
0.0
 49
0.0
 49
0.0
 49
1.0
 49
0.0
 49
0.0
 49
0.0
 49
0.0
 49
1.0
175
     0
142
0.0208333333333333
142
0.0
142
0.0
142
0.0
142
0.0
142
0.0208333333333333
142
0.0
142
0.0
142
0.0
142
0.0
142
1.0
142
0.0
142
0.0
142
0.0
142
0.0
142
1.0
179
     0
144
0.0208333333333333
144
0.0
144
0.0
144
0.0
144
0.0
144
0.0208333333333333
144
0.0
144
0.0
144
0.0
144
0.0
144
1.0
144
0.0
144
0.0
144
0.0
144
0.0
144
1.0
147
0.0208333333333333
147
0.0
147
0.0
147
0.0
147
0.0
147
0.0208333333333333
147
0.0
147
0.0
147
0.0
147
0.0
147
1.0
147
0.0
147
0.0
147
0.0
147
0.0
147
1.0
  0
MATERIAL
  5
516A
102
{ACAD_XDICTIONARY
360
516B
102
}
102
{ACAD_REACTORS
330
5169
102
}
330
5169
100
AcDbMaterial
  1
ByLayer
 72
     0
 43
0.0208333333333333
 43
0.0
 43
0.0
 43
0.0
 43
0.0
 43
0.0208333333333333
 43
0.0
 43
0.0
 43
0.0
 43
0.0
 43
1.0
 43
0.0
 43
0.0
 43
0.0
 43
0.0
 43
1.0
 77
     0
 47
0.0208333333333333
 47
0.0
 47
0.0
 47
0.0
 47
0.0
 47
0.0208333333333333
 47
0.0
 47
0.0
 47
0.0
 47
0.0
 47
1.0
 47
0.0
 47
0.0
 47
0.0
 47
0.0
 47
1.0
171
     0
 49
0.0208333333333333
 49
0.0
 49
0.0
 49
0.0
 49
0.0
 49
0.0208333333333333
 49
0.0
 49
0.0
 49
0.0
 49
0.0
 49
1.0
 49
0.0
 49
0.0
 49
0.0
 49
0.0
 49
1.0
175
     0
142
0.0208333333333333
142
0.0
142
0.0
142
0.0
142
0.0
142
0.0208333333333333
142
0.0
142
0.0
142
0.0
142
0.0
142
1.0
142
0.0
142
0.0
142
0.0
142
0.0
142
1.0
179
     0
144
0.0208333333333333
144
0.0
144
0.0
144
0.0
144
0.0
144
0.0208333333333333
144
0.0
144
0.0
144
0.0
144
0.0
144
1.0
144
0.0
144
0.0
144
0.0
144
0.0
144
1.0
147
0.0208333333333333
147
0.0
147
0.0
147
0.0
147
0.0
147
0.0208333333333333
147
0.0
147
0.0
147
0.0
147
0.0
147
1.0
147
0.0
147
0.0
147
0.0
147
0.0
147
1.0
  0
MATERIAL
  5
517A
102
{ACAD_XDICTIONARY
360
517B
102
}
102
{ACAD_REACTORS
330
5169
102
}
330
5169
100
AcDbMaterial
  1
Global
 72
     0
 43
0.0208333333333333
 43
0.0
 43
0.0
 43
0.0
 43
0.0
 43
0.0208333333333333
 43
0.0
 43
0.0
 43
0.0
 43
0.0
 43
1.0
 43
0.0
 43
0.0
 43
0.0
 43
0.0
 43
1.0
 77
     0
 47
0.0208333333333333
 47
0.0
 47
0.0
 47
0.0
 47
0.0
 47
0.0208333333333333
 47
0.0
 47
0.0
 47
0.0
 47
0.0
 47
1.0
 47
0.0
 47
0.0
 47
0.0
 47
0.0
 47
1.0
171
     0
 49
0.0208333333333333
 49
0.0
 49
0.0
 49
0.0
 49
0.0
 49
0.0208333333333333
 49
0.0
 49
0.0
 49
0.0
 49
0.0
 49
1.0
 49
0.0
 49
0.0
 49
0.0
 49
0.0
 49
1.0
175
     0
142
0.0208333333333333
142
0.0
142
0.0
142
0.0
142
0.0
142
0.0208333333333333
142
0.0
142
0.0
142
0.0
142
0.0
142
1.0
142
0.0
142
0.0
142
0.0
142
0.0
142
1.0
179
     0
144
0.0208333333333333
144
0.0
144
0.0
144
0.0
144
0.0
144
0.0208333333333333
144
0.0
144
0.0
144
0.0
144
0.0
144
1.0
144
0.0
144
0.0
144
0.0
144
0.0
144
1.0
147
0.0208333333333333
147
0.0
147
0.0
147
0.0
147
0.0
147
0.0208333333333333
147
0.0
147
0.0
147
0.0
147
0.0
147
1.0
147
0.0
147
0.0
147
0.0
147
0.0
147
1.0
  0
MLEADERSTYLE
  5
51B1
102
{ACAD_XDICTIONARY
360
52B1
102
}
102
{ACAD_REACTORS
330
51B0
102
}
330
51B0
100
AcDbMLeaderStyle
170
     2
171
     1
172
     0
 90
        2
 40
0.0
 41
0.0
173
     1
 91
-1056964608
340
12
 92
       -2
290
     1
 42
2.0
291
     1
 43
0.36
  3
Standard
 44
4.0
300

342
F
174
     1
178
     6
175
     1
176
     0
 93
-1056964608
 45
4.0
292
     0
297
     0
 46
4.0
 94
-1056964608
 47
1.0
 49
1.0
140
1.0
293
     1
141
0.0
294
     1
177
     0
142
1.0
295
     0
296
     0
143
0.125
1001
ACAD_MLEADERVER
1070
     2
  0
MLINESTYLE
  5
1C
102
{ACAD_REACTORS
330
1B
102
}
330
1B
100
AcDbMlineStyle
  2
STANDARD
 70
     0
  3

 62
   256
 51
90.0
 52
90.0
 71
     2
 49
0.5
 62
   256
  6
BYLAYER
 49
-0.5
 62
   256
  6
BYLAYER
  0
PLOTSETTINGS
  5
4879
102
{ACAD_REACTORS
330
5EA
102
}
330
5EA
100
AcDbPlotSettings
  1
kzform
  2
Brother HL-1250 series
  4
A4
  6

 40
6.720416545867919
 41
5.027085304260253
 42
6.889755249023437
 43
5.027069091796875
 44
209.9733276367187
 45
296.9259948730469
 46
0.0
 47
0.0
 48
0.0
 49
22.0
140
199.0
141
309.0
142
1.0
143
1.013428405888407
 70
  1712
 72
     1
 73
     0
 74
     4
  7
CORUS_Mono.ctb
 75
     0
147
0.9867495268433536
 76
     0
 77
     2
 78
   300
148
0.0
149
-22.0
  0
ACDBPLACEHOLDER
  5
5E8
102
{ACAD_REACTORS
330
5E7
102
}
330
5E7
  0
SCALE
  5
519F
102
{ACAD_REACTORS
330
519E
102
}
330
519E
100
AcDbScale
 70
     0
300
1:1
140
1.0
141
1.0
290
     1
  0
SCALE
  5
51A0
102
{ACAD_REACTORS
330
519E
102
}
330
519E
100
AcDbScale
 70
     0
300
1:2
140
1.0
141
2.0
290
     0
  0
SCALE
  5
51A1
102
{ACAD_REACTORS
330
519E
102
}
330
519E
100
AcDbScale
 70
     0
300
1:4
140
1.0
141
4.0
290
     0
  0
SCALE
  5
51A2
102
{ACAD_REACTORS
330
519E
102
}
330
519E
100
AcDbScale
 70
     0
300
1:5
140
1.0
141
5.0
290
     0
  0
SCALE
  5
51A3
102
{ACAD_REACTORS
330
519E
102
}
330
519E
100
AcDbScale
 70
     0
300
1:8
140
1.0
141
8.0
290
     0
  0
SCALE
  5
51A4
102
{ACAD_REACTORS
330
519E
102
}
330
519E
100
AcDbScale
 70
     0
300
1:10
140
1.0
141
10.0
290
     0
  0
SCALE
  5
51A5
102
{ACAD_REACTORS
330
519E
102
}
330
519E
100
AcDbScale
 70
     0
300
1:16
140
1.0
141
16.0
290
     0
  0
SCALE
  5
51A6
102
{ACAD_REACTORS
330
519E
102
}
330
519E
100
AcDbScale
 70
     0
300
1:20
140
1.0
141
20.0
290
     0
  0
SCALE
  5
51A7
102
{ACAD_REACTORS
330
519E
102
}
330
519E
100
AcDbScale
 70
     0
300
1:30
140
1.0
141
30.0
290
     0
  0
SCALE
  5
51A8
102
{ACAD_REACTORS
330
519E
102
}
330
519E
100
AcDbScale
 70
     0
300
1:40
140
1.0
141
40.0
290
     0
  0
SCALE
  5
51A9
102
{ACAD_REACTORS
330
519E
102
}
330
519E
100
AcDbScale
 70
     0
300
1:50
140
1.0
141
50.0
290
     0
  0
SCALE
  5
51AA
102
{ACAD_REACTORS
330
519E
102
}
330
519E
100
AcDbScale
 70
     0
300
1:100
140
1.0
141
100.0
290
     0
  0
SCALE
  5
51AB
102
{ACAD_REACTORS
330
519E
102
}
330
519E
100
AcDbScale
 70
     0
300
2:1
140
2.0
141
1.0
290
     0
  0
SCALE
  5
51AC
102
{ACAD_REACTORS
330
519E
102
}
330
519E
100
AcDbScale
 70
     0
300
4:1
140
4.0
141
1.0
290
     0
  0
SCALE
  5
51AD
102
{ACAD_REACTORS
330
519E
102
}
330
519E
100
AcDbScale
 70
     0
300
8:1
140
8.0
141
1.0
290
     0
  0
SCALE
  5
51AE
102
{ACAD_REACTORS
330
519E
102
}
330
519E
100
AcDbScale
 70
     0
300
10:1
140
10.0
141
1.0
290
     0
  0
SCALE
  5
51AF
102
{ACAD_REACTORS
330
519E
102
}
330
519E
100
AcDbScale
 70
     0
300
100:1
140
100.0
141
1.0
290
     0
  0
ACDBSECTIONVIEWSTYLE
  5
51B3
102
{ACAD_REACTORS
330
51B2
102
}
330
51B2
100
AcDbModelDocViewStyle
 70
     0
  3
Metric50
290
     0
100
AcDbSectionViewStyle
 70
     0
 71
     0
 90
      102
 71
     1
340
F
 62
   256
 40
5.0
340
0
340
0
 62
   256
 40
5.0
300
I, O, Q, S, X, Z
 40
10.0
 90
        0
 40
2.5
 90
        0
 71
     2
340
14
 90
       25
 62
   256
340
14
 90
       50
 62
   256
 40
5.0
 40
2.5
 40
5.0
 71
     3
340
F
 62
   256
 40
5.0
 90
        0
 40
15.0
 90
        1
300
%<\AcVar ViewSectionStartId>%-%<\AcVar ViewSectionEndId>% (%<\AcVar ViewScale \f "%sn">%)
 71
     4
 62
   256
 62
   257
300
ANSI31
 40
1.0
 90
        0
290
     0
290
     0
 90
        6
 40
0.0
 40
1.570796326794896
 40
0.2617993877991494
 40
1.308996938995747
 40
-0.2617993877991494
 40
1.832595714594046
  0
TABLESTYLE
  5
519D
102
{ACAD_XDICTIONARY
360
5271
102
}
102
{ACAD_REACTORS
330
519C
102
}
330
519C
100
AcDbTableStyle
  3
Standard
 70
     0
 71
     0
 40
1.5
 41
1.5
280
     0
281
     0
  7
STANDARD
140
4.5
170
     2
 62
     0
 63
     7
283
     0
274
    -2
284
     1
 64
     0
275
    -2
285
     1
 65
     0
276
    -2
286
     1
 66
     0
277
    -2
287
     1
 67
     0
278
    -2
288
     1
 68
     0
279
    -2
289
     1
 69
     0
  7
STANDARD
140
6.0
170
     5
 62
     0
 63
     7
283
     0
274
    -2
284
     1
 64
     0
275
    -2
285
     1
 65
     0
276
    -2
286
     1
 66
     0
277
    -2
287
     1
 67
     0
278
    -2
288
     1
 68
     0
279
    -2
289
     1
 69
     0
  7
STANDARD
140
4.5
170
     5
 62
     0
 63
     7
283
     0
274
    -2
284
     1
 64
     0
275
    -2
285
     1
 65
     0
276
    -2
286
     1
 66
     0
277
    -2
287
     1
 67
     0
278
    -2
288
     1
 68
     0
279
    -2
289
     1
 69
     0
  0
VISUALSTYLE
  5
5188
102
{ACAD_XDICTIONARY
360
5289
102
}
102
{ACAD_REACTORS
330
5182
102
}
330
5182
100
AcDbVisualStyle
  2
2dWireframe
 70
     4
 71
     0
 72
     2
 73
     0
 90
        0
 40
-0.6
 41
-30.0
 62
     5
 63
     7
421
 16777215
 74
     1
 91
        4
 64
     7
 65
   257
 75
     1
175
     1
 42
1.0
 92
        0
 66
   257
 43
1.0
 76
     1
 77
     6
 78
     2
 67
     7
 79
     5
170
     0
171
     0
290
     0
174
     0
 93
        1
 44
0.0
173
     0
291
     0
 45
0.0
1001
ACAD
1000
AcDbSavedByObjectVersion
1070
     0
  0
VISUALSTYLE
  5
5187
102
{ACAD_XDICTIONARY
360
5287
102
}
102
{ACAD_REACTORS
330
5182
102
}
330
5182
100
AcDbVisualStyle
  2
Basic
 70
     7
 71
     1
 72
     0
 73
     1
 90
        0
 40
-0.6
 41
-30.0
 62
     5
 63
     7
421
 16777215
 74
     0
 91
        4
 64
     7
 65
   257
 75
     1
175
     1
 42
1.0
 92
        8
 66
     7
 43
1.0
 76
     1
 77
     6
 78
     2
 67
     7
 79
     5
170
     0
171
     0
290
     0
174
     0
 93
        1
 44
0.0
173
     0
291
     1
 45
0.0
1001
ACAD
1000
AcDbSavedByObjectVersion
1070
     0
  0
VISUALSTYLE
  5
518E
102
{ACAD_XDICTIONARY
360
5295
102
}
102
{ACAD_REACTORS
330
5182
102
}
330
5182
100
AcDbVisualStyle
  2
Brighten
 70
    12
 71
     2
 72
     2
 73
     0
 90
        0
 40
-0.6
 41
-30.0
 62
     5
 63
     7
421
 16777215
 74
     1
 91
        4
 64
     7
 65
   257
 75
     1
175
     1
 42
1.0
 92
        8
 66
     7
 43
1.0
 76
     1
 77
     6
 78
     2
 67
     7
 79
     5
170
     0
171
     0
290
     0
174
     0
 93
        1
 44
50.0
173
     0
291
     1
 45
0.0
1001
ACAD
1000
AcDbSavedByObjectVersion
1070
     0
  0
VISUALSTYLE
  5
5192
102
{ACAD_XDICTIONARY
360
529D
102
}
102
{ACAD_REACTORS
330
5182
102
}
330
5182
100
AcDbVisualStyle
  2
ColorChange
 70
    16
 71
     2
 72
     2
 73
     3
 90
        0
 40
-0.6
 41
-30.0
 62
     5
 63
     8
421
  8421504
 74
     1
 91
        4
 64
     7
 65
   257
 75
     1
175
     1
 42
1.0
 92
        8
 66
     8
424
  8421504
 43
1.0
 76
     1
 77
     6
 78
     2
 67
     7
 79
     5
170
     0
171
     0
290
     0
174
     0
 93
        1
 44
0.0
173
     0
291
     1
 45
0.0
1001
ACAD
1000
AcDbSavedByObjectVersion
1070
     0
  0
VISUALSTYLE
  5
518B
102
{ACAD_XDICTIONARY
360
528F
102
}
102
{ACAD_REACTORS
330
5182
102
}
330
5182
100
AcDbVisualStyle
  2
Conceptual
 70
     9
 71
     3
 72
     2
 73
     0
 90
        0
 40
-0.6
 41
-30.0
 62
     5
 63
     7
421
 16777215
 74
     2
 91
        2
 64
     7
 65
   257
 75
     1
175
     1
 42
179.0
 92
        8
 66
     7
 43
1.0
 76
     1
 77
     6
 78
     2
 67
     7
 79
     3
170
     0
171
     0
290
     0
174
     0
 93
        1
 44
0.0
173
     0
291
     0
 45
0.0
1001
ACAD
1000
AcDbSavedByObjectVersion
1070
     0
  0
VISUALSTYLE
  5
518D
102
{ACAD_XDICTIONARY
360
5293
102
}
102
{ACAD_REACTORS
330
5182
102
}
330
5182
100
AcDbVisualStyle
  2
Dim
 70
    11
 71
     2
 72
     2
 73
     0
 90
        0
 40
-0.6
 41
-30.0
 62
     5
 63
     7
421
 16777215
 74
     1
 91
        4
 64
     7
 65
   257
 75
     1
175
     1
 42
1.0
 92
        8
 66
     7
 43
1.0
 76
     1
 77
     6
 78
     2
 67
     7
 79
     5
170
     0
171
     0
290
     0
174
     0
 93
        1
 44
-50.0
173
     0
291
     1
 45
0.0
1001
ACAD
1000
AcDbSavedByObjectVersion
1070
     0
  0
VISUALSTYLE
  5
519A
102
{ACAD_XDICTIONARY
360
52AD
102
}
102
{ACAD_REACTORS
330
5182
102
}
330
5182
100
AcDbVisualStyle
  2
EdgeColorOff
 70
    22
 71
     2
 72
     2
 73
     0
 90
        0
 40
-0.6
 41
-30.0
 62
     5
 63
     7
421
 16777215
 74
     1
 91
        4
 64
     7
 65
   257
 75
     1
175
     1
 42
1.0
 92
        8
 66
     7
 43
1.0
 76
     1
 77
     6
 78
     2
 67
     7
 79
     5
170
     0
171
     0
290
     0
174
     0
 93
        1
 44
0.0
173
     0
291
     1
 45
0.0
1001
ACAD
1000
AcDbSavedByObjectVersion
1070
     0
  0
VISUALSTYLE
  5
5191
102
{ACAD_XDICTIONARY
360
529B
102
}
102
{ACAD_REACTORS
330
5182
102
}
330
5182
100
AcDbVisualStyle
  2
Facepattern
 70
    15
 71
     2
 72
     2
 73
     0
 90
        0
 40
-0.6
 41
-30.0
 62
     5
 63
     7
421
 16777215
 74
     1
 91
        4
 64
     7
 65
   257
 75
     1
175
     1
 42
1.0
 92
        8
 66
     7
 43
1.0
 76
     1
 77
     6
 78
     2
 67
     7
 79
     5
170
     0
171
     0
290
     0
174
     0
 93
        1
 44
0.0
173
     0
291
     1
 45
0.0
1001
ACAD
1000
AcDbSavedByObjectVersion
1070
     0
  0
VISUALSTYLE
  5
5183
102
{ACAD_XDICTIONARY
360
527F
102
}
102
{ACAD_REACTORS
330
5182
102
}
330
5182
100
AcDbVisualStyle
  2
Flat
 70
     0
 71
     2
 72
     1
 73
     1
 90
        2
 40
-0.6
 41
30.0
 62
     5
 63
     7
421
 16777215
 74
     0
 91
        0
 64
     7
 65
   257
 75
     1
175
     1
 42
1.0
 92
        8
 66
     7
 43
1.0
 76
     1
 77
     6
 78
     2
 67
     7
 79
     5
170
     0
171
     0
290
     0
174
     0
 93
       13
 44
0.0
173
     0
291
     1
 45
0.0
1001
ACAD
1000
AcDbSavedByObjectVersion
1070
     0
  0
VISUALSTYLE
  5
5184
102
{ACAD_XDICTIONARY
360
5281
102
}
102
{ACAD_REACTORS
330
5182
102
}
330
5182
100
AcDbVisualStyle
  2
FlatWithEdges
 70
     1
 71
     2
 72
     1
 73
     1
 90
        2
 40
-0.6
 41
30.0
 62
     5
 63
     7
421
 16777215
 74
     1
 91
        0
 64
     7
 65
   257
 75
     1
175
     1
 42
1.0
 92
        0
 66
   257
 43
1.0
 76
     1
 77
     6
 78
     2
 67
     7
 79
     5
170
     0
171
     0
290
     0
174
     0
 93
       13
 44
0.0
173
     0
291
     1
 45
0.0
1001
ACAD
1000
AcDbSavedByObjectVersion
1070
     0
  0
VISUALSTYLE
  5
5185
102
{ACAD_XDICTIONARY
360
5283
102
}
102
{ACAD_REACTORS
330
5182
102
}
330
5182
100
AcDbVisualStyle
  2
Gouraud
 70
     2
 71
     2
 72
     2
 73
     1
 90
        2
 40
-0.6
 41
30.0
 62
     5
 63
     7
421
 16777215
 74
     0
 91
        0
 64
     7
 65
   257
 75
     1
175
     1
 42
1.0
 92
        0
 66
     7
 43
1.0
 76
     1
 77
     6
 78
     2
 67
     7
 79
     5
170
     0
171
     0
290
     0
174
     0
 93
       13
 44
0.0
173
     0
291
     1
 45
0.0
1001
ACAD
1000
AcDbSavedByObjectVersion
1070
     0
  0
VISUALSTYLE
  5
5186
102
{ACAD_XDICTIONARY
360
5285
102
}
102
{ACAD_REACTORS
330
5182
102
}
330
5182
100
AcDbVisualStyle
  2
GouraudWithEdges
 70
     3
 71
     2
 72
     2
 73
     1
 90
        2
 40
-0.6
 41
30.0
 62
     5
 63
     7
421
 16777215
 74
     1
 91
        0
 64
     7
 65
   257
 75
     1
175
     1
 42
1.0
 92
        0
 66
   257
 43
1.0
 76
     1
 77
     6
 78
     2
 67
     7
 79
     5
170
     0
171
     0
290
     0
174
     0
 93
       13
 44
0.0
173
     0
291
     1
 45
0.0
1001
ACAD
1000
AcDbSavedByObjectVersion
1070
     0
  0
VISUALSTYLE
  5
518A
102
{ACAD_XDICTIONARY
360
528D
102
}
102
{ACAD_REACTORS
330
5182
102
}
330
5182
100
AcDbVisualStyle
  2
Hidden
 70
     6
 71
     1
 72
     2
 73
     2
 90
        0
 40
-0.6
 41
-30.0
 62
     5
 63
     7
421
 16777215
 74
     2
 91
        2
 64
     7
 65
   257
 75
     2
175
     1
 42
40.0
 92
        0
 66
   257
 43
1.0
 76
     1
 77
     6
 78
     2
 67
     7
 79
     3
170
     0
171
     0
290
     0
174
     0
 93
        1
 44
0.0
173
     0
291
     0
 45
0.0
1001
ACAD
1000
AcDbSavedByObjectVersion
1070
     0
  0
VISUALSTYLE
  5
5198
102
{ACAD_XDICTIONARY
360
52A9
102
}
102
{ACAD_REACTORS
330
5182
102
}
330
5182
100
AcDbVisualStyle
  2
JitterOff
 70
    20
 71
     2
 72
     2
 73
     0
 90
        0
 40
-0.6
 41
-30.0
 62
     5
 63
     7
421
 16777215
 74
     1
 91
        4
 64
     7
 65
   257
 75
     1
175
     1
 42
1.0
 92
       10
 66
     7
 43
1.0
 76
     1
 77
     6
 78
     2
 67
     7
 79
     5
170
     0
171
     0
290
     0
174
     0
 93
        1
 44
0.0
173
     0
291
     1
 45
0.0
1001
ACAD
1000
AcDbSavedByObjectVersion
1070
     0
  0
VISUALSTYLE
  5
5190
102
{ACAD_XDICTIONARY
360
5299
102
}
102
{ACAD_REACTORS
330
5182
102
}
330
5182
100
AcDbVisualStyle
  2
Linepattern
 70
    14
 71
     2
 72
     2
 73
     0
 90
        0
 40
-0.6
 41
-30.0
 62
     5
 63
     7
421
 16777215
 74
     1
 91
        4
 64
     7
 65
   257
 75
     7
175
     7
 42
1.0
 92
        8
 66
     7
 43
1.0
 76
     1
 77
     6
 78
     2
 67
     7
 79
     5
170
     0
171
     0
290
     0
174
     0
 93
        1
 44
0.0
173
     0
291
     1
 45
0.0
1001
ACAD
1000
AcDbSavedByObjectVersion
1070
     0
  0
VISUALSTYLE
  5
5199
102
{ACAD_XDICTIONARY
360
52AB
102
}
102
{ACAD_REACTORS
330
5182
102
}
330
5182
100
AcDbVisualStyle
  2
OverhangOff
 70
    21
 71
     2
 72
     2
 73
     0
 90
        0
 40
-0.6
 41
-30.0
 62
     5
 63
     7
421
 16777215
 74
     1
 91
        4
 64
     7
 65
   257
 75
     1
175
     1
 42
1.0
 92
        9
 66
     7
 43
1.0
 76
     1
 77
     6
 78
     2
 67
     7
 79
     5
170
     0
171
     0
290
     0
174
     0
 93
        1
 44
0.0
173
     0
291
     1
 45
0.0
1001
ACAD
1000
AcDbSavedByObjectVersion
1070
     0
  0
VISUALSTYLE
  5
518C
102
{ACAD_XDICTIONARY
360
5291
102
}
102
{ACAD_REACTORS
330
5182
102
}
330
5182
100
AcDbVisualStyle
  2
Realistic
 70
     8
 71
     2
 72
     3
 73
     0
 90
        2
 40
-0.6
 41
30.0
 62
     5
 63
     7
421
 16777215
 74
     0
 91
        0
 64
     7
 65
   257
 75
     1
175
     1
 42
1.0
 92
        8
 66
   257
 43
1.0
 76
     1
 77
     6
 78
     2
 67
     7
 79
     3
170
     0
171
     0
290
     0
174
     0
 93
       13
 44
0.0
173
     0
291
     0
 45
0.0
1001
ACAD
1000
AcDbSavedByObjectVersion
1070
     0
  0
VISUALSTYLE
  5
5197
102
{ACAD_XDICTIONARY
360
52A7
102
}
102
{ACAD_REACTORS
330
5182
102
}
330
5182
100
AcDbVisualStyle
  2
Shaded
 70
    27
 71
     2
 72
     2
 73
     1
 90
        2
 40
-0.6
 41
30.0
 62
     5
 63
     7
421
 16777215
 74
     0
 91
        4
 64
     7
 65
   257
 75
     1
175
     1
 42
1.0
 92
        8
 66
   257
 43
1.0
 76
     1
 77
     6
 78
     2
 67
     8
425
  7895160
 79
     3
170
     0
171
     0
290
     0
174
     0
 93
        5
 44
0.0
173
     0
291
     0
 45
0.0
1001
ACAD
1000
AcDbSavedByObjectVersion
1070
     0
  0
VISUALSTYLE
  5
5196
102
{ACAD_XDICTIONARY
360
52A5
102
}
102
{ACAD_REACTORS
330
5182
102
}
330
5182
100
AcDbVisualStyle
  2
Shaded with edges
 70
    26
 71
     2
 72
     2
 73
     1
 90
        2
 40
-0.6
 41
30.0
 62
     5
 63
     7
421
 16777215
 74
     1
 91
       10
 64
     7
 65
   257
 75
     2
175
     1
 42
1.0
 92
        8
 66
   257
 43
1.0
 76
     1
 77
     6
 78
     2
 67
     7
 79
     3
170
     0
171
     0
290
     0
174
     0
 93
        5
 44
0.0
173
     0
291
     0
 45
0.0
1001
ACAD
1000
AcDbSavedByObjectVersion
1070
     0
  0
VISUALSTYLE
  5
5193
102
{ACAD_XDICTIONARY
360
529F
102
}
102
{ACAD_REACTORS
330
5182
102
}
330
5182
100
AcDbVisualStyle
  2
Shades of Gray
 70
    23
 71
     2
 72
     2
 73
     3
 90
        0
 40
-0.6
 41
-30.0
 62
     5
 63
     7
421
 16777215
 74
     2
 91
        2
 64
     7
 65
     7
 75
     1
175
     1
 42
40.0
 92
        8
 66
     7
 43
1.0
 76
     1
 77
     6
 78
     2
 67
     7
 79
     3
170
     0
171
     0
290
     0
174
     0
 93
        1
 44
0.0
173
     0
291
     0
 45
0.0
1001
ACAD
1000
AcDbSavedByObjectVersion
1070
     0
  0
VISUALSTYLE
  5
5194
102
{ACAD_XDICTIONARY
360
52A1
102
}
102
{ACAD_REACTORS
330
5182
102
}
330
5182
100
AcDbVisualStyle
  2
Sketchy
 70
    24
 71
     1
 72
     2
 73
     2
 90
        0
 40
-0.6
 41
-30.0
 62
     5
 63
     7
421
 16777215
 74
     2
 91
        2
 64
     7
 65
     7
 75
     1
175
     1
 42
40.0
 92
       11
 66
     7
 43
1.0
 76
     1
 77
     6
 78
     2
 67
     7
 79
     6
170
     0
171
     0
290
     0
174
     0
 93
        1
 44
0.0
173
     0
291
     0
 45
0.0
1001
ACAD
1000
AcDbSavedByObjectVersion
1070
     0
  0
VISUALSTYLE
  5
518F
102
{ACAD_XDICTIONARY
360
5297
102
}
102
{ACAD_REACTORS
330
5182
102
}
330
5182
100
AcDbVisualStyle
  2
Thicken
 70
    13
 71
     2
 72
     2
 73
     0
 90
        0
 40
-0.6
 41
-30.0
 62
     5
 63
     7
421
 16777215
 74
     1
 91
        4
 64
     7
 65
   257
 75
     1
175
     1
 42
1.0
 92
       12
 66
     7
 43
1.0
 76
     1
 77
     6
 78
     2
 67
     7
 79
     5
170
     0
171
     0
290
     0
174
     0
 93
        1
 44
0.0
173
     0
291
     1
 45
0.0
1001
ACAD
1000
AcDbSavedByObjectVersion
1070
     0
  0
VISUALSTYLE
  5
5189
102
{ACAD_XDICTIONARY
360
528B
102
}
102
{ACAD_REACTORS
330
5182
102
}
330
5182
100
AcDbVisualStyle
  2
Wireframe
 70
     5
 71
     0
 72
     2
 73
     0
 90
        0
 40
-0.6
 41
-30.0
 62
     5
 63
     7
421
 16777215
 74
     1
 91
        4
 64
     7
 65
   257
 75
     1
175
     1
 42
1.0
 92
        0
 66
   257
 43
1.0
 76
     1
 77
     6
 78
     2
 67
     7
 79
     3
170
     0
171
     0
290
     0
174
     0
 93
        1
 44
0.0
173
     0
291
     0
 45
0.0
1001
ACAD
1000
AcDbSavedByObjectVersion
1070
     0
  0
VISUALSTYLE
  5
5195
102
{ACAD_XDICTIONARY
360
52A3
102
}
102
{ACAD_REACTORS
330
5182
102
}
330
5182
100
AcDbVisualStyle
  2
X-Ray
 70
    25
 71
     2
 72
     2
 73
     1
 90
        1
 40
0.5
 41
-30.0
 62
     5
 63
     7
421
 16777215
 74
     1
 91
        0
 64
     7
 65
   257
 75
     1
175
     1
 42
1.0
 92
        8
 66
     7
 43
1.0
 76
     1
 77
     6
 78
     2
 67
     7
 79
     3
170
     0
171
     0
290
     0
174
     0
 93
       13
 44
0.0
173
     0
291
     0
 45
0.0
1001
ACAD
1000
AcDbSavedByObjectVersion
1070
     0
  0
DICTIONARYVAR
  5
5204
102
{ACAD_REACTORS
330
7F0
102
}
330
7F0
100
DictionaryVariables
280
     0
  1
1:1
  0
DICTIONARYVAR
  5
5200
102
{ACAD_REACTORS
330
7F0
102
}
330
7F0
100
DictionaryVariables
280
     0
  1
STANDARD
  0
DICTIONARYVAR
  5
51FF
102
{ACAD_REACTORS
330
7F0
102
}
330
7F0
100
DictionaryVariables
280
     0
  1
STANDARD
  0
DICTIONARYVAR
  5
5201
102
{ACAD_REACTORS
330
7F0
102
}
330
7F0
100
DictionaryVariables
280
     0
  1
Metric50
  0
DICTIONARYVAR
  5
5202
102
{ACAD_REACTORS
330
7F0
102
}
330
7F0
100
DictionaryVariables
280
     0
  1
Metric50
  0
DICTIONARYVAR
  5
212B
102
{ACAD_REACTORS
330
7F0
102
}
330
7F0
100
DictionaryVariables
280
     0
  1
1
  0
DICTIONARYVAR
  5
5206
102
{ACAD_REACTORS
330
7F0
102
}
330
7F0
100
DictionaryVariables
280
     0
  1
1
  0
DICTIONARYVAR
  5
5207
102
{ACAD_REACTORS
330
7F0
102
}
330
7F0
100
DictionaryVariables
280
     0
  1
15
  0
DICTIONARYVAR
  5
5205
102
{ACAD_REACTORS
330
7F0
102
}
330
7F0
100
DictionaryVariables
280
     0
  1
0
  0
DICTIONARYVAR
  5
5203
102
{ACAD_REACTORS
330
7F0
102
}
330
7F0
100
DictionaryVariables
280
     0
  1
0
  0
DICTIONARYVAR
  5
7F1
102
{ACAD_REACTORS
330
7F0
102
}
330
7F0
100
DictionaryVariables
280
     0
  1
96
  0
DICTIONARYVAR
  5
5270
102
{ACAD_REACTORS
330
7F0
102
}
330
7F0
100
DictionaryVariables
280
     0
  1
2
  0
DICTIONARY
  5
527B
102
{ACAD_REACTORS
330
5279
102
}
330
5279
100
AcDbDictionary
281
     1
  0
DICTIONARY
  5
527A
102
{ACAD_REACTORS
330
5279
102
}
330
5279
100
AcDbDictionary
281
     1
  3
140695673521216
350
5274
  3
140695673521232
350
5275
  3
140695673521248
350
5276
  3
140695673521264
350
5277
  3
140695673521280
350
5278
  0
DICTIONARY
  5
5173
330
5172
100
AcDbDictionary
280
     1
281
     1
  3
ACAD_XREC_ROUNDTRIP
360
527D
  3
BUMPTILE
360
5175
  3
DIFFUSETILE
360
5174
  3
OPACITYTILE
360
5178
  3
REFLECTIONTILE
360
5177
  3
REFRACTIONTILE
360
5179
  3
SPECULARTILE
360
5176
  0
DICTIONARY
  5
516B
330
516A
100
AcDbDictionary
280
     1
281
     1
  3
ACAD_XREC_ROUNDTRIP
360
527C
  3
BUMPTILE
360
516D
  3
DIFFUSETILE
360
516C
  3
OPACITYTILE
360
5170
  3
REFLECTIONTILE
360
516F
  3
REFRACTIONTILE
360
5171
  3
SPECULARTILE
360
516E
  0
DICTIONARY
  5
517B
330
517A
100
AcDbDictionary
280
     1
281
     1
  3
ACAD_XREC_ROUNDTRIP
360
527E
  3
BUMPTILE
360
517D
  3
DIFFUSETILE
360
517C
  3
OPACITYTILE
360
5180
  3
REFLECTIONTILE
360
517F
  3
REFRACTIONTILE
360
5181
  3
SPECULARTILE
360
517E
  0
DICTIONARY
  5
52B1
330
51B1
100
AcDbDictionary
280
     1
281
     1
  3
ACAD_XREC_ROUNDTRIP
360
52B2
  0
DICTIONARY
  5
5271
330
519D
100
AcDbDictionary
280
     1
281
     1
  3
ACAD_ROUNDTRIP_2008_TABLESTYLE_CELLSTYLEMAP
360
5272
  3
ACAD_XREC_ROUNDTRIP
360
52AF
  0
DICTIONARY
  5
5289
330
5188
100
AcDbDictionary
280
     1
281
     1
  3
ACAD_XREC_ROUNDTRIP
360
528A
  0
DICTIONARY
  5
5287
330
5187
100
AcDbDictionary
280
     1
281
     1
  3
ACAD_XREC_ROUNDTRIP
360
5288
  0
DICTIONARY
  5
5295
330
518E
100
AcDbDictionary
280
     1
281
     1
  3
ACAD_XREC_ROUNDTRIP
360
5296
  0
DICTIONARY
  5
529D
330
5192
100
AcDbDictionary
280
     1
281
     1
  3
ACAD_XREC_ROUNDTRIP
360
529E
  0
DICTIONARY
  5
528F
330
518B
100
AcDbDictionary
280
     1
281
     1
  3
ACAD_XREC_ROUNDTRIP
360
5290
  0
DICTIONARY
  5
5293
330
518D
100
AcDbDictionary
280
     1
281
     1
  3
ACAD_XREC_ROUNDTRIP
360
5294
  0
DICTIONARY
  5
52AD
330
519A
100
AcDbDictionary
280
     1
281
     1
  3
ACAD_XREC_ROUNDTRIP
360
52AE
  0
DICTIONARY
  5
529B
330
5191
100
AcDbDictionary
280
     1
281
     1
  3
ACAD_XREC_ROUNDTRIP
360
529C
  0
DICTIONARY
  5
527F
330
5183
100
AcDbDictionary
280
     1
281
     1
  3
ACAD_XREC_ROUNDTRIP
360
5280
  0
DICTIONARY
  5
5281
330
5184
100
AcDbDictionary
280
     1
281
     1
  3
ACAD_XREC_ROUNDTRIP
360
5282
  0
DICTIONARY
  5
5283
330
5185
100
AcDbDictionary
280
     1
281
     1
  3
ACAD_XREC_ROUNDTRIP
360
5284
  0
DICTIONARY
  5
5285
330
5186
100
AcDbDictionary
280
     1
281
     1
  3
ACAD_XREC_ROUNDTRIP
360
5286
  0
DICTIONARY
  5
528D
330
518A
100
AcDbDictionary
280
     1
281
     1
  3
ACAD_XREC_ROUNDTRIP
360
528E
  0
DICTIONARY
  5
52A9
330
5198
100
AcDbDictionary
280
     1
281
     1
  3
ACAD_XREC_ROUNDTRIP
360
52AA
  0
DICTIONARY
  5
5299
330
5190
100
AcDbDictionary
280
     1
281
     1
  3
ACAD_XREC_ROUNDTRIP
360
529A
  0
DICTIONARY
  5
52AB
330
5199
100
AcDbDictionary
280
     1
281
     1
  3
ACAD_XREC_ROUNDTRIP
360
52AC
  0
DICTIONARY
  5
5291
330
518C
100
AcDbDictionary
280
     1
281
     1
  3
ACAD_XREC_ROUNDTRIP
360
5292
  0
DICTIONARY
  5
52A7
330
5197
100
AcDbDictionary
280
     1
281
     1
  3
ACAD_XREC_ROUNDTRIP
360
52A8
  0
DICTIONARY
  5
52A5
330
5196
100
AcDbDictionary
280
     1
281
     1
  3
ACAD_XREC_ROUNDTRIP
360
52A6
  0
DICTIONARY
  5
529F
330
5193
100
AcDbDictionary
280
     1
281
     1
  3
ACAD_XREC_ROUNDTRIP
360
52A0
  0
DICTIONARY
  5
52A1
330
5194
100
AcDbDictionary
280
     1
281
     1
  3
ACAD_XREC_ROUNDTRIP
360
52A2
  0
DICTIONARY
  5
5297
330
518F
100
AcDbDictionary
280
     1
281
     1
  3
ACAD_XREC_ROUNDTRIP
360
5298
  0
DICTIONARY
  5
528B
330
5189
100
AcDbDictionary
280
     1
281
     1
  3
ACAD_XREC_ROUNDTRIP
360
528C
  0
DICTIONARY
  5
52A3
330
5195
100
AcDbDictionary
280
     1
281
     1
  3
ACAD_XREC_ROUNDTRIP
360
52A4
  0
XRECORD
  5
5274
102
{ACAD_REACTORS
330
527A
102
}
330
527A
100
AcDbXrecord
280
     1
  1
AcDb_Thumbnail_Schema
102
{ATTRRECORD
341
5275
  2
AcDbDs::TreatedAsObjectData
280
     1
291
     1
102
ATTRRECORD}
102
{ATTRRECORD
341
5276
  2
AcDbDs::Legacy
280
     1
291
     1
102
ATTRRECORD}
  2
AcDbDs::ID
280
    10
 91
        8
102
{ATTRRECORD
341
5277
  2
AcDs:Indexable
280
     1
291
     1
102
ATTRRECORD}
102
{ATTRRECORD
341
5278
  2
AcDbDs::HandleAttribute
280
     7
282
     1
102
ATTRRECORD}
  2
Thumbnail_Data
280
    15
 91
        0
  0
XRECORD
  5
5275
102
{ACAD_REACTORS
330
527A
102
}
330
527A
100
AcDbXrecord
280
     1
  1
AcDbDs::TreatedAsObjectDataSchema
  2
AcDbDs::TreatedAsObjectData
280
     1
 91
        0
  0
XRECORD
  5
5276
102
{ACAD_REACTORS
330
527A
102
}
330
527A
100
AcDbXrecord
280
     1
  1
AcDbDs::LegacySchema
  2
AcDbDs::Legacy
280
     1
 91
        0
  0
XRECORD
  5
5277
102
{ACAD_REACTORS
330
527A
102
}
330
527A
100
AcDbXrecord
280
     1
  1
AcDbDs::IndexedPropertySchema
  2
AcDs:Indexable
280
     1
 91
        0
  0
XRECORD
  5
5278
102
{ACAD_REACTORS
330
527A
102
}
330
527A
100
AcDbXrecord
280
     1
  1
AcDbDs::HandleAttributeSchema
  2
AcDbDs::HandleAttribute
280
     7
 91
        1
284
     1
  0
XRECORD
  5
527D
102
{ACAD_REACTORS
330
5173
102
}
330
5173
100
AcDbXrecord
280
     1
102
MATERIAL
148
0.0
149
0.0
149
0.0
 93
        0
 94
      127
282
     0
 72
     0
 77
     0
171
     0
175
     0
179
     0
273
     0
  0
XRECORD
  5
5175
102
{ACAD_REACTORS
330
5173
102
}
330
5173
100
AcDbXrecord
280
     1
270
     1
271
     1
  0
XRECORD
  5
5174
102
{ACAD_REACTORS
330
5173
102
}
330
5173
100
AcDbXrecord
280
     1
270
     1
271
     1
  0
XRECORD
  5
5178
102
{ACAD_REACTORS
330
5173
102
}
330
5173
100
AcDbXrecord
280
     1
270
     1
271
     1
  0
XRECORD
  5
5177
102
{ACAD_REACTORS
330
5173
102
}
330
5173
100
AcDbXrecord
280
     1
270
     1
271
     1
  0
XRECORD
  5
5179
102
{ACAD_REACTORS
330
5173
102
}
330
5173
100
AcDbXrecord
280
     1
270
     1
271
     1
  0
XRECORD
  5
5176
102
{ACAD_REACTORS
330
5173
102
}
330
5173
100
AcDbXrecord
280
     1
270
     1
271
     1
  0
XRECORD
  5
527C
102
{ACAD_REACTORS
330
516B
102
}
330
516B
100
AcDbXrecord
280
     1
102
MATERIAL
148
0.0
149
0.0
149
0.0
 93
        0
 94
      127
282
     0
 72
     0
 77
     0
171
     0
175
     0
179
     0
273
     0
  0
XRECORD
  5
516D
102
{ACAD_REACTORS
330
516B
102
}
330
516B
100
AcDbXrecord
280
     1
270
     1
271
     1
  0
XRECORD
  5
516C
102
{ACAD_REACTORS
330
516B
102
}
330
516B
100
AcDbXrecord
280
     1
270
     1
271
     1
  0
XRECORD
  5
5170
102
{ACAD_REACTORS
330
516B
102
}
330
516B
100
AcDbXrecord
280
     1
270
     1
271
     1
  0
XRECORD
  5
516F
102
{ACAD_REACTORS
330
516B
102
}
330
516B
100
AcDbXrecord
280
     1
270
     1
271
     1
  0
XRECORD
  5
5171
102
{ACAD_REACTORS
330
516B
102
}
330
516B
100
AcDbXrecord
280
     1
270
     1
271
     1
  0
XRECORD
  5
516E
102
{ACAD_REACTORS
330
516B
102
}
330
516B
100
AcDbXrecord
280
     1
270
     1
271
     1
  0
XRECORD
  5
527E
102
{ACAD_REACTORS
330
517B
102
}
330
517B
100
AcDbXrecord
280
     1
102
MATERIAL
148
0.0
149
0.0
149
0.0
 93
        0
 94
      127
282
     0
 72
     0
 77
     0
171
     0
175
     0
179
     0
273
     0
  0
XRECORD
  5
517D
102
{ACAD_REACTORS
330
517B
102
}
330
517B
100
AcDbXrecord
280
     1
270
     1
271
     1
  0
XRECORD
  5
517C
102
{ACAD_REACTORS
330
517B
102
}
330
517B
100
AcDbXrecord
280
     1
270
     1
271
     1
  0
XRECORD
  5
5180
102
{ACAD_REACTORS
330
517B
102
}
330
517B
100
AcDbXrecord
280
     1
270
     1
271
     1
  0
XRECORD
  5
517F
102
{ACAD_REACTORS
330
517B
102
}
330
517B
100
AcDbXrecord
280
     1
270
     1
271
     1
  0
XRECORD
  5
5181
102
{ACAD_REACTORS
330
517B
102
}
330
517B
100
AcDbXrecord
280
     1
270
     1
271
     1
  0
XRECORD
  5
517E
102
{ACAD_REACTORS
330
517B
102
}
330
517B
100
AcDbXrecord
280
     1
270
     1
271
     1
  0
XRECORD
  5
52B2
102
{ACAD_REACTORS
330
52B1
102
}
330
52B1
100
AcDbXrecord
280
     1
102
ACAD_ROUNDTRIP_2012_MLEADER_STYLE
298
     1
  0
CELLSTYLEMAP
  5
5272
102
{ACAD_REACTORS
330
5271
102
}
330
5271
100
AcDbCellStyleMap
 90
        3
300
CELLSTYLE
  1
TABLEFORMAT_BEGIN
 90
        5
170
     1
 91
        0
 92
    32768
 62
   257
 93
        1
300
CONTENTFORMAT
  1
CONTENTFORMAT_BEGIN
 90
        0
 91
        0
 92
      512
 93
        0
300

 40
0.0
140
1.0
 94
        5
 62
     0
340
F
144
6.0
309
CONTENTFORMAT_END
171
     1
301
MARGIN
  1
CELLMARGIN_BEGIN
 40
1.5
 40
1.5
 40
1.5
 40
1.5
 40
4.5
 40
4.5
309
CELLMARGIN_END
 94
        6
 95
        1
302
GRIDFORMAT
  1
GRIDFORMAT_BEGIN
 90
        0
 91
        1
 62
     0
 92
       -2
340
0
 93
        0
 40
1.125
309
GRIDFORMAT_END
 95
        2
302
GRIDFORMAT
  1
GRIDFORMAT_BEGIN
 90
        0
 91
        1
 62
     0
 92
       -2
340
0
 93
        0
 40
1.125
309
GRIDFORMAT_END
 95
        4
302
GRIDFORMAT
  1
GRIDFORMAT_BEGIN
 90
        0
 91
        1
 62
     0
 92
       -2
340
0
 93
        0
 40
1.125
309
GRIDFORMAT_END
 95
        8
302
GRIDFORMAT
  1
GRIDFORMAT_BEGIN
 90
        0
 91
        1
 62
     0
 92
       -2
340
0
 93
        0
 40
1.125
309
GRIDFORMAT_END
 95
       16
302
GRIDFORMAT
  1
GRIDFORMAT_BEGIN
 90
        0
 91
        1
 62
     0
 92
       -2
340
0
 93
        0
 40
1.125
309
GRIDFORMAT_END
 95
       32
302
GRIDFORMAT
  1
GRIDFORMAT_BEGIN
 90
        0
 91
        1
 62
     0
 92
       -2
340
0
 93
        0
 40
1.125
309
GRIDFORMAT_END
309
TABLEFORMAT_END
  1
CELLSTYLE_BEGIN
 90
        1
 91
        1
300
_TITLE
309
CELLSTYLE_END
300
CELLSTYLE
  1
TABLEFORMAT_BEGIN
 90
        5
170
     1
 91
        0
 92
        0
 62
   257
 93
        1
300
CONTENTFORMAT
  1
CONTENTFORMAT_BEGIN
 90
        0
 91
        0
 92
      512
 93
        0
300

 40
0.0
140
1.0
 94
        5
 62
     0
340
F
144
4.5
309
CONTENTFORMAT_END
171
     1
301
MARGIN
  1
CELLMARGIN_BEGIN
 40
1.5
 40
1.5
 40
1.5
 40
1.5
 40
4.5
 40
4.5
309
CELLMARGIN_END
 94
        6
 95
        1
302
GRIDFORMAT
  1
GRIDFORMAT_BEGIN
 90
        0
 91
        1
 62
     0
 92
       -2
340
0
 93
        0
 40
1.125
309
GRIDFORMAT_END
 95
        2
302
GRIDFORMAT
  1
GRIDFORMAT_BEGIN
 90
        0
 91
        1
 62
     0
 92
       -2
340
0
 93
        0
 40
1.125
309
GRIDFORMAT_END
 95
        4
302
GRIDFORMAT
  1
GRIDFORMAT_BEGIN
 90
        0
 91
        1
 62
     0
 92
       -2
340
0
 93
        0
 40
1.125
309
GRIDFORMAT_END
 95
        8
302
GRIDFORMAT
  1
GRIDFORMAT_BEGIN
 90
        0
 91
        1
 62
     0
 92
       -2
340
0
 93
        0
 40
1.125
309
GRIDFORMAT_END
 95
       16
302
GRIDFORMAT
  1
GRIDFORMAT_BEGIN
 90
        0
 91
        1
 62
     0
 92
       -2
340
0
 93
        0
 40
1.125
309
GRIDFORMAT_END
 95
       32
302
GRIDFORMAT
  1
GRIDFORMAT_BEGIN
 90
        0
 91
        1
 62
     0
 92
       -2
340
0
 93
        0
 40
1.125
309
GRIDFORMAT_END
309
TABLEFORMAT_END
  1
CELLSTYLE_BEGIN
 90
        2
 91
        1
300
_HEADER
309
CELLSTYLE_END
300
CELLSTYLE
  1
TABLEFORMAT_BEGIN
 90
        5
170
     1
 91
        0
 92
        0
 62
   257
 93
        1
300
CONTENTFORMAT
  1
CONTENTFORMAT_BEGIN
 90
        0
 91
        0
 92
      512
 93
        0
300

 40
0.0
140
1.0
 94
        2
 62
     0
340
F
144
4.5
309
CONTENTFORMAT_END
171
     1
301
MARGIN
  1
CELLMARGIN_BEGIN
 40
1.5
 40
1.5
 40
1.5
 40
1.5
 40
4.5
 40
4.5
309
CELLMARGIN_END
 94
        6
 95
        1
302
GRIDFORMAT
  1
GRIDFORMAT_BEGIN
 90
        0
 91
        1
 62
     0
 92
       -2
340
0
 93
        0
 40
1.125
309
GRIDFORMAT_END
 95
        2
302
GRIDFORMAT
  1
GRIDFORMAT_BEGIN
 90
        0
 91
        1
 62
     0
 92
       -2
340
0
 93
        0
 40
1.125
309
GRIDFORMAT_END
 95
        4
302
GRIDFORMAT
  1
GRIDFORMAT_BEGIN
 90
        0
 91
        1
 62
     0
 92
       -2
340
0
 93
        0
 40
1.125
309
GRIDFORMAT_END
 95
        8
302
GRIDFORMAT
  1
GRIDFORMAT_BEGIN
 90
        0
 91
        1
 62
     0
 92
       -2
340
0
 93
        0
 40
1.125
309
GRIDFORMAT_END
 95
       16
302
GRIDFORMAT
  1
GRIDFORMAT_BEGIN
 90
        0
 91
        1
 62
     0
 92
       -2
340
0
 93
        0
 40
1.125
309
GRIDFORMAT_END
 95
       32
302
GRIDFORMAT
  1
GRIDFORMAT_BEGIN
 90
        0
 91
        1
 62
     0
 92
       -2
340
0
 93
        0
 40
1.125
309
GRIDFORMAT_END
309
TABLEFORMAT_END
  1
CELLSTYLE_BEGIN
 90
        3
 91
        2
300
_DATA
309
CELLSTYLE_END
  0
XRECORD
  5
52AF
102
{ACAD_REACTORS
330
5271
102
}
330
5271
100
AcDbXrecord
280
     1
102
ACAD_ROUNDTRIP_PRE2007_TABLESTYLE
 90
      512
 91
        0
  1

 92
      512
 93
        0
  2

 94
      512
 95
        0
  3

  0
XRECORD
  5
528A
102
{ACAD_REACTORS
330
5289
102
}
330
5289
100
AcDbXrecord
280
     1
102
RTVSPost2010Prop28
280
     1
102
RTVSPost2010PropOp28
 70
     1
102
RTVSPost2010Prop29
280
     1
102
RTVSPost2010PropOp29
 70
     1
102
RTVSPost2010Prop30
280
     0
102
RTVSPost2010PropOp30
 70
     1
102
RTVSPost2010Prop31
280
     0
102
RTVSPost2010PropOp31
 70
     1
102
RTVSPost2010Prop32
280
     0
102
RTVSPost2010PropOp32
 70
     1
102
RTVSPost2010Prop33
280
     0
102
RTVSPost2010PropOp33
 70
     1
102
RTVSPost2010Prop34
280
     0
102
RTVSPost2010PropOp34
 70
     1
102
RTVSPost2010Prop35
280
     0
102
RTVSPost2010PropOp35
 70
     1
102
RTVSPost2010Prop36
280
     0
102
RTVSPost2010PropOp36
 70
     1
102
RTVSPost2010Prop37
 90
       50
102
RTVSPost2010PropOp37
 70
     1
102
RTVSPost2010Prop38
140
0.0
102
RTVSPost2010PropOp38
 70
     1
102
RTVSPost2010Prop39
140
1.0
102
RTVSPost2010PropOp39
 70
     1
102
RTVSPost2010Prop40
 90
        0
102
RTVSPost2010PropOp40
 70
     1
102
RTVSPost2010Prop41ColorIndex
 90
       18
102
RTVSPost2010Prop41ColorRGB
 90
        0
102
RTVSPost2010PropOp41
 70
     1
102
RTVSPost2010Prop42
 90
       50
102
RTVSPost2010PropOp42
 70
     1
102
RTVSPost2010Prop43
 90
        3
102
RTVSPost2010PropOp43
 70
     1
102
RTVSPost2010Prop44ColorIndex
 90
        5
102
RTVSPost2010Prop44ColorRGB
 90
      255
102
RTVSPost2010PropOp44
 70
     1
102
RTVSPost2010Prop45
280
     0
102
RTVSPost2010PropOp45
 70
     1
102
RTVSPost2010Prop46
 90
       50
102
RTVSPost2010PropOp46
 70
     1
102
RTVSPost2010Prop47
 90
       50
102
RTVSPost2010PropOp47
 70
     1
102
RTVSPost2010Prop48
 90
       50
102
RTVSPost2010PropOp48
 70
     1
102
RTVSPost2010Prop49
280
     0
102
RTVSPost2010PropOp49
 70
     1
102
RTVSPost2010Prop50
 90
       50
102
RTVSPost2010PropOp50
 70
     1
102
RTVSPost2010Prop51ColorIndex
 90
      256
102
RTVSPost2010Prop51ColorRGB
 90
-16777216
102
RTVSPost2010PropOp51
 70
     0
102
RTVSPost2010Prop52
140
1.0
102
RTVSPost2010PropOp52
 70
     0
102
RTVSPost2010Prop53
 90
        2
102
RTVSPost2010PropOp53
 70
     1
102
RTVSPost2010Prop54
  1
strokes_ogs.tif
102
RTVSPost2010PropOp54
 70
     1
102
RTVSPost2010Prop55
280
     0
102
RTVSPost2010PropOp55
 70
     1
102
RTVSPost2010Prop56
140
1.0
102
RTVSPost2010PropOp56
 70
     1
102
RTVSPost2010Prop57
140
1.0
102
RTVSPost2010PropOp57
 70
     1
102
RTVSPropertyOp0
 70
     1
102
RTVSPropertyOp1
 70
     1
102
RTVSPropertyOp2
 70
     1
102
RTVSPropertyOp3
 70
     1
102
RTVSPropertyOp4
 70
     1
102
RTVSPropertyOp5
 70
     1
102
RTVSPropertyOp6
 70
     1
102
RTVSPropertyOp7
 70
     1
102
RTVSPropertyOp8
 70
     1
102
RTVSPropertyOp9
 70
     1
102
RTVSPropertyOp10
 70
     1
102
RTVSPropertyOp11
 70
     1
102
RTVSPropertyOp12
 70
     1
102
RTVSPropertyOp13
 70
     1
102
RTVSPropertyOp14
 70
     1
102
RTVSPropertyOp15
 70
     1
102
RTVSPropertyOp16
 70
     1
102
RTVSPropertyOp17
 70
     1
102
RTVSPropertyOp18
 70
     1
102
RTVSPropertyOp19
 70
     1
102
RTVSPropertyOp20
 70
     1
102
RTVSPropertyOp21
 70
     1
102
RTVSPropertyOp22
 70
     1
102
RTVSPropertyOp23
 70
     1
102
RTVSPropertyOp24
 70
     1
102
RTVSPropertyOp25
 70
     1
102
RTVSPropertyOp26
 70
     1
102
RTVSPropertyOp27
 70
     1
102
RTVSPropertyOp28
 70
     1
102
RTVSPropertyOp29
 70
     1
102
RTVSPropertyOp30
 70
     1
102
RTVSPropertyOp31
 70
     1
102
RTVSPropertyOp32
 70
     1
102
RTVSPropertyOp33
 70
     1
102
RTVSPropertyOp34
 70
     1
102
RTVSPropertyOp35
 70
     1
102
RTVSPropertyOp36
 70
     1
102
RTVSPropertyOp37
 70
     1
102
RTVSPropertyOp38
 70
     1
102
RTVSPropertyOp39
 70
     1
102
RTVSPropertyOp40
 70
     1
102
RTVSPropertyOp41
 70
     1
102
RTVSPropertyOp42
 70
     1
102
RTVSPropertyOp43
 70
     1
102
RTVSPropertyOp44
 70
     1
102
RTVSPropertyOp45
 70
     1
102
RTVSPropertyOp46
 70
     1
102
RTVSPropertyOp47
 70
     1
102
RTVSPropertyOp48
 70
     1
102
RTVSPropertyOp49
 70
     1
102
RTVSPropertyOp50
 70
     1
102
RTVSPropertyOp51
 70
     0
102
RTVSPropertyOp52
 70
     0
102
RTVSPropertyOp53
 70
     1
102
RTVSPropertyOp54
 70
     1
102
RTVSPropertyOp55
 70
     1
102
RTVSPropertyOp56
 70
     1
102
RTVSPropertyOp57
 70
     1
102
RTVSPropertyOp58
 70
     1
102
RTVSPropertyOp59
 70
     1
102
RTVSPropertyOp60
 70
     1
102
RTVSPropertyOp61
 70
     1
102
RTVSPropertyOp62
 70
     1
  0
XRECORD
  5
5288
102
{ACAD_REACTORS
330
5287
102
}
330
5287
100
AcDbXrecord
280
     1
102
RTVSPost2010Prop28
280
     0
102
RTVSPost2010PropOp28
 70
     1
102
RTVSPost2010Prop29
280
     1
102
RTVSPost2010PropOp29
 70
     1
102
RTVSPost2010Prop30
280
     1
102
RTVSPost2010PropOp30
 70
     1
102
RTVSPost2010Prop31
280
     0
102
RTVSPost2010PropOp31
 70
     1
102
RTVSPost2010Prop32
280
     0
102
RTVSPost2010PropOp32
 70
     1
102
RTVSPost2010Prop33
280
     0
102
RTVSPost2010PropOp33
 70
     1
102
RTVSPost2010Prop34
280
     0
102
RTVSPost2010PropOp34
 70
     1
102
RTVSPost2010Prop35
280
     0
102
RTVSPost2010PropOp35
 70
     1
102
RTVSPost2010Prop36
280
     0
102
RTVSPost2010PropOp36
 70
     1
102
RTVSPost2010Prop37
 90
       50
102
RTVSPost2010PropOp37
 70
     1
102
RTVSPost2010Prop38
140
0.0
102
RTVSPost2010PropOp38
 70
     1
102
RTVSPost2010Prop39
140
1.0
102
RTVSPost2010PropOp39
 70
     1
102
RTVSPost2010Prop40
 90
        0
102
RTVSPost2010PropOp40
 70
     1
102
RTVSPost2010Prop41ColorIndex
 90
       18
102
RTVSPost2010Prop41ColorRGB
 90
        0
102
RTVSPost2010PropOp41
 70
     1
102
RTVSPost2010Prop42
 90
       50
102
RTVSPost2010PropOp42
 70
     1
102
RTVSPost2010Prop43
 90
        3
102
RTVSPost2010PropOp43
 70
     1
102
RTVSPost2010Prop44ColorIndex
 90
        5
102
RTVSPost2010Prop44ColorRGB
 90
      255
102
RTVSPost2010PropOp44
 70
     1
102
RTVSPost2010Prop45
280
     0
102
RTVSPost2010PropOp45
 70
     1
102
RTVSPost2010Prop46
 90
       50
102
RTVSPost2010PropOp46
 70
     1
102
RTVSPost2010Prop47
 90
       50
102
RTVSPost2010PropOp47
 70
     1
102
RTVSPost2010Prop48
 90
       50
102
RTVSPost2010PropOp48
 70
     1
102
RTVSPost2010Prop49
280
     0
102
RTVSPost2010PropOp49
 70
     1
102
RTVSPost2010Prop50
 90
       50
102
RTVSPost2010PropOp50
 70
     1
102
RTVSPost2010Prop51ColorIndex
 90
      256
102
RTVSPost2010Prop51ColorRGB
 90
-16777216
102
RTVSPost2010PropOp51
 70
     0
102
RTVSPost2010Prop52
140
1.0
102
RTVSPost2010PropOp52
 70
     0
102
RTVSPost2010Prop53
 90
        2
102
RTVSPost2010PropOp53
 70
     1
102
RTVSPost2010Prop54
  1
strokes_ogs.tif
102
RTVSPost2010PropOp54
 70
     1
102
RTVSPost2010Prop55
280
     0
102
RTVSPost2010PropOp55
 70
     1
102
RTVSPost2010Prop56
140
1.0
102
RTVSPost2010PropOp56
 70
     1
102
RTVSPost2010Prop57
140
1.0
102
RTVSPost2010PropOp57
 70
     1
102
RTVSPropertyOp0
 70
     1
102
RTVSPropertyOp1
 70
     1
102
RTVSPropertyOp2
 70
     1
102
RTVSPropertyOp3
 70
     1
102
RTVSPropertyOp4
 70
     1
102
RTVSPropertyOp5
 70
     1
102
RTVSPropertyOp6
 70
     1
102
RTVSPropertyOp7
 70
     1
102
RTVSPropertyOp8
 70
     1
102
RTVSPropertyOp9
 70
     1
102
RTVSPropertyOp10
 70
     1
102
RTVSPropertyOp11
 70
     1
102
RTVSPropertyOp12
 70
     1
102
RTVSPropertyOp13
 70
     1
102
RTVSPropertyOp14
 70
     1
102
RTVSPropertyOp15
 70
     1
102
RTVSPropertyOp16
 70
     1
102
RTVSPropertyOp17
 70
     1
102
RTVSPropertyOp18
 70
     1
102
RTVSPropertyOp19
 70
     1
102
RTVSPropertyOp20
 70
     1
102
RTVSPropertyOp21
 70
     1
102
RTVSPropertyOp22
 70
     1
102
RTVSPropertyOp23
 70
     1
102
RTVSPropertyOp24
 70
     1
102
RTVSPropertyOp25
 70
     1
102
RTVSPropertyOp26
 70
     1
102
RTVSPropertyOp27
 70
     1
102
RTVSPropertyOp28
 70
     1
102
RTVSPropertyOp29
 70
     1
102
RTVSPropertyOp30
 70
     1
102
RTVSPropertyOp31
 70
     1
102
RTVSPropertyOp32
 70
     1
102
RTVSPropertyOp33
 70
     1
102
RTVSPropertyOp34
 70
     1
102
RTVSPropertyOp35
 70
     1
102
RTVSPropertyOp36
 70
     1
102
RTVSPropertyOp37
 70
     1
102
RTVSPropertyOp38
 70
     1
102
RTVSPropertyOp39
 70
     1
102
RTVSPropertyOp40
 70
     1
102
RTVSPropertyOp41
 70
     1
102
RTVSPropertyOp42
 70
     1
102
RTVSPropertyOp43
 70
     1
102
RTVSPropertyOp44
 70
     1
102
RTVSPropertyOp45
 70
     1
102
RTVSPropertyOp46
 70
     1
102
RTVSPropertyOp47
 70
     1
102
RTVSPropertyOp48
 70
     1
102
RTVSPropertyOp49
 70
     1
102
RTVSPropertyOp50
 70
     1
102
RTVSPropertyOp51
 70
     0
102
RTVSPropertyOp52
 70
     0
102
RTVSPropertyOp53
 70
     1
102
RTVSPropertyOp54
 70
     1
102
RTVSPropertyOp55
 70
     1
102
RTVSPropertyOp56
 70
     1
102
RTVSPropertyOp57
 70
     1
102
RTVSPropertyOp58
 70
     1
102
RTVSPropertyOp59
 70
     1
102
RTVSPropertyOp60
 70
     1
102
RTVSPropertyOp61
 70
     1
102
RTVSPropertyOp62
 70
     1
  0
XRECORD
  5
5296
102
{ACAD_REACTORS
330
5295
102
}
330
5295
100
AcDbXrecord
280
     1
102
RTVSPost2010Prop28
280
     0
102
RTVSPost2010PropOp28
 70
     1
102
RTVSPost2010Prop29
280
     1
102
RTVSPost2010PropOp29
 70
     1
102
RTVSPost2010Prop30
280
     1
102
RTVSPost2010PropOp30
 70
     1
102
RTVSPost2010Prop31
280
     0
102
RTVSPost2010PropOp31
 70
     1
102
RTVSPost2010Prop32
280
     0
102
RTVSPost2010PropOp32
 70
     1
102
RTVSPost2010Prop33
280
     0
102
RTVSPost2010PropOp33
 70
     1
102
RTVSPost2010Prop34
280
     0
102
RTVSPost2010PropOp34
 70
     1
102
RTVSPost2010Prop35
280
     0
102
RTVSPost2010PropOp35
 70
     1
102
RTVSPost2010Prop36
280
     0
102
RTVSPost2010PropOp36
 70
     1
102
RTVSPost2010Prop37
 90
       50
102
RTVSPost2010PropOp37
 70
     1
102
RTVSPost2010Prop38
140
0.0
102
RTVSPost2010PropOp38
 70
     1
102
RTVSPost2010Prop39
140
1.0
102
RTVSPost2010PropOp39
 70
     1
102
RTVSPost2010Prop40
 90
        0
102
RTVSPost2010PropOp40
 70
     1
102
RTVSPost2010Prop41ColorIndex
 90
       18
102
RTVSPost2010Prop41ColorRGB
 90
        0
102
RTVSPost2010PropOp41
 70
     1
102
RTVSPost2010Prop42
 90
       50
102
RTVSPost2010PropOp42
 70
     1
102
RTVSPost2010Prop43
 90
        3
102
RTVSPost2010PropOp43
 70
     1
102
RTVSPost2010Prop44ColorIndex
 90
        5
102
RTVSPost2010Prop44ColorRGB
 90
      255
102
RTVSPost2010PropOp44
 70
     1
102
RTVSPost2010Prop45
280
     0
102
RTVSPost2010PropOp45
 70
     1
102
RTVSPost2010Prop46
 90
       50
102
RTVSPost2010PropOp46
 70
     1
102
RTVSPost2010Prop47
 90
       50
102
RTVSPost2010PropOp47
 70
     1
102
RTVSPost2010Prop48
 90
       50
102
RTVSPost2010PropOp48
 70
     1
102
RTVSPost2010Prop49
280
     0
102
RTVSPost2010PropOp49
 70
     1
102
RTVSPost2010Prop50
 90
       50
102
RTVSPost2010PropOp50
 70
     1
102
RTVSPost2010Prop51ColorIndex
 90
      256
102
RTVSPost2010Prop51ColorRGB
 90
-16777216
102
RTVSPost2010PropOp51
 70
     0
102
RTVSPost2010Prop52
140
1.0
102
RTVSPost2010PropOp52
 70
     0
102
RTVSPost2010Prop53
 90
        2
102
RTVSPost2010PropOp53
 70
     1
102
RTVSPost2010Prop54
  1
strokes_ogs.tif
102
RTVSPost2010PropOp54
 70
     1
102
RTVSPost2010Prop55
280
     0
102
RTVSPost2010PropOp55
 70
     1
102
RTVSPost2010Prop56
140
1.0
102
RTVSPost2010PropOp56
 70
     1
102
RTVSPost2010Prop57
140
1.0
102
RTVSPost2010PropOp57
 70
     1
102
RTVSPropertyOp0
 70
     1
102
RTVSPropertyOp1
 70
     1
102
RTVSPropertyOp2
 70
     1
102
RTVSPropertyOp3
 70
     1
102
RTVSPropertyOp4
 70
     1
102
RTVSPropertyOp5
 70
     1
102
RTVSPropertyOp6
 70
     1
102
RTVSPropertyOp7
 70
     1
102
RTVSPropertyOp8
 70
     1
102
RTVSPropertyOp9
 70
     1
102
RTVSPropertyOp10
 70
     1
102
RTVSPropertyOp11
 70
     1
102
RTVSPropertyOp12
 70
     1
102
RTVSPropertyOp13
 70
     1
102
RTVSPropertyOp14
 70
     1
102
RTVSPropertyOp15
 70
     1
102
RTVSPropertyOp16
 70
     1
102
RTVSPropertyOp17
 70
     1
102
RTVSPropertyOp18
 70
     1
102
RTVSPropertyOp19
 70
     1
102
RTVSPropertyOp20
 70
     1
102
RTVSPropertyOp21
 70
     1
102
RTVSPropertyOp22
 70
     1
102
RTVSPropertyOp23
 70
     1
102
RTVSPropertyOp24
 70
     1
102
RTVSPropertyOp25
 70
     1
102
RTVSPropertyOp26
 70
     1
102
RTVSPropertyOp27
 70
     1
102
RTVSPropertyOp28
 70
     1
102
RTVSPropertyOp29
 70
     1
102
RTVSPropertyOp30
 70
     1
102
RTVSPropertyOp31
 70
     1
102
RTVSPropertyOp32
 70
     1
102
RTVSPropertyOp33
 70
     1
102
RTVSPropertyOp34
 70
     1
102
RTVSPropertyOp35
 70
     1
102
RTVSPropertyOp36
 70
     1
102
RTVSPropertyOp37
 70
     1
102
RTVSPropertyOp38
 70
     1
102
RTVSPropertyOp39
 70
     1
102
RTVSPropertyOp40
 70
     1
102
RTVSPropertyOp41
 70
     1
102
RTVSPropertyOp42
 70
     1
102
RTVSPropertyOp43
 70
     1
102
RTVSPropertyOp44
 70
     1
102
RTVSPropertyOp45
 70
     1
102
RTVSPropertyOp46
 70
     1
102
RTVSPropertyOp47
 70
     1
102
RTVSPropertyOp48
 70
     1
102
RTVSPropertyOp49
 70
     1
102
RTVSPropertyOp50
 70
     1
102
RTVSPropertyOp51
 70
     0
102
RTVSPropertyOp52
 70
     0
102
RTVSPropertyOp53
 70
     1
102
RTVSPropertyOp54
 70
     1
102
RTVSPropertyOp55
 70
     1
102
RTVSPropertyOp56
 70
     1
102
RTVSPropertyOp57
 70
     1
102
RTVSPropertyOp58
 70
     1
102
RTVSPropertyOp59
 70
     1
102
RTVSPropertyOp60
 70
     1
102
RTVSPropertyOp61
 70
     1
102
RTVSPropertyOp62
 70
     1
  0
XRECORD
  5
529E
102
{ACAD_REACTORS
330
529D
102
}
330
529D
100
AcDbXrecord
280
     1
102
RTVSPost2010Prop28
280
     0
102
RTVSPost2010PropOp28
 70
     1
102
RTVSPost2010Prop29
280
     1
102
RTVSPost2010PropOp29
 70
     1
102
RTVSPost2010Prop30
280
     1
102
RTVSPost2010PropOp30
 70
     1
102
RTVSPost2010Prop31
280
     0
102
RTVSPost2010PropOp31
 70
     1
102
RTVSPost2010Prop32
280
     0
102
RTVSPost2010PropOp32
 70
     1
102
RTVSPost2010Prop33
280
     0
102
RTVSPost2010PropOp33
 70
     1
102
RTVSPost2010Prop34
280
     0
102
RTVSPost2010PropOp34
 70
     1
102
RTVSPost2010Prop35
280
     0
102
RTVSPost2010PropOp35
 70
     1
102
RTVSPost2010Prop36
280
     0
102
RTVSPost2010PropOp36
 70
     1
102
RTVSPost2010Prop37
 90
       50
102
RTVSPost2010PropOp37
 70
     1
102
RTVSPost2010Prop38
140
0.0
102
RTVSPost2010PropOp38
 70
     1
102
RTVSPost2010Prop39
140
1.0
102
RTVSPost2010PropOp39
 70
     1
102
RTVSPost2010Prop40
 90
        0
102
RTVSPost2010PropOp40
 70
     1
102
RTVSPost2010Prop41ColorIndex
 90
       18
102
RTVSPost2010Prop41ColorRGB
 90
        0
102
RTVSPost2010PropOp41
 70
     1
102
RTVSPost2010Prop42
 90
       50
102
RTVSPost2010PropOp42
 70
     1
102
RTVSPost2010Prop43
 90
        3
102
RTVSPost2010PropOp43
 70
     1
102
RTVSPost2010Prop44ColorIndex
 90
        5
102
RTVSPost2010Prop44ColorRGB
 90
      255
102
RTVSPost2010PropOp44
 70
     1
102
RTVSPost2010Prop45
280
     0
102
RTVSPost2010PropOp45
 70
     1
102
RTVSPost2010Prop46
 90
       50
102
RTVSPost2010PropOp46
 70
     1
102
RTVSPost2010Prop47
 90
       50
102
RTVSPost2010PropOp47
 70
     1
102
RTVSPost2010Prop48
 90
       50
102
RTVSPost2010PropOp48
 70
     1
102
RTVSPost2010Prop49
280
     0
102
RTVSPost2010PropOp49
 70
     1
102
RTVSPost2010Prop50
 90
       50
102
RTVSPost2010PropOp50
 70
     1
102
RTVSPost2010Prop51ColorIndex
 90
      256
102
RTVSPost2010Prop51ColorRGB
 90
-16777216
102
RTVSPost2010PropOp51
 70
     0
102
RTVSPost2010Prop52
140
1.0
102
RTVSPost2010PropOp52
 70
     0
102
RTVSPost2010Prop53
 90
        2
102
RTVSPost2010PropOp53
 70
     1
102
RTVSPost2010Prop54
  1
strokes_ogs.tif
102
RTVSPost2010PropOp54
 70
     1
102
RTVSPost2010Prop55
280
     0
102
RTVSPost2010PropOp55
 70
     1
102
RTVSPost2010Prop56
140
1.0
102
RTVSPost2010PropOp56
 70
     1
102
RTVSPost2010Prop57
140
1.0
102
RTVSPost2010PropOp57
 70
     1
102
RTVSPropertyOp0
 70
     1
102
RTVSPropertyOp1
 70
     1
102
RTVSPropertyOp2
 70
     1
102
RTVSPropertyOp3
 70
     1
102
RTVSPropertyOp4
 70
     1
102
RTVSPropertyOp5
 70
     1
102
RTVSPropertyOp6
 70
     1
102
RTVSPropertyOp7
 70
     1
102
RTVSPropertyOp8
 70
     1
102
RTVSPropertyOp9
 70
     1
102
RTVSPropertyOp10
 70
     1
102
RTVSPropertyOp11
 70
     1
102
RTVSPropertyOp12
 70
     1
102
RTVSPropertyOp13
 70
     1
102
RTVSPropertyOp14
 70
     1
102
RTVSPropertyOp15
 70
     1
102
RTVSPropertyOp16
 70
     1
102
RTVSPropertyOp17
 70
     1
102
RTVSPropertyOp18
 70
     1
102
RTVSPropertyOp19
 70
     1
102
RTVSPropertyOp20
 70
     1
102
RTVSPropertyOp21
 70
     1
102
RTVSPropertyOp22
 70
     1
102
RTVSPropertyOp23
 70
     1
102
RTVSPropertyOp24
 70
     1
102
RTVSPropertyOp25
 70
     1
102
RTVSPropertyOp26
 70
     1
102
RTVSPropertyOp27
 70
     1
102
RTVSPropertyOp28
 70
     1
102
RTVSPropertyOp29
 70
     1
102
RTVSPropertyOp30
 70
     1
102
RTVSPropertyOp31
 70
     1
102
RTVSPropertyOp32
 70
     1
102
RTVSPropertyOp33
 70
     1
102
RTVSPropertyOp34
 70
     1
102
RTVSPropertyOp35
 70
     1
102
RTVSPropertyOp36
 70
     1
102
RTVSPropertyOp37
 70
     1
102
RTVSPropertyOp38
 70
     1
102
RTVSPropertyOp39
 70
     1
102
RTVSPropertyOp40
 70
     1
102
RTVSPropertyOp41
 70
     1
102
RTVSPropertyOp42
 70
     1
102
RTVSPropertyOp43
 70
     1
102
RTVSPropertyOp44
 70
     1
102
RTVSPropertyOp45
 70
     1
102
RTVSPropertyOp46
 70
     1
102
RTVSPropertyOp47
 70
     1
102
RTVSPropertyOp48
 70
     1
102
RTVSPropertyOp49
 70
     1
102
RTVSPropertyOp50
 70
     1
102
RTVSPropertyOp51
 70
     0
102
RTVSPropertyOp52
 70
     0
102
RTVSPropertyOp53
 70
     1
102
RTVSPropertyOp54
 70
     1
102
RTVSPropertyOp55
 70
     1
102
RTVSPropertyOp56
 70
     1
102
RTVSPropertyOp57
 70
     1
102
RTVSPropertyOp58
 70
     1
102
RTVSPropertyOp59
 70
     1
102
RTVSPropertyOp60
 70
     1
102
RTVSPropertyOp61
 70
     1
102
RTVSPropertyOp62
 70
     1
  0
XRECORD
  5
5290
102
{ACAD_REACTORS
330
528F
102
}
330
528F
100
AcDbXrecord
280
     1
102
RTVSPost2010Prop28
280
     0
102
RTVSPost2010PropOp28
 70
     1
102
RTVSPost2010Prop29
280
     1
102
RTVSPost2010PropOp29
 70
     1
102
RTVSPost2010Prop30
280
     1
102
RTVSPost2010PropOp30
 70
     1
102
RTVSPost2010Prop31
280
     0
102
RTVSPost2010PropOp31
 70
     1
102
RTVSPost2010Prop32
280
     0
102
RTVSPost2010PropOp32
 70
     1
102
RTVSPost2010Prop33
280
     0
102
RTVSPost2010PropOp33
 70
     1
102
RTVSPost2010Prop34
280
     0
102
RTVSPost2010PropOp34
 70
     1
102
RTVSPost2010Prop35
280
     0
102
RTVSPost2010PropOp35
 70
     1
102
RTVSPost2010Prop36
280
     0
102
RTVSPost2010PropOp36
 70
     1
102
RTVSPost2010Prop37
 90
       50
102
RTVSPost2010PropOp37
 70
     1
102
RTVSPost2010Prop38
140
0.0
102
RTVSPost2010PropOp38
 70
     1
102
RTVSPost2010Prop39
140
1.0
102
RTVSPost2010PropOp39
 70
     1
102
RTVSPost2010Prop40
 90
        0
102
RTVSPost2010PropOp40
 70
     1
102
RTVSPost2010Prop41ColorIndex
 90
       18
102
RTVSPost2010Prop41ColorRGB
 90
        0
102
RTVSPost2010PropOp41
 70
     1
102
RTVSPost2010Prop42
 90
       50
102
RTVSPost2010PropOp42
 70
     1
102
RTVSPost2010Prop43
 90
        3
102
RTVSPost2010PropOp43
 70
     1
102
RTVSPost2010Prop44ColorIndex
 90
        5
102
RTVSPost2010Prop44ColorRGB
 90
      255
102
RTVSPost2010PropOp44
 70
     1
102
RTVSPost2010Prop45
280
     0
102
RTVSPost2010PropOp45
 70
     1
102
RTVSPost2010Prop46
 90
       50
102
RTVSPost2010PropOp46
 70
     1
102
RTVSPost2010Prop47
 90
       50
102
RTVSPost2010PropOp47
 70
     1
102
RTVSPost2010Prop48
 90
       50
102
RTVSPost2010PropOp48
 70
     1
102
RTVSPost2010Prop49
280
     0
102
RTVSPost2010PropOp49
 70
     1
102
RTVSPost2010Prop50
 90
       50
102
RTVSPost2010PropOp50
 70
     1
102
RTVSPost2010Prop51ColorIndex
 90
      256
102
RTVSPost2010Prop51ColorRGB
 90
-16777216
102
RTVSPost2010PropOp51
 70
     0
102
RTVSPost2010Prop52
140
1.0
102
RTVSPost2010PropOp52
 70
     0
102
RTVSPost2010Prop53
 90
        2
102
RTVSPost2010PropOp53
 70
     1
102
RTVSPost2010Prop54
  1
strokes_ogs.tif
102
RTVSPost2010PropOp54
 70
     1
102
RTVSPost2010Prop55
280
     0
102
RTVSPost2010PropOp55
 70
     1
102
RTVSPost2010Prop56
140
1.0
102
RTVSPost2010PropOp56
 70
     1
102
RTVSPost2010Prop57
140
1.0
102
RTVSPost2010PropOp57
 70
     1
102
RTVSPropertyOp0
 70
     1
102
RTVSPropertyOp1
 70
     1
102
RTVSPropertyOp2
 70
     1
102
RTVSPropertyOp3
 70
     1
102
RTVSPropertyOp4
 70
     1
102
RTVSPropertyOp5
 70
     1
102
RTVSPropertyOp6
 70
     1
102
RTVSPropertyOp7
 70
     1
102
RTVSPropertyOp8
 70
     1
102
RTVSPropertyOp9
 70
     1
102
RTVSPropertyOp10
 70
     1
102
RTVSPropertyOp11
 70
     1
102
RTVSPropertyOp12
 70
     1
102
RTVSPropertyOp13
 70
     1
102
RTVSPropertyOp14
 70
     1
102
RTVSPropertyOp15
 70
     1
102
RTVSPropertyOp16
 70
     1
102
RTVSPropertyOp17
 70
     1
102
RTVSPropertyOp18
 70
     1
102
RTVSPropertyOp19
 70
     1
102
RTVSPropertyOp20
 70
     1
102
RTVSPropertyOp21
 70
     1
102
RTVSPropertyOp22
 70
     1
102
RTVSPropertyOp23
 70
     1
102
RTVSPropertyOp24
 70
     1
102
RTVSPropertyOp25
 70
     1
102
RTVSPropertyOp26
 70
     1
102
RTVSPropertyOp27
 70
     1
102
RTVSPropertyOp28
 70
     1
102
RTVSPropertyOp29
 70
     1
102
RTVSPropertyOp30
 70
     1
102
RTVSPropertyOp31
 70
     1
102
RTVSPropertyOp32
 70
     1
102
RTVSPropertyOp33
 70
     1
102
RTVSPropertyOp34
 70
     1
102
RTVSPropertyOp35
 70
     1
102
RTVSPropertyOp36
 70
     1
102
RTVSPropertyOp37
 70
     1
102
RTVSPropertyOp38
 70
     1
102
RTVSPropertyOp39
 70
     1
102
RTVSPropertyOp40
 70
     1
102
RTVSPropertyOp41
 70
     1
102
RTVSPropertyOp42
 70
     1
102
RTVSPropertyOp43
 70
     1
102
RTVSPropertyOp44
 70
     1
102
RTVSPropertyOp45
 70
     1
102
RTVSPropertyOp46
 70
     1
102
RTVSPropertyOp47
 70
     1
102
RTVSPropertyOp48
 70
     1
102
RTVSPropertyOp49
 70
     1
102
RTVSPropertyOp50
 70
     1
102
RTVSPropertyOp51
 70
     0
102
RTVSPropertyOp52
 70
     0
102
RTVSPropertyOp53
 70
     1
102
RTVSPropertyOp54
 70
     1
102
RTVSPropertyOp55
 70
     1
102
RTVSPropertyOp56
 70
     1
102
RTVSPropertyOp57
 70
     1
102
RTVSPropertyOp58
 70
     1
102
RTVSPropertyOp59
 70
     1
102
RTVSPropertyOp60
 70
     1
102
RTVSPropertyOp61
 70
     1
102
RTVSPropertyOp62
 70
     1
  0
XRECORD
  5
5294
102
{ACAD_REACTORS
330
5293
102
}
330
5293
100
AcDbXrecord
280
     1
102
RTVSPost2010Prop28
280
     0
102
RTVSPost2010PropOp28
 70
     1
102
RTVSPost2010Prop29
280
     1
102
RTVSPost2010PropOp29
 70
     1
102
RTVSPost2010Prop30
280
     1
102
RTVSPost2010PropOp30
 70
     1
102
RTVSPost2010Prop31
280
     0
102
RTVSPost2010PropOp31
 70
     1
102
RTVSPost2010Prop32
280
     0
102
RTVSPost2010PropOp32
 70
     1
102
RTVSPost2010Prop33
280
     0
102
RTVSPost2010PropOp33
 70
     1
102
RTVSPost2010Prop34
280
     0
102
RTVSPost2010PropOp34
 70
     1
102
RTVSPost2010Prop35
280
     0
102
RTVSPost2010PropOp35
 70
     1
102
RTVSPost2010Prop36
280
     0
102
RTVSPost2010PropOp36
 70
     1
102
RTVSPost2010Prop37
 90
       50
102
RTVSPost2010PropOp37
 70
     1
102
RTVSPost2010Prop38
140
0.0
102
RTVSPost2010PropOp38
 70
     1
102
RTVSPost2010Prop39
140
1.0
102
RTVSPost2010PropOp39
 70
     1
102
RTVSPost2010Prop40
 90
        0
102
RTVSPost2010PropOp40
 70
     1
102
RTVSPost2010Prop41ColorIndex
 90
       18
102
RTVSPost2010Prop41ColorRGB
 90
        0
102
RTVSPost2010PropOp41
 70
     1
102
RTVSPost2010Prop42
 90
       50
102
RTVSPost2010PropOp42
 70
     1
102
RTVSPost2010Prop43
 90
        3
102
RTVSPost2010PropOp43
 70
     1
102
RTVSPost2010Prop44ColorIndex
 90
        5
102
RTVSPost2010Prop44ColorRGB
 90
      255
102
RTVSPost2010PropOp44
 70
     1
102
RTVSPost2010Prop45
280
     0
102
RTVSPost2010PropOp45
 70
     1
102
RTVSPost2010Prop46
 90
       50
102
RTVSPost2010PropOp46
 70
     1
102
RTVSPost2010Prop47
 90
       50
102
RTVSPost2010PropOp47
 70
     1
102
RTVSPost2010Prop48
 90
       50
102
RTVSPost2010PropOp48
 70
     1
102
RTVSPost2010Prop49
280
     0
102
RTVSPost2010PropOp49
 70
     1
102
RTVSPost2010Prop50
 90
       50
102
RTVSPost2010PropOp50
 70
     1
102
RTVSPost2010Prop51ColorIndex
 90
      256
102
RTVSPost2010Prop51ColorRGB
 90
-16777216
102
RTVSPost2010PropOp51
 70
     0
102
RTVSPost2010Prop52
140
1.0
102
RTVSPost2010PropOp52
 70
     0
102
RTVSPost2010Prop53
 90
        2
102
RTVSPost2010PropOp53
 70
     1
102
RTVSPost2010Prop54
  1
strokes_ogs.tif
102
RTVSPost2010PropOp54
 70
     1
102
RTVSPost2010Prop55
280
     0
102
RTVSPost2010PropOp55
 70
     1
102
RTVSPost2010Prop56
140
1.0
102
RTVSPost2010PropOp56
 70
     1
102
RTVSPost2010Prop57
140
1.0
102
RTVSPost2010PropOp57
 70
     1
102
RTVSPropertyOp0
 70
     1
102
RTVSPropertyOp1
 70
     1
102
RTVSPropertyOp2
 70
     1
102
RTVSPropertyOp3
 70
     1
102
RTVSPropertyOp4
 70
     1
102
RTVSPropertyOp5
 70
     1
102
RTVSPropertyOp6
 70
     1
102
RTVSPropertyOp7
 70
     1
102
RTVSPropertyOp8
 70
     1
102
RTVSPropertyOp9
 70
     1
102
RTVSPropertyOp10
 70
     1
102
RTVSPropertyOp11
 70
     1
102
RTVSPropertyOp12
 70
     1
102
RTVSPropertyOp13
 70
     1
102
RTVSPropertyOp14
 70
     1
102
RTVSPropertyOp15
 70
     1
102
RTVSPropertyOp16
 70
     1
102
RTVSPropertyOp17
 70
     1
102
RTVSPropertyOp18
 70
     1
102
RTVSPropertyOp19
 70
     1
102
RTVSPropertyOp20
 70
     1
102
RTVSPropertyOp21
 70
     1
102
RTVSPropertyOp22
 70
     1
102
RTVSPropertyOp23
 70
     1
102
RTVSPropertyOp24
 70
     1
102
RTVSPropertyOp25
 70
     1
102
RTVSPropertyOp26
 70
     1
102
RTVSPropertyOp27
 70
     1
102
RTVSPropertyOp28
 70
     1
102
RTVSPropertyOp29
 70
     1
102
RTVSPropertyOp30
 70
     1
102
RTVSPropertyOp31
 70
     1
102
RTVSPropertyOp32
 70
     1
102
RTVSPropertyOp33
 70
     1
102
RTVSPropertyOp34
 70
     1
102
RTVSPropertyOp35
 70
     1
102
RTVSPropertyOp36
 70
     1
102
RTVSPropertyOp37
 70
     1
102
RTVSPropertyOp38
 70
     1
102
RTVSPropertyOp39
 70
     1
102
RTVSPropertyOp40
 70
     1
102
RTVSPropertyOp41
 70
     1
102
RTVSPropertyOp42
 70
     1
102
RTVSPropertyOp43
 70
     1
102
RTVSPropertyOp44
 70
     1
102
RTVSPropertyOp45
 70
     1
102
RTVSPropertyOp46
 70
     1
102
RTVSPropertyOp47
 70
     1
102
RTVSPropertyOp48
 70
     1
102
RTVSPropertyOp49
 70
     1
102
RTVSPropertyOp50
 70
     1
102
RTVSPropertyOp51
 70
     0
102
RTVSPropertyOp52
 70
     0
102
RTVSPropertyOp53
 70
     1
102
RTVSPropertyOp54
 70
     1
102
RTVSPropertyOp55
 70
     1
102
RTVSPropertyOp56
 70
     1
102
RTVSPropertyOp57
 70
     1
102
RTVSPropertyOp58
 70
     1
102
RTVSPropertyOp59
 70
     1
102
RTVSPropertyOp60
 70
     1
102
RTVSPropertyOp61
 70
     1
102
RTVSPropertyOp62
 70
     1
  0
XRECORD
  5
52AE
102
{ACAD_REACTORS
330
52AD
102
}
330
52AD
100
AcDbXrecord
280
     1
102
RTVSPost2010Prop28
280
     0
102
RTVSPost2010PropOp28
 70
     0
102
RTVSPost2010Prop29
280
     1
102
RTVSPost2010PropOp29
 70
     0
102
RTVSPost2010Prop30
280
     1
102
RTVSPost2010PropOp30
 70
     0
102
RTVSPost2010Prop31
280
     0
102
RTVSPost2010PropOp31
 70
     0
102
RTVSPost2010Prop32
280
     0
102
RTVSPost2010PropOp32
 70
     0
102
RTVSPost2010Prop33
280
     0
102
RTVSPost2010PropOp33
 70
     0
102
RTVSPost2010Prop34
280
     0
102
RTVSPost2010PropOp34
 70
     0
102
RTVSPost2010Prop35
280
     0
102
RTVSPost2010PropOp35
 70
     0
102
RTVSPost2010Prop36
280
     0
102
RTVSPost2010PropOp36
 70
     0
102
RTVSPost2010Prop37
 90
       50
102
RTVSPost2010PropOp37
 70
     0
102
RTVSPost2010Prop38
140
0.0
102
RTVSPost2010PropOp38
 70
     0
102
RTVSPost2010Prop39
140
1.0
102
RTVSPost2010PropOp39
 70
     0
102
RTVSPost2010Prop40
 90
        0
102
RTVSPost2010PropOp40
 70
     0
102
RTVSPost2010Prop41ColorIndex
 90
       18
102
RTVSPost2010Prop41ColorRGB
 90
        0
102
RTVSPost2010PropOp41
 70
     0
102
RTVSPost2010Prop42
 90
       50
102
RTVSPost2010PropOp42
 70
     0
102
RTVSPost2010Prop43
 90
        3
102
RTVSPost2010PropOp43
 70
     0
102
RTVSPost2010Prop44ColorIndex
 90
        5
102
RTVSPost2010Prop44ColorRGB
 90
      255
102
RTVSPost2010PropOp44
 70
     0
102
RTVSPost2010Prop45
280
     0
102
RTVSPost2010PropOp45
 70
     0
102
RTVSPost2010Prop46
 90
       50
102
RTVSPost2010PropOp46
 70
     0
102
RTVSPost2010Prop47
 90
       50
102
RTVSPost2010PropOp47
 70
     0
102
RTVSPost2010Prop48
 90
       50
102
RTVSPost2010PropOp48
 70
     0
102
RTVSPost2010Prop49
280
     0
102
RTVSPost2010PropOp49
 70
     0
102
RTVSPost2010Prop50
 90
       50
102
RTVSPost2010PropOp50
 70
     0
102
RTVSPost2010Prop51ColorIndex
 90
      256
102
RTVSPost2010Prop51ColorRGB
 90
-16777216
102
RTVSPost2010PropOp51
 70
     0
102
RTVSPost2010Prop52
140
1.0
102
RTVSPost2010PropOp52
 70
     0
102
RTVSPost2010Prop53
 90
        2
102
RTVSPost2010PropOp53
 70
     0
102
RTVSPost2010Prop54
  1
strokes_ogs.tif
102
RTVSPost2010PropOp54
 70
     0
102
RTVSPost2010Prop55
280
     0
102
RTVSPost2010PropOp55
 70
     0
102
RTVSPost2010Prop56
140
1.0
102
RTVSPost2010PropOp56
 70
     0
102
RTVSPost2010Prop57
140
1.0
102
RTVSPost2010PropOp57
 70
     0
102
RTVSPropertyOp0
 70
     0
102
RTVSPropertyOp1
 70
     0
102
RTVSPropertyOp2
 70
     0
102
RTVSPropertyOp3
 70
     0
102
RTVSPropertyOp4
 70
     0
102
RTVSPropertyOp5
 70
     0
102
RTVSPropertyOp6
 70
     0
102
RTVSPropertyOp7
 70
     0
102
RTVSPropertyOp8
 70
     0
102
RTVSPropertyOp9
 70
     0
102
RTVSPropertyOp10
 70
     0
102
RTVSPropertyOp11
 70
     0
102
RTVSPropertyOp12
 70
     0
102
RTVSPropertyOp13
 70
     0
102
RTVSPropertyOp14
 70
     2
102
RTVSPropertyOp15
 70
     0
102
RTVSPropertyOp16
 70
     0
102
RTVSPropertyOp17
 70
     0
102
RTVSPropertyOp18
 70
     0
102
RTVSPropertyOp19
 70
     0
102
RTVSPropertyOp20
 70
     0
102
RTVSPropertyOp21
 70
     0
102
RTVSPropertyOp22
 70
     0
102
RTVSPropertyOp23
 70
     0
102
RTVSPropertyOp24
 70
     0
102
RTVSPropertyOp25
 70
     0
102
RTVSPropertyOp26
 70
     0
102
RTVSPropertyOp27
 70
     0
102
RTVSPropertyOp28
 70
     0
102
RTVSPropertyOp29
 70
     0
102
RTVSPropertyOp30
 70
     0
102
RTVSPropertyOp31
 70
     0
102
RTVSPropertyOp32
 70
     0
102
RTVSPropertyOp33
 70
     0
102
RTVSPropertyOp34
 70
     0
102
RTVSPropertyOp35
 70
     0
102
RTVSPropertyOp36
 70
     0
102
RTVSPropertyOp37
 70
     0
102
RTVSPropertyOp38
 70
     0
102
RTVSPropertyOp39
 70
     0
102
RTVSPropertyOp40
 70
     0
102
RTVSPropertyOp41
 70
     0
102
RTVSPropertyOp42
 70
     0
102
RTVSPropertyOp43
 70
     0
102
RTVSPropertyOp44
 70
     0
102
RTVSPropertyOp45
 70
     0
102
RTVSPropertyOp46
 70
     0
102
RTVSPropertyOp47
 70
     0
102
RTVSPropertyOp48
 70
     0
102
RTVSPropertyOp49
 70
     0
102
RTVSPropertyOp50
 70
     0
102
RTVSPropertyOp51
 70
     0
102
RTVSPropertyOp52
 70
     0
102
RTVSPropertyOp53
 70
     0
102
RTVSPropertyOp54
 70
     0
102
RTVSPropertyOp55
 70
     0
102
RTVSPropertyOp56
 70
     0
102
RTVSPropertyOp57
 70
     0
102
RTVSPropertyOp58
 70
     1
102
RTVSPropertyOp59
 70
     1
102
RTVSPropertyOp60
 70
     1
102
RTVSPropertyOp61
 70
     1
102
RTVSPropertyOp62
 70
     1
  0
XRECORD
  5
529C
102
{ACAD_REACTORS
330
529B
102
}
330
529B
100
AcDbXrecord
280
     1
102
RTVSPost2010Prop28
280
     0
102
RTVSPost2010PropOp28
 70
     1
102
RTVSPost2010Prop29
280
     1
102
RTVSPost2010PropOp29
 70
     1
102
RTVSPost2010Prop30
280
     1
102
RTVSPost2010PropOp30
 70
     1
102
RTVSPost2010Prop31
280
     0
102
RTVSPost2010PropOp31
 70
     1
102
RTVSPost2010Prop32
280
     0
102
RTVSPost2010PropOp32
 70
     1
102
RTVSPost2010Prop33
280
     0
102
RTVSPost2010PropOp33
 70
     1
102
RTVSPost2010Prop34
280
     0
102
RTVSPost2010PropOp34
 70
     1
102
RTVSPost2010Prop35
280
     0
102
RTVSPost2010PropOp35
 70
     1
102
RTVSPost2010Prop36
280
     0
102
RTVSPost2010PropOp36
 70
     1
102
RTVSPost2010Prop37
 90
       50
102
RTVSPost2010PropOp37
 70
     1
102
RTVSPost2010Prop38
140
0.0
102
RTVSPost2010PropOp38
 70
     1
102
RTVSPost2010Prop39
140
1.0
102
RTVSPost2010PropOp39
 70
     1
102
RTVSPost2010Prop40
 90
        0
102
RTVSPost2010PropOp40
 70
     1
102
RTVSPost2010Prop41ColorIndex
 90
       18
102
RTVSPost2010Prop41ColorRGB
 90
        0
102
RTVSPost2010PropOp41
 70
     1
102
RTVSPost2010Prop42
 90
       50
102
RTVSPost2010PropOp42
 70
     1
102
RTVSPost2010Prop43
 90
        3
102
RTVSPost2010PropOp43
 70
     1
102
RTVSPost2010Prop44ColorIndex
 90
        5
102
RTVSPost2010Prop44ColorRGB
 90
      255
102
RTVSPost2010PropOp44
 70
     1
102
RTVSPost2010Prop45
280
     0
102
RTVSPost2010PropOp45
 70
     1
102
RTVSPost2010Prop46
 90
       50
102
RTVSPost2010PropOp46
 70
     1
102
RTVSPost2010Prop47
 90
       50
102
RTVSPost2010PropOp47
 70
     1
102
RTVSPost2010Prop48
 90
       50
102
RTVSPost2010PropOp48
 70
     1
102
RTVSPost2010Prop49
280
     0
102
RTVSPost2010PropOp49
 70
     1
102
RTVSPost2010Prop50
 90
       50
102
RTVSPost2010PropOp50
 70
     1
102
RTVSPost2010Prop51ColorIndex
 90
      256
102
RTVSPost2010Prop51ColorRGB
 90
-16777216
102
RTVSPost2010PropOp51
 70
     0
102
RTVSPost2010Prop52
140
1.0
102
RTVSPost2010PropOp52
 70
     0
102
RTVSPost2010Prop53
 90
        2
102
RTVSPost2010PropOp53
 70
     1
102
RTVSPost2010Prop54
  1
strokes_ogs.tif
102
RTVSPost2010PropOp54
 70
     1
102
RTVSPost2010Prop55
280
     0
102
RTVSPost2010PropOp55
 70
     1
102
RTVSPost2010Prop56
140
1.0
102
RTVSPost2010PropOp56
 70
     1
102
RTVSPost2010Prop57
140
1.0
102
RTVSPost2010PropOp57
 70
     1
102
RTVSPropertyOp0
 70
     1
102
RTVSPropertyOp1
 70
     1
102
RTVSPropertyOp2
 70
     1
102
RTVSPropertyOp3
 70
     1
102
RTVSPropertyOp4
 70
     1
102
RTVSPropertyOp5
 70
     1
102
RTVSPropertyOp6
 70
     1
102
RTVSPropertyOp7
 70
     1
102
RTVSPropertyOp8
 70
     1
102
RTVSPropertyOp9
 70
     1
102
RTVSPropertyOp10
 70
     1
102
RTVSPropertyOp11
 70
     1
102
RTVSPropertyOp12
 70
     1
102
RTVSPropertyOp13
 70
     1
102
RTVSPropertyOp14
 70
     1
102
RTVSPropertyOp15
 70
     1
102
RTVSPropertyOp16
 70
     1
102
RTVSPropertyOp17
 70
     1
102
RTVSPropertyOp18
 70
     1
102
RTVSPropertyOp19
 70
     1
102
RTVSPropertyOp20
 70
     1
102
RTVSPropertyOp21
 70
     1
102
RTVSPropertyOp22
 70
     1
102
RTVSPropertyOp23
 70
     1
102
RTVSPropertyOp24
 70
     1
102
RTVSPropertyOp25
 70
     1
102
RTVSPropertyOp26
 70
     1
102
RTVSPropertyOp27
 70
     1
102
RTVSPropertyOp28
 70
     1
102
RTVSPropertyOp29
 70
     1
102
RTVSPropertyOp30
 70
     1
102
RTVSPropertyOp31
 70
     1
102
RTVSPropertyOp32
 70
     1
102
RTVSPropertyOp33
 70
     1
102
RTVSPropertyOp34
 70
     1
102
RTVSPropertyOp35
 70
     1
102
RTVSPropertyOp36
 70
     1
102
RTVSPropertyOp37
 70
     1
102
RTVSPropertyOp38
 70
     1
102
RTVSPropertyOp39
 70
     1
102
RTVSPropertyOp40
 70
     1
102
RTVSPropertyOp41
 70
     1
102
RTVSPropertyOp42
 70
     1
102
RTVSPropertyOp43
 70
     1
102
RTVSPropertyOp44
 70
     1
102
RTVSPropertyOp45
 70
     1
102
RTVSPropertyOp46
 70
     1
102
RTVSPropertyOp47
 70
     1
102
RTVSPropertyOp48
 70
     1
102
RTVSPropertyOp49
 70
     1
102
RTVSPropertyOp50
 70
     1
102
RTVSPropertyOp51
 70
     0
102
RTVSPropertyOp52
 70
     0
102
RTVSPropertyOp53
 70
     1
102
RTVSPropertyOp54
 70
     1
102
RTVSPropertyOp55
 70
     1
102
RTVSPropertyOp56
 70
     1
102
RTVSPropertyOp57
 70
     1
102
RTVSPropertyOp58
 70
     1
102
RTVSPropertyOp59
 70
     1
102
RTVSPropertyOp60
 70
     1
102
RTVSPropertyOp61
 70
     1
102
RTVSPropertyOp62
 70
     1
  0
XRECORD
  5
5280
102
{ACAD_REACTORS
330
527F
102
}
330
527F
100
AcDbXrecord
280
     1
102
RTVSPost2010Prop28
280
     0
102
RTVSPost2010PropOp28
 70
     1
102
RTVSPost2010Prop29
280
     1
102
RTVSPost2010PropOp29
 70
     1
102
RTVSPost2010Prop30
280
     1
102
RTVSPost2010PropOp30
 70
     1
102
RTVSPost2010Prop31
280
     0
102
RTVSPost2010PropOp31
 70
     1
102
RTVSPost2010Prop32
280
     0
102
RTVSPost2010PropOp32
 70
     1
102
RTVSPost2010Prop33
280
     0
102
RTVSPost2010PropOp33
 70
     1
102
RTVSPost2010Prop34
280
     0
102
RTVSPost2010PropOp34
 70
     1
102
RTVSPost2010Prop35
280
     0
102
RTVSPost2010PropOp35
 70
     1
102
RTVSPost2010Prop36
280
     0
102
RTVSPost2010PropOp36
 70
     1
102
RTVSPost2010Prop37
 90
       50
102
RTVSPost2010PropOp37
 70
     1
102
RTVSPost2010Prop38
140
0.0
102
RTVSPost2010PropOp38
 70
     1
102
RTVSPost2010Prop39
140
1.0
102
RTVSPost2010PropOp39
 70
     1
102
RTVSPost2010Prop40
 90
        0
102
RTVSPost2010PropOp40
 70
     1
102
RTVSPost2010Prop41ColorIndex
 90
       18
102
RTVSPost2010Prop41ColorRGB
 90
        0
102
RTVSPost2010PropOp41
 70
     1
102
RTVSPost2010Prop42
 90
       50
102
RTVSPost2010PropOp42
 70
     1
102
RTVSPost2010Prop43
 90
        3
102
RTVSPost2010PropOp43
 70
     1
102
RTVSPost2010Prop44ColorIndex
 90
        5
102
RTVSPost2010Prop44ColorRGB
 90
      255
102
RTVSPost2010PropOp44
 70
     1
102
RTVSPost2010Prop45
280
     0
102
RTVSPost2010PropOp45
 70
     1
102
RTVSPost2010Prop46
 90
       50
102
RTVSPost2010PropOp46
 70
     1
102
RTVSPost2010Prop47
 90
       50
102
RTVSPost2010PropOp47
 70
     1
102
RTVSPost2010Prop48
 90
       50
102
RTVSPost2010PropOp48
 70
     1
102
RTVSPost2010Prop49
280
     0
102
RTVSPost2010PropOp49
 70
     1
102
RTVSPost2010Prop50
 90
       50
102
RTVSPost2010PropOp50
 70
     1
102
RTVSPost2010Prop51ColorIndex
 90
      256
102
RTVSPost2010Prop51ColorRGB
 90
-16777216
102
RTVSPost2010PropOp51
 70
     0
102
RTVSPost2010Prop52
140
1.0
102
RTVSPost2010PropOp52
 70
     0
102
RTVSPost2010Prop53
 90
        2
102
RTVSPost2010PropOp53
 70
     1
102
RTVSPost2010Prop54
  1
strokes_ogs.tif
102
RTVSPost2010PropOp54
 70
     1
102
RTVSPost2010Prop55
280
     0
102
RTVSPost2010PropOp55
 70
     1
102
RTVSPost2010Prop56
140
1.0
102
RTVSPost2010PropOp56
 70
     1
102
RTVSPost2010Prop57
140
1.0
102
RTVSPost2010PropOp57
 70
     1
102
RTVSPropertyOp0
 70
     1
102
RTVSPropertyOp1
 70
     1
102
RTVSPropertyOp2
 70
     1
102
RTVSPropertyOp3
 70
     1
102
RTVSPropertyOp4
 70
     1
102
RTVSPropertyOp5
 70
     1
102
RTVSPropertyOp6
 70
     1
102
RTVSPropertyOp7
 70
     1
102
RTVSPropertyOp8
 70
     1
102
RTVSPropertyOp9
 70
     1
102
RTVSPropertyOp10
 70
     1
102
RTVSPropertyOp11
 70
     1
102
RTVSPropertyOp12
 70
     1
102
RTVSPropertyOp13
 70
     1
102
RTVSPropertyOp14
 70
     1
102
RTVSPropertyOp15
 70
     1
102
RTVSPropertyOp16
 70
     1
102
RTVSPropertyOp17
 70
     1
102
RTVSPropertyOp18
 70
     1
102
RTVSPropertyOp19
 70
     1
102
RTVSPropertyOp20
 70
     1
102
RTVSPropertyOp21
 70
     1
102
RTVSPropertyOp22
 70
     1
102
RTVSPropertyOp23
 70
     1
102
RTVSPropertyOp24
 70
     1
102
RTVSPropertyOp25
 70
     1
102
RTVSPropertyOp26
 70
     1
102
RTVSPropertyOp27
 70
     1
102
RTVSPropertyOp28
 70
     1
102
RTVSPropertyOp29
 70
     1
102
RTVSPropertyOp30
 70
     1
102
RTVSPropertyOp31
 70
     1
102
RTVSPropertyOp32
 70
     1
102
RTVSPropertyOp33
 70
     1
102
RTVSPropertyOp34
 70
     1
102
RTVSPropertyOp35
 70
     1
102
RTVSPropertyOp36
 70
     1
102
RTVSPropertyOp37
 70
     1
102
RTVSPropertyOp38
 70
     1
102
RTVSPropertyOp39
 70
     1
102
RTVSPropertyOp40
 70
     1
102
RTVSPropertyOp41
 70
     1
102
RTVSPropertyOp42
 70
     1
102
RTVSPropertyOp43
 70
     1
102
RTVSPropertyOp44
 70
     1
102
RTVSPropertyOp45
 70
     1
102
RTVSPropertyOp46
 70
     1
102
RTVSPropertyOp47
 70
     1
102
RTVSPropertyOp48
 70
     1
102
RTVSPropertyOp49
 70
     1
102
RTVSPropertyOp50
 70
     1
102
RTVSPropertyOp51
 70
     0
102
RTVSPropertyOp52
 70
     0
102
RTVSPropertyOp53
 70
     1
102
RTVSPropertyOp54
 70
     1
102
RTVSPropertyOp55
 70
     1
102
RTVSPropertyOp56
 70
     1
102
RTVSPropertyOp57
 70
     1
102
RTVSPropertyOp58
 70
     1
102
RTVSPropertyOp59
 70
     1
102
RTVSPropertyOp60
 70
     1
102
RTVSPropertyOp61
 70
     1
102
RTVSPropertyOp62
 70
     1
  0
XRECORD
  5
5282
102
{ACAD_REACTORS
330
5281
102
}
330
5281
100
AcDbXrecord
280
     1
102
RTVSPost2010Prop28
280
     0
102
RTVSPost2010PropOp28
 70
     1
102
RTVSPost2010Prop29
280
     1
102
RTVSPost2010PropOp29
 70
     1
102
RTVSPost2010Prop30
280
     1
102
RTVSPost2010PropOp30
 70
     1
102
RTVSPost2010Prop31
280
     0
102
RTVSPost2010PropOp31
 70
     1
102
RTVSPost2010Prop32
280
     0
102
RTVSPost2010PropOp32
 70
     1
102
RTVSPost2010Prop33
280
     0
102
RTVSPost2010PropOp33
 70
     1
102
RTVSPost2010Prop34
280
     0
102
RTVSPost2010PropOp34
 70
     1
102
RTVSPost2010Prop35
280
     0
102
RTVSPost2010PropOp35
 70
     1
102
RTVSPost2010Prop36
280
     0
102
RTVSPost2010PropOp36
 70
     1
102
RTVSPost2010Prop37
 90
       50
102
RTVSPost2010PropOp37
 70
     1
102
RTVSPost2010Prop38
140
0.0
102
RTVSPost2010PropOp38
 70
     1
102
RTVSPost2010Prop39
140
1.0
102
RTVSPost2010PropOp39
 70
     1
102
RTVSPost2010Prop40
 90
        0
102
RTVSPost2010PropOp40
 70
     1
102
RTVSPost2010Prop41ColorIndex
 90
       18
102
RTVSPost2010Prop41ColorRGB
 90
        0
102
RTVSPost2010PropOp41
 70
     1
102
RTVSPost2010Prop42
 90
       50
102
RTVSPost2010PropOp42
 70
     1
102
RTVSPost2010Prop43
 90
        3
102
RTVSPost2010PropOp43
 70
     1
102
RTVSPost2010Prop44ColorIndex
 90
        5
102
RTVSPost2010Prop44ColorRGB
 90
      255
102
RTVSPost2010PropOp44
 70
     1
102
RTVSPost2010Prop45
280
     0
102
RTVSPost2010PropOp45
 70
     1
102
RTVSPost2010Prop46
 90
       50
102
RTVSPost2010PropOp46
 70
     1
102
RTVSPost2010Prop47
 90
       50
102
RTVSPost2010PropOp47
 70
     1
102
RTVSPost2010Prop48
 90
       50
102
RTVSPost2010PropOp48
 70
     1
102
RTVSPost2010Prop49
280
     0
102
RTVSPost2010PropOp49
 70
     1
102
RTVSPost2010Prop50
 90
       50
102
RTVSPost2010PropOp50
 70
     1
102
RTVSPost2010Prop51ColorIndex
 90
      256
102
RTVSPost2010Prop51ColorRGB
 90
-16777216
102
RTVSPost2010PropOp51
 70
     0
102
RTVSPost2010Prop52
140
1.0
102
RTVSPost2010PropOp52
 70
     0
102
RTVSPost2010Prop53
 90
        2
102
RTVSPost2010PropOp53
 70
     1
102
RTVSPost2010Prop54
  1
strokes_ogs.tif
102
RTVSPost2010PropOp54
 70
     1
102
RTVSPost2010Prop55
280
     0
102
RTVSPost2010PropOp55
 70
     1
102
RTVSPost2010Prop56
140
1.0
102
RTVSPost2010PropOp56
 70
     1
102
RTVSPost2010Prop57
140
1.0
102
RTVSPost2010PropOp57
 70
     1
102
RTVSPropertyOp0
 70
     1
102
RTVSPropertyOp1
 70
     1
102
RTVSPropertyOp2
 70
     1
102
RTVSPropertyOp3
 70
     1
102
RTVSPropertyOp4
 70
     1
102
RTVSPropertyOp5
 70
     1
102
RTVSPropertyOp6
 70
     1
102
RTVSPropertyOp7
 70
     1
102
RTVSPropertyOp8
 70
     1
102
RTVSPropertyOp9
 70
     1
102
RTVSPropertyOp10
 70
     1
102
RTVSPropertyOp11
 70
     1
102
RTVSPropertyOp12
 70
     1
102
RTVSPropertyOp13
 70
     1
102
RTVSPropertyOp14
 70
     1
102
RTVSPropertyOp15
 70
     1
102
RTVSPropertyOp16
 70
     1
102
RTVSPropertyOp17
 70
     1
102
RTVSPropertyOp18
 70
     1
102
RTVSPropertyOp19
 70
     1
102
RTVSPropertyOp20
 70
     1
102
RTVSPropertyOp21
 70
     1
102
RTVSPropertyOp22
 70
     1
102
RTVSPropertyOp23
 70
     1
102
RTVSPropertyOp24
 70
     1
102
RTVSPropertyOp25
 70
     1
102
RTVSPropertyOp26
 70
     1
102
RTVSPropertyOp27
 70
     1
102
RTVSPropertyOp28
 70
     1
102
RTVSPropertyOp29
 70
     1
102
RTVSPropertyOp30
 70
     1
102
RTVSPropertyOp31
 70
     1
102
RTVSPropertyOp32
 70
     1
102
RTVSPropertyOp33
 70
     1
102
RTVSPropertyOp34
 70
     1
102
RTVSPropertyOp35
 70
     1
102
RTVSPropertyOp36
 70
     1
102
RTVSPropertyOp37
 70
     1
102
RTVSPropertyOp38
 70
     1
102
RTVSPropertyOp39
 70
     1
102
RTVSPropertyOp40
 70
     1
102
RTVSPropertyOp41
 70
     1
102
RTVSPropertyOp42
 70
     1
102
RTVSPropertyOp43
 70
     1
102
RTVSPropertyOp44
 70
     1
102
RTVSPropertyOp45
 70
     1
102
RTVSPropertyOp46
 70
     1
102
RTVSPropertyOp47
 70
     1
102
RTVSPropertyOp48
 70
     1
102
RTVSPropertyOp49
 70
     1
102
RTVSPropertyOp50
 70
     1
102
RTVSPropertyOp51
 70
     0
102
RTVSPropertyOp52
 70
     0
102
RTVSPropertyOp53
 70
     1
102
RTVSPropertyOp54
 70
     1
102
RTVSPropertyOp55
 70
     1
102
RTVSPropertyOp56
 70
     1
102
RTVSPropertyOp57
 70
     1
102
RTVSPropertyOp58
 70
     1
102
RTVSPropertyOp59
 70
     1
102
RTVSPropertyOp60
 70
     1
102
RTVSPropertyOp61
 70
     1
102
RTVSPropertyOp62
 70
     1
  0
XRECORD
  5
5284
102
{ACAD_REACTORS
330
5283
102
}
330
5283
100
AcDbXrecord
280
     1
102
RTVSPost2010Prop28
280
     0
102
RTVSPost2010PropOp28
 70
     1
102
RTVSPost2010Prop29
280
     1
102
RTVSPost2010PropOp29
 70
     1
102
RTVSPost2010Prop30
280
     1
102
RTVSPost2010PropOp30
 70
     1
102
RTVSPost2010Prop31
280
     0
102
RTVSPost2010PropOp31
 70
     1
102
RTVSPost2010Prop32
280
     0
102
RTVSPost2010PropOp32
 70
     1
102
RTVSPost2010Prop33
280
     0
102
RTVSPost2010PropOp33
 70
     1
102
RTVSPost2010Prop34
280
     0
102
RTVSPost2010PropOp34
 70
     1
102
RTVSPost2010Prop35
280
     0
102
RTVSPost2010PropOp35
 70
     1
102
RTVSPost2010Prop36
280
     0
102
RTVSPost2010PropOp36
 70
     1
102
RTVSPost2010Prop37
 90
       50
102
RTVSPost2010PropOp37
 70
     1
102
RTVSPost2010Prop38
140
0.0
102
RTVSPost2010PropOp38
 70
     1
102
RTVSPost2010Prop39
140
1.0
102
RTVSPost2010PropOp39
 70
     1
102
RTVSPost2010Prop40
 90
        0
102
RTVSPost2010PropOp40
 70
     1
102
RTVSPost2010Prop41ColorIndex
 90
       18
102
RTVSPost2010Prop41ColorRGB
 90
        0
102
RTVSPost2010PropOp41
 70
     1
102
RTVSPost2010Prop42
 90
       50
102
RTVSPost2010PropOp42
 70
     1
102
RTVSPost2010Prop43
 90
        3
102
RTVSPost2010PropOp43
 70
     1
102
RTVSPost2010Prop44ColorIndex
 90
        5
102
RTVSPost2010Prop44ColorRGB
 90
      255
102
RTVSPost2010PropOp44
 70
     1
102
RTVSPost2010Prop45
280
     0
102
RTVSPost2010PropOp45
 70
     1
102
RTVSPost2010Prop46
 90
       50
102
RTVSPost2010PropOp46
 70
     1
102
RTVSPost2010Prop47
 90
       50
102
RTVSPost2010PropOp47
 70
     1
102
RTVSPost2010Prop48
 90
       50
102
RTVSPost2010PropOp48
 70
     1
102
RTVSPost2010Prop49
280
     0
102
RTVSPost2010PropOp49
 70
     1
102
RTVSPost2010Prop50
 90
       50
102
RTVSPost2010PropOp50
 70
     1
102
RTVSPost2010Prop51ColorIndex
 90
      256
102
RTVSPost2010Prop51ColorRGB
 90
-16777216
102
RTVSPost2010PropOp51
 70
     0
102
RTVSPost2010Prop52
140
1.0
102
RTVSPost2010PropOp52
 70
     0
102
RTVSPost2010Prop53
 90
        2
102
RTVSPost2010PropOp53
 70
     1
102
RTVSPost2010Prop54
  1
strokes_ogs.tif
102
RTVSPost2010PropOp54
 70
     1
102
RTVSPost2010Prop55
280
     0
102
RTVSPost2010PropOp55
 70
     1
102
RTVSPost2010Prop56
140
1.0
102
RTVSPost2010PropOp56
 70
     1
102
RTVSPost2010Prop57
140
1.0
102
RTVSPost2010PropOp57
 70
     1
102
RTVSPropertyOp0
 70
     1
102
RTVSPropertyOp1
 70
     1
102
RTVSPropertyOp2
 70
     1
102
RTVSPropertyOp3
 70
     1
102
RTVSPropertyOp4
 70
     1
102
RTVSPropertyOp5
 70
     1
102
RTVSPropertyOp6
 70
     1
102
RTVSPropertyOp7
 70
     1
102
RTVSPropertyOp8
 70
     1
102
RTVSPropertyOp9
 70
     1
102
RTVSPropertyOp10
 70
     1
102
RTVSPropertyOp11
 70
     1
102
RTVSPropertyOp12
 70
     1
102
RTVSPropertyOp13
 70
     1
102
RTVSPropertyOp14
 70
     1
102
RTVSPropertyOp15
 70
     1
102
RTVSPropertyOp16
 70
     1
102
RTVSPropertyOp17
 70
     1
102
RTVSPropertyOp18
 70
     1
102
RTVSPropertyOp19
 70
     1
102
RTVSPropertyOp20
 70
     1
102
RTVSPropertyOp21
 70
     1
102
RTVSPropertyOp22
 70
     1
102
RTVSPropertyOp23
 70
     1
102
RTVSPropertyOp24
 70
     1
102
RTVSPropertyOp25
 70
     1
102
RTVSPropertyOp26
 70
     1
102
RTVSPropertyOp27
 70
     1
102
RTVSPropertyOp28
 70
     1
102
RTVSPropertyOp29
 70
     1
102
RTVSPropertyOp30
 70
     1
102
RTVSPropertyOp31
 70
     1
102
RTVSPropertyOp32
 70
     1
102
RTVSPropertyOp33
 70
     1
102
RTVSPropertyOp34
 70
     1
102
RTVSPropertyOp35
 70
     1
102
RTVSPropertyOp36
 70
     1
102
RTVSPropertyOp37
 70
     1
102
RTVSPropertyOp38
 70
     1
102
RTVSPropertyOp39
 70
     1
102
RTVSPropertyOp40
 70
     1
102
RTVSPropertyOp41
 70
     1
102
RTVSPropertyOp42
 70
     1
102
RTVSPropertyOp43
 70
     1
102
RTVSPropertyOp44
 70
     1
102
RTVSPropertyOp45
 70
     1
102
RTVSPropertyOp46
 70
     1
102
RTVSPropertyOp47
 70
     1
102
RTVSPropertyOp48
 70
     1
102
RTVSPropertyOp49
 70
     1
102
RTVSPropertyOp50
 70
     1
102
RTVSPropertyOp51
 70
     0
102
RTVSPropertyOp52
 70
     0
102
RTVSPropertyOp53
 70
     1
102
RTVSPropertyOp54
 70
     1
102
RTVSPropertyOp55
 70
     1
102
RTVSPropertyOp56
 70
     1
102
RTVSPropertyOp57
 70
     1
102
RTVSPropertyOp58
 70
     1
102
RTVSPropertyOp59
 70
     1
102
RTVSPropertyOp60
 70
     1
102
RTVSPropertyOp61
 70
     1
102
RTVSPropertyOp62
 70
     1
  0
XRECORD
  5
5286
102
{ACAD_REACTORS
330
5285
102
}
330
5285
100
AcDbXrecord
280
     1
102
RTVSPost2010Prop28
280
     0
102
RTVSPost2010PropOp28
 70
     1
102
RTVSPost2010Prop29
280
     1
102
RTVSPost2010PropOp29
 70
     1
102
RTVSPost2010Prop30
280
     1
102
RTVSPost2010PropOp30
 70
     1
102
RTVSPost2010Prop31
280
     0
102
RTVSPost2010PropOp31
 70
     1
102
RTVSPost2010Prop32
280
     0
102
RTVSPost2010PropOp32
 70
     1
102
RTVSPost2010Prop33
280
     0
102
RTVSPost2010PropOp33
 70
     1
102
RTVSPost2010Prop34
280
     0
102
RTVSPost2010PropOp34
 70
     1
102
RTVSPost2010Prop35
280
     0
102
RTVSPost2010PropOp35
 70
     1
102
RTVSPost2010Prop36
280
     0
102
RTVSPost2010PropOp36
 70
     1
102
RTVSPost2010Prop37
 90
       50
102
RTVSPost2010PropOp37
 70
     1
102
RTVSPost2010Prop38
140
0.0
102
RTVSPost2010PropOp38
 70
     1
102
RTVSPost2010Prop39
140
1.0
102
RTVSPost2010PropOp39
 70
     1
102
RTVSPost2010Prop40
 90
        0
102
RTVSPost2010PropOp40
 70
     1
102
RTVSPost2010Prop41ColorIndex
 90
       18
102
RTVSPost2010Prop41ColorRGB
 90
        0
102
RTVSPost2010PropOp41
 70
     1
102
RTVSPost2010Prop42
 90
       50
102
RTVSPost2010PropOp42
 70
     1
102
RTVSPost2010Prop43
 90
        3
102
RTVSPost2010PropOp43
 70
     1
102
RTVSPost2010Prop44ColorIndex
 90
        5
102
RTVSPost2010Prop44ColorRGB
 90
      255
102
RTVSPost2010PropOp44
 70
     1
102
RTVSPost2010Prop45
280
     0
102
RTVSPost2010PropOp45
 70
     1
102
RTVSPost2010Prop46
 90
       50
102
RTVSPost2010PropOp46
 70
     1
102
RTVSPost2010Prop47
 90
       50
102
RTVSPost2010PropOp47
 70
     1
102
RTVSPost2010Prop48
 90
       50
102
RTVSPost2010PropOp48
 70
     1
102
RTVSPost2010Prop49
280
     0
102
RTVSPost2010PropOp49
 70
     1
102
RTVSPost2010Prop50
 90
       50
102
RTVSPost2010PropOp50
 70
     1
102
RTVSPost2010Prop51ColorIndex
 90
      256
102
RTVSPost2010Prop51ColorRGB
 90
-16777216
102
RTVSPost2010PropOp51
 70
     0
102
RTVSPost2010Prop52
140
1.0
102
RTVSPost2010PropOp52
 70
     0
102
RTVSPost2010Prop53
 90
        2
102
RTVSPost2010PropOp53
 70
     1
102
RTVSPost2010Prop54
  1
strokes_ogs.tif
102
RTVSPost2010PropOp54
 70
     1
102
RTVSPost2010Prop55
280
     0
102
RTVSPost2010PropOp55
 70
     1
102
RTVSPost2010Prop56
140
1.0
102
RTVSPost2010PropOp56
 70
     1
102
RTVSPost2010Prop57
140
1.0
102
RTVSPost2010PropOp57
 70
     1
102
RTVSPropertyOp0
 70
     1
102
RTVSPropertyOp1
 70
     1
102
RTVSPropertyOp2
 70
     1
102
RTVSPropertyOp3
 70
     1
102
RTVSPropertyOp4
 70
     1
102
RTVSPropertyOp5
 70
     1
102
RTVSPropertyOp6
 70
     1
102
RTVSPropertyOp7
 70
     1
102
RTVSPropertyOp8
 70
     1
102
RTVSPropertyOp9
 70
     1
102
RTVSPropertyOp10
 70
     1
102
RTVSPropertyOp11
 70
     1
102
RTVSPropertyOp12
 70
     1
102
RTVSPropertyOp13
 70
     1
102
RTVSPropertyOp14
 70
     1
102
RTVSPropertyOp15
 70
     1
102
RTVSPropertyOp16
 70
     1
102
RTVSPropertyOp17
 70
     1
102
RTVSPropertyOp18
 70
     1
102
RTVSPropertyOp19
 70
     1
102
RTVSPropertyOp20
 70
     1
102
RTVSPropertyOp21
 70
     1
102
RTVSPropertyOp22
 70
     1
102
RTVSPropertyOp23
 70
     1
102
RTVSPropertyOp24
 70
     1
102
RTVSPropertyOp25
 70
     1
102
RTVSPropertyOp26
 70
     1
102
RTVSPropertyOp27
 70
     1
102
RTVSPropertyOp28
 70
     1
102
RTVSPropertyOp29
 70
     1
102
RTVSPropertyOp30
 70
     1
102
RTVSPropertyOp31
 70
     1
102
RTVSPropertyOp32
 70
     1
102
RTVSPropertyOp33
 70
     1
102
RTVSPropertyOp34
 70
     1
102
RTVSPropertyOp35
 70
     1
102
RTVSPropertyOp36
 70
     1
102
RTVSPropertyOp37
 70
     1
102
RTVSPropertyOp38
 70
     1
102
RTVSPropertyOp39
 70
     1
102
RTVSPropertyOp40
 70
     1
102
RTVSPropertyOp41
 70
     1
102
RTVSPropertyOp42
 70
     1
102
RTVSPropertyOp43
 70
     1
102
RTVSPropertyOp44
 70
     1
102
RTVSPropertyOp45
 70
     1
102
RTVSPropertyOp46
 70
     1
102
RTVSPropertyOp47
 70
     1
102
RTVSPropertyOp48
 70
     1
102
RTVSPropertyOp49
 70
     1
102
RTVSPropertyOp50
 70
     1
102
RTVSPropertyOp51
 70
     0
102
RTVSPropertyOp52
 70
     0
102
RTVSPropertyOp53
 70
     1
102
RTVSPropertyOp54
 70
     1
102
RTVSPropertyOp55
 70
     1
102
RTVSPropertyOp56
 70
     1
102
RTVSPropertyOp57
 70
     1
102
RTVSPropertyOp58
 70
     1
102
RTVSPropertyOp59
 70
     1
102
RTVSPropertyOp60
 70
     1
102
RTVSPropertyOp61
 70
     1
102
RTVSPropertyOp62
 70
     1
  0
XRECORD
  5
528E
102
{ACAD_REACTORS
330
528D
102
}
330
528D
100
AcDbXrecord
280
     1
102
RTVSPost2010Prop28
280
     0
102
RTVSPost2010PropOp28
 70
     1
102
RTVSPost2010Prop29
280
     1
102
RTVSPost2010PropOp29
 70
     1
102
RTVSPost2010Prop30
280
     1
102
RTVSPost2010PropOp30
 70
     1
102
RTVSPost2010Prop31
280
     0
102
RTVSPost2010PropOp31
 70
     1
102
RTVSPost2010Prop32
280
     0
102
RTVSPost2010PropOp32
 70
     1
102
RTVSPost2010Prop33
280
     0
102
RTVSPost2010PropOp33
 70
     1
102
RTVSPost2010Prop34
280
     0
102
RTVSPost2010PropOp34
 70
     1
102
RTVSPost2010Prop35
280
     0
102
RTVSPost2010PropOp35
 70
     1
102
RTVSPost2010Prop36
280
     0
102
RTVSPost2010PropOp36
 70
     1
102
RTVSPost2010Prop37
 90
       50
102
RTVSPost2010PropOp37
 70
     1
102
RTVSPost2010Prop38
140
0.0
102
RTVSPost2010PropOp38
 70
     1
102
RTVSPost2010Prop39
140
1.0
102
RTVSPost2010PropOp39
 70
     1
102
RTVSPost2010Prop40
 90
        0
102
RTVSPost2010PropOp40
 70
     1
102
RTVSPost2010Prop41ColorIndex
 90
       18
102
RTVSPost2010Prop41ColorRGB
 90
        0
102
RTVSPost2010PropOp41
 70
     1
102
RTVSPost2010Prop42
 90
       50
102
RTVSPost2010PropOp42
 70
     1
102
RTVSPost2010Prop43
 90
        3
102
RTVSPost2010PropOp43
 70
     1
102
RTVSPost2010Prop44ColorIndex
 90
        5
102
RTVSPost2010Prop44ColorRGB
 90
      255
102
RTVSPost2010PropOp44
 70
     1
102
RTVSPost2010Prop45
280
     0
102
RTVSPost2010PropOp45
 70
     1
102
RTVSPost2010Prop46
 90
       50
102
RTVSPost2010PropOp46
 70
     1
102
RTVSPost2010Prop47
 90
       50
102
RTVSPost2010PropOp47
 70
     1
102
RTVSPost2010Prop48
 90
       50
102
RTVSPost2010PropOp48
 70
     1
102
RTVSPost2010Prop49
280
     0
102
RTVSPost2010PropOp49
 70
     1
102
RTVSPost2010Prop50
 90
       50
102
RTVSPost2010PropOp50
 70
     1
102
RTVSPost2010Prop51ColorIndex
 90
      256
102
RTVSPost2010Prop51ColorRGB
 90
-16777216
102
RTVSPost2010PropOp51
 70
     0
102
RTVSPost2010Prop52
140
1.0
102
RTVSPost2010PropOp52
 70
     0
102
RTVSPost2010Prop53
 90
        2
102
RTVSPost2010PropOp53
 70
     1
102
RTVSPost2010Prop54
  1
strokes_ogs.tif
102
RTVSPost2010PropOp54
 70
     1
102
RTVSPost2010Prop55
280
     0
102
RTVSPost2010PropOp55
 70
     1
102
RTVSPost2010Prop56
140
1.0
102
RTVSPost2010PropOp56
 70
     1
102
RTVSPost2010Prop57
140
1.0
102
RTVSPost2010PropOp57
 70
     1
102
RTVSPropertyOp0
 70
     1
102
RTVSPropertyOp1
 70
     1
102
RTVSPropertyOp2
 70
     1
102
RTVSPropertyOp3
 70
     1
102
RTVSPropertyOp4
 70
     1
102
RTVSPropertyOp5
 70
     1
102
RTVSPropertyOp6
 70
     1
102
RTVSPropertyOp7
 70
     1
102
RTVSPropertyOp8
 70
     1
102
RTVSPropertyOp9
 70
     1
102
RTVSPropertyOp10
 70
     1
102
RTVSPropertyOp11
 70
     1
102
RTVSPropertyOp12
 70
     1
102
RTVSPropertyOp13
 70
     1
102
RTVSPropertyOp14
 70
     1
102
RTVSPropertyOp15
 70
     1
102
RTVSPropertyOp16
 70
     1
102
RTVSPropertyOp17
 70
     1
102
RTVSPropertyOp18
 70
     1
102
RTVSPropertyOp19
 70
     1
102
RTVSPropertyOp20
 70
     1
102
RTVSPropertyOp21
 70
     1
102
RTVSPropertyOp22
 70
     1
102
RTVSPropertyOp23
 70
     1
102
RTVSPropertyOp24
 70
     1
102
RTVSPropertyOp25
 70
     1
102
RTVSPropertyOp26
 70
     1
102
RTVSPropertyOp27
 70
     1
102
RTVSPropertyOp28
 70
     1
102
RTVSPropertyOp29
 70
     1
102
RTVSPropertyOp30
 70
     1
102
RTVSPropertyOp31
 70
     1
102
RTVSPropertyOp32
 70
     1
102
RTVSPropertyOp33
 70
     1
102
RTVSPropertyOp34
 70
     1
102
RTVSPropertyOp35
 70
     1
102
RTVSPropertyOp36
 70
     1
102
RTVSPropertyOp37
 70
     1
102
RTVSPropertyOp38
 70
     1
102
RTVSPropertyOp39
 70
     1
102
RTVSPropertyOp40
 70
     1
102
RTVSPropertyOp41
 70
     1
102
RTVSPropertyOp42
 70
     1
102
RTVSPropertyOp43
 70
     1
102
RTVSPropertyOp44
 70
     1
102
RTVSPropertyOp45
 70
     1
102
RTVSPropertyOp46
 70
     1
102
RTVSPropertyOp47
 70
     1
102
RTVSPropertyOp48
 70
     1
102
RTVSPropertyOp49
 70
     1
102
RTVSPropertyOp50
 70
     1
102
RTVSPropertyOp51
 70
     0
102
RTVSPropertyOp52
 70
     0
102
RTVSPropertyOp53
 70
     1
102
RTVSPropertyOp54
 70
     1
102
RTVSPropertyOp55
 70
     1
102
RTVSPropertyOp56
 70
     1
102
RTVSPropertyOp57
 70
     1
102
RTVSPropertyOp58
 70
     1
102
RTVSPropertyOp59
 70
     1
102
RTVSPropertyOp60
 70
     1
102
RTVSPropertyOp61
 70
     1
102
RTVSPropertyOp62
 70
     1
  0
XRECORD
  5
52AA
102
{ACAD_REACTORS
330
52A9
102
}
330
52A9
100
AcDbXrecord
280
     1
102
RTVSPost2010Prop28
280
     0
102
RTVSPost2010PropOp28
 70
     0
102
RTVSPost2010Prop29
280
     1
102
RTVSPost2010PropOp29
 70
     0
102
RTVSPost2010Prop30
280
     1
102
RTVSPost2010PropOp30
 70
     0
102
RTVSPost2010Prop31
280
     0
102
RTVSPost2010PropOp31
 70
     0
102
RTVSPost2010Prop32
280
     0
102
RTVSPost2010PropOp32
 70
     0
102
RTVSPost2010Prop33
280
     0
102
RTVSPost2010PropOp33
 70
     0
102
RTVSPost2010Prop34
280
     0
102
RTVSPost2010PropOp34
 70
     0
102
RTVSPost2010Prop35
280
     0
102
RTVSPost2010PropOp35
 70
     0
102
RTVSPost2010Prop36
280
     0
102
RTVSPost2010PropOp36
 70
     0
102
RTVSPost2010Prop37
 90
       50
102
RTVSPost2010PropOp37
 70
     0
102
RTVSPost2010Prop38
140
0.0
102
RTVSPost2010PropOp38
 70
     0
102
RTVSPost2010Prop39
140
1.0
102
RTVSPost2010PropOp39
 70
     0
102
RTVSPost2010Prop40
 90
        0
102
RTVSPost2010PropOp40
 70
     0
102
RTVSPost2010Prop41ColorIndex
 90
       18
102
RTVSPost2010Prop41ColorRGB
 90
        0
102
RTVSPost2010PropOp41
 70
     0
102
RTVSPost2010Prop42
 90
       50
102
RTVSPost2010PropOp42
 70
     0
102
RTVSPost2010Prop43
 90
        3
102
RTVSPost2010PropOp43
 70
     0
102
RTVSPost2010Prop44ColorIndex
 90
        5
102
RTVSPost2010Prop44ColorRGB
 90
      255
102
RTVSPost2010PropOp44
 70
     0
102
RTVSPost2010Prop45
280
     0
102
RTVSPost2010PropOp45
 70
     0
102
RTVSPost2010Prop46
 90
       50
102
RTVSPost2010PropOp46
 70
     0
102
RTVSPost2010Prop47
 90
       50
102
RTVSPost2010PropOp47
 70
     0
102
RTVSPost2010Prop48
 90
       50
102
RTVSPost2010PropOp48
 70
     0
102
RTVSPost2010Prop49
280
     0
102
RTVSPost2010PropOp49
 70
     0
102
RTVSPost2010Prop50
 90
       50
102
RTVSPost2010PropOp50
 70
     0
102
RTVSPost2010Prop51ColorIndex
 90
      256
102
RTVSPost2010Prop51ColorRGB
 90
-16777216
102
RTVSPost2010PropOp51
 70
     0
102
RTVSPost2010Prop52
140
1.0
102
RTVSPost2010PropOp52
 70
     0
102
RTVSPost2010Prop53
 90
        2
102
RTVSPost2010PropOp53
 70
     0
102
RTVSPost2010Prop54
  1
strokes_ogs.tif
102
RTVSPost2010PropOp54
 70
     0
102
RTVSPost2010Prop55
280
     0
102
RTVSPost2010PropOp55
 70
     0
102
RTVSPost2010Prop56
140
1.0
102
RTVSPost2010PropOp56
 70
     0
102
RTVSPost2010Prop57
140
1.0
102
RTVSPost2010PropOp57
 70
     0
102
RTVSPropertyOp0
 70
     0
102
RTVSPropertyOp1
 70
     0
102
RTVSPropertyOp2
 70
     0
102
RTVSPropertyOp3
 70
     0
102
RTVSPropertyOp4
 70
     0
102
RTVSPropertyOp5
 70
     0
102
RTVSPropertyOp6
 70
     0
102
RTVSPropertyOp7
 70
     0
102
RTVSPropertyOp8
 70
     0
102
RTVSPropertyOp9
 70
     0
102
RTVSPropertyOp10
 70
     0
102
RTVSPropertyOp11
 70
     0
102
RTVSPropertyOp12
 70
     0
102
RTVSPropertyOp13
 70
     0
102
RTVSPropertyOp14
 70
     2
102
RTVSPropertyOp15
 70
     0
102
RTVSPropertyOp16
 70
     0
102
RTVSPropertyOp17
 70
     0
102
RTVSPropertyOp18
 70
     0
102
RTVSPropertyOp19
 70
     0
102
RTVSPropertyOp20
 70
     0
102
RTVSPropertyOp21
 70
     0
102
RTVSPropertyOp22
 70
     0
102
RTVSPropertyOp23
 70
     0
102
RTVSPropertyOp24
 70
     0
102
RTVSPropertyOp25
 70
     0
102
RTVSPropertyOp26
 70
     0
102
RTVSPropertyOp27
 70
     0
102
RTVSPropertyOp28
 70
     0
102
RTVSPropertyOp29
 70
     0
102
RTVSPropertyOp30
 70
     0
102
RTVSPropertyOp31
 70
     0
102
RTVSPropertyOp32
 70
     0
102
RTVSPropertyOp33
 70
     0
102
RTVSPropertyOp34
 70
     0
102
RTVSPropertyOp35
 70
     0
102
RTVSPropertyOp36
 70
     0
102
RTVSPropertyOp37
 70
     0
102
RTVSPropertyOp38
 70
     0
102
RTVSPropertyOp39
 70
     0
102
RTVSPropertyOp40
 70
     0
102
RTVSPropertyOp41
 70
     0
102
RTVSPropertyOp42
 70
     0
102
RTVSPropertyOp43
 70
     0
102
RTVSPropertyOp44
 70
     0
102
RTVSPropertyOp45
 70
     0
102
RTVSPropertyOp46
 70
     0
102
RTVSPropertyOp47
 70
     0
102
RTVSPropertyOp48
 70
     0
102
RTVSPropertyOp49
 70
     0
102
RTVSPropertyOp50
 70
     0
102
RTVSPropertyOp51
 70
     0
102
RTVSPropertyOp52
 70
     0
102
RTVSPropertyOp53
 70
     0
102
RTVSPropertyOp54
 70
     0
102
RTVSPropertyOp55
 70
     0
102
RTVSPropertyOp56
 70
     0
102
RTVSPropertyOp57
 70
     0
102
RTVSPropertyOp58
 70
     1
102
RTVSPropertyOp59
 70
     1
102
RTVSPropertyOp60
 70
     1
102
RTVSPropertyOp61
 70
     1
102
RTVSPropertyOp62
 70
     1
  0
XRECORD
  5
529A
102
{ACAD_REACTORS
330
5299
102
}
330
5299
100
AcDbXrecord
280
     1
102
RTVSPost2010Prop28
280
     0
102
RTVSPost2010PropOp28
 70
     1
102
RTVSPost2010Prop29
280
     1
102
RTVSPost2010PropOp29
 70
     1
102
RTVSPost2010Prop30
280
     1
102
RTVSPost2010PropOp30
 70
     1
102
RTVSPost2010Prop31
280
     0
102
RTVSPost2010PropOp31
 70
     1
102
RTVSPost2010Prop32
280
     0
102
RTVSPost2010PropOp32
 70
     1
102
RTVSPost2010Prop33
280
     0
102
RTVSPost2010PropOp33
 70
     1
102
RTVSPost2010Prop34
280
     0
102
RTVSPost2010PropOp34
 70
     1
102
RTVSPost2010Prop35
280
     0
102
RTVSPost2010PropOp35
 70
     1
102
RTVSPost2010Prop36
280
     0
102
RTVSPost2010PropOp36
 70
     1
102
RTVSPost2010Prop37
 90
       50
102
RTVSPost2010PropOp37
 70
     1
102
RTVSPost2010Prop38
140
0.0
102
RTVSPost2010PropOp38
 70
     1
102
RTVSPost2010Prop39
140
1.0
102
RTVSPost2010PropOp39
 70
     1
102
RTVSPost2010Prop40
 90
        0
102
RTVSPost2010PropOp40
 70
     1
102
RTVSPost2010Prop41ColorIndex
 90
       18
102
RTVSPost2010Prop41ColorRGB
 90
        0
102
RTVSPost2010PropOp41
 70
     1
102
RTVSPost2010Prop42
 90
       50
102
RTVSPost2010PropOp42
 70
     1
102
RTVSPost2010Prop43
 90
        3
102
RTVSPost2010PropOp43
 70
     1
102
RTVSPost2010Prop44ColorIndex
 90
        5
102
RTVSPost2010Prop44ColorRGB
 90
      255
102
RTVSPost2010PropOp44
 70
     1
102
RTVSPost2010Prop45
280
     0
102
RTVSPost2010PropOp45
 70
     1
102
RTVSPost2010Prop46
 90
       50
102
RTVSPost2010PropOp46
 70
     1
102
RTVSPost2010Prop47
 90
       50
102
RTVSPost2010PropOp47
 70
     1
102
RTVSPost2010Prop48
 90
       50
102
RTVSPost2010PropOp48
 70
     1
102
RTVSPost2010Prop49
280
     0
102
RTVSPost2010PropOp49
 70
     1
102
RTVSPost2010Prop50
 90
       50
102
RTVSPost2010PropOp50
 70
     1
102
RTVSPost2010Prop51ColorIndex
 90
      256
102
RTVSPost2010Prop51ColorRGB
 90
-16777216
102
RTVSPost2010PropOp51
 70
     0
102
RTVSPost2010Prop52
140
1.0
102
RTVSPost2010PropOp52
 70
     0
102
RTVSPost2010Prop53
 90
        2
102
RTVSPost2010PropOp53
 70
     1
102
RTVSPost2010Prop54
  1
strokes_ogs.tif
102
RTVSPost2010PropOp54
 70
     1
102
RTVSPost2010Prop55
280
     0
102
RTVSPost2010PropOp55
 70
     1
102
RTVSPost2010Prop56
140
1.0
102
RTVSPost2010PropOp56
 70
     1
102
RTVSPost2010Prop57
140
1.0
102
RTVSPost2010PropOp57
 70
     1
102
RTVSPropertyOp0
 70
     1
102
RTVSPropertyOp1
 70
     1
102
RTVSPropertyOp2
 70
     1
102
RTVSPropertyOp3
 70
     1
102
RTVSPropertyOp4
 70
     1
102
RTVSPropertyOp5
 70
     1
102
RTVSPropertyOp6
 70
     1
102
RTVSPropertyOp7
 70
     1
102
RTVSPropertyOp8
 70
     1
102
RTVSPropertyOp9
 70
     1
102
RTVSPropertyOp10
 70
     1
102
RTVSPropertyOp11
 70
     1
102
RTVSPropertyOp12
 70
     1
102
RTVSPropertyOp13
 70
     1
102
RTVSPropertyOp14
 70
     1
102
RTVSPropertyOp15
 70
     1
102
RTVSPropertyOp16
 70
     1
102
RTVSPropertyOp17
 70
     1
102
RTVSPropertyOp18
 70
     1
102
RTVSPropertyOp19
 70
     1
102
RTVSPropertyOp20
 70
     1
102
RTVSPropertyOp21
 70
     1
102
RTVSPropertyOp22
 70
     1
102
RTVSPropertyOp23
 70
     1
102
RTVSPropertyOp24
 70
     1
102
RTVSPropertyOp25
 70
     1
102
RTVSPropertyOp26
 70
     1
102
RTVSPropertyOp27
 70
     1
102
RTVSPropertyOp28
 70
     1
102
RTVSPropertyOp29
 70
     1
102
RTVSPropertyOp30
 70
     1
102
RTVSPropertyOp31
 70
     1
102
RTVSPropertyOp32
 70
     1
102
RTVSPropertyOp33
 70
     1
102
RTVSPropertyOp34
 70
     1
102
RTVSPropertyOp35
 70
     1
102
RTVSPropertyOp36
 70
     1
102
RTVSPropertyOp37
 70
     1
102
RTVSPropertyOp38
 70
     1
102
RTVSPropertyOp39
 70
     1
102
RTVSPropertyOp40
 70
     1
102
RTVSPropertyOp41
 70
     1
102
RTVSPropertyOp42
 70
     1
102
RTVSPropertyOp43
 70
     1
102
RTVSPropertyOp44
 70
     1
102
RTVSPropertyOp45
 70
     1
102
RTVSPropertyOp46
 70
     1
102
RTVSPropertyOp47
 70
     1
102
RTVSPropertyOp48
 70
     1
102
RTVSPropertyOp49
 70
     1
102
RTVSPropertyOp50
 70
     1
102
RTVSPropertyOp51
 70
     0
102
RTVSPropertyOp52
 70
     0
102
RTVSPropertyOp53
 70
     1
102
RTVSPropertyOp54
 70
     1
102
RTVSPropertyOp55
 70
     1
102
RTVSPropertyOp56
 70
     1
102
RTVSPropertyOp57
 70
     1
102
RTVSPropertyOp58
 70
     1
102
RTVSPropertyOp59
 70
     1
102
RTVSPropertyOp60
 70
     1
102
RTVSPropertyOp61
 70
     1
102
RTVSPropertyOp62
 70
     1
  0
XRECORD
  5
52AC
102
{ACAD_REACTORS
330
52AB
102
}
330
52AB
100
AcDbXrecord
280
     1
102
RTVSPost2010Prop28
280
     0
102
RTVSPost2010PropOp28
 70
     0
102
RTVSPost2010Prop29
280
     1
102
RTVSPost2010PropOp29
 70
     0
102
RTVSPost2010Prop30
280
     1
102
RTVSPost2010PropOp30
 70
     0
102
RTVSPost2010Prop31
280
     0
102
RTVSPost2010PropOp31
 70
     0
102
RTVSPost2010Prop32
280
     0
102
RTVSPost2010PropOp32
 70
     0
102
RTVSPost2010Prop33
280
     0
102
RTVSPost2010PropOp33
 70
     0
102
RTVSPost2010Prop34
280
     0
102
RTVSPost2010PropOp34
 70
     0
102
RTVSPost2010Prop35
280
     0
102
RTVSPost2010PropOp35
 70
     0
102
RTVSPost2010Prop36
280
     0
102
RTVSPost2010PropOp36
 70
     0
102
RTVSPost2010Prop37
 90
       50
102
RTVSPost2010PropOp37
 70
     0
102
RTVSPost2010Prop38
140
0.0
102
RTVSPost2010PropOp38
 70
     0
102
RTVSPost2010Prop39
140
1.0
102
RTVSPost2010PropOp39
 70
     0
102
RTVSPost2010Prop40
 90
        0
102
RTVSPost2010PropOp40
 70
     0
102
RTVSPost2010Prop41ColorIndex
 90
       18
102
RTVSPost2010Prop41ColorRGB
 90
        0
102
RTVSPost2010PropOp41
 70
     0
102
RTVSPost2010Prop42
 90
       50
102
RTVSPost2010PropOp42
 70
     0
102
RTVSPost2010Prop43
 90
        3
102
RTVSPost2010PropOp43
 70
     0
102
RTVSPost2010Prop44ColorIndex
 90
        5
102
RTVSPost2010Prop44ColorRGB
 90
      255
102
RTVSPost2010PropOp44
 70
     0
102
RTVSPost2010Prop45
280
     0
102
RTVSPost2010PropOp45
 70
     0
102
RTVSPost2010Prop46
 90
       50
102
RTVSPost2010PropOp46
 70
     0
102
RTVSPost2010Prop47
 90
       50
102
RTVSPost2010PropOp47
 70
     0
102
RTVSPost2010Prop48
 90
       50
102
RTVSPost2010PropOp48
 70
     0
102
RTVSPost2010Prop49
280
     0
102
RTVSPost2010PropOp49
 70
     0
102
RTVSPost2010Prop50
 90
       50
102
RTVSPost2010PropOp50
 70
     0
102
RTVSPost2010Prop51ColorIndex
 90
      256
102
RTVSPost2010Prop51ColorRGB
 90
-16777216
102
RTVSPost2010PropOp51
 70
     0
102
RTVSPost2010Prop52
140
1.0
102
RTVSPost2010PropOp52
 70
     0
102
RTVSPost2010Prop53
 90
        2
102
RTVSPost2010PropOp53
 70
     0
102
RTVSPost2010Prop54
  1
strokes_ogs.tif
102
RTVSPost2010PropOp54
 70
     0
102
RTVSPost2010Prop55
280
     0
102
RTVSPost2010PropOp55
 70
     0
102
RTVSPost2010Prop56
140
1.0
102
RTVSPost2010PropOp56
 70
     0
102
RTVSPost2010Prop57
140
1.0
102
RTVSPost2010PropOp57
 70
     0
102
RTVSPropertyOp0
 70
     0
102
RTVSPropertyOp1
 70
     0
102
RTVSPropertyOp2
 70
     0
102
RTVSPropertyOp3
 70
     0
102
RTVSPropertyOp4
 70
     0
102
RTVSPropertyOp5
 70
     0
102
RTVSPropertyOp6
 70
     0
102
RTVSPropertyOp7
 70
     0
102
RTVSPropertyOp8
 70
     0
102
RTVSPropertyOp9
 70
     0
102
RTVSPropertyOp10
 70
     0
102
RTVSPropertyOp11
 70
     0
102
RTVSPropertyOp12
 70
     0
102
RTVSPropertyOp13
 70
     0
102
RTVSPropertyOp14
 70
     2
102
RTVSPropertyOp15
 70
     0
102
RTVSPropertyOp16
 70
     0
102
RTVSPropertyOp17
 70
     0
102
RTVSPropertyOp18
 70
     0
102
RTVSPropertyOp19
 70
     0
102
RTVSPropertyOp20
 70
     0
102
RTVSPropertyOp21
 70
     0
102
RTVSPropertyOp22
 70
     0
102
RTVSPropertyOp23
 70
     0
102
RTVSPropertyOp24
 70
     0
102
RTVSPropertyOp25
 70
     0
102
RTVSPropertyOp26
 70
     0
102
RTVSPropertyOp27
 70
     0
102
RTVSPropertyOp28
 70
     0
102
RTVSPropertyOp29
 70
     0
102
RTVSPropertyOp30
 70
     0
102
RTVSPropertyOp31
 70
     0
102
RTVSPropertyOp32
 70
     0
102
RTVSPropertyOp33
 70
     0
102
RTVSPropertyOp34
 70
     0
102
RTVSPropertyOp35
 70
     0
102
RTVSPropertyOp36
 70
     0
102
RTVSPropertyOp37
 70
     0
102
RTVSPropertyOp38
 70
     0
102
RTVSPropertyOp39
 70
     0
102
RTVSPropertyOp40
 70
     0
102
RTVSPropertyOp41
 70
     0
102
RTVSPropertyOp42
 70
     0
102
RTVSPropertyOp43
 70
     0
102
RTVSPropertyOp44
 70
     0
102
RTVSPropertyOp45
 70
     0
102
RTVSPropertyOp46
 70
     0
102
RTVSPropertyOp47
 70
     0
102
RTVSPropertyOp48
 70
     0
102
RTVSPropertyOp49
 70
     0
102
RTVSPropertyOp50
 70
     0
102
RTVSPropertyOp51
 70
     0
102
RTVSPropertyOp52
 70
     0
102
RTVSPropertyOp53
 70
     0
102
RTVSPropertyOp54
 70
     0
102
RTVSPropertyOp55
 70
     0
102
RTVSPropertyOp56
 70
     0
102
RTVSPropertyOp57
 70
     0
102
RTVSPropertyOp58
 70
     1
102
RTVSPropertyOp59
 70
     1
102
RTVSPropertyOp60
 70
     1
102
RTVSPropertyOp61
 70
     1
102
RTVSPropertyOp62
 70
     1
  0
XRECORD
  5
5292
102
{ACAD_REACTORS
330
5291
102
}
330
5291
100
AcDbXrecord
280
     1
102
RTVSPost2010Prop28
280
     0
102
RTVSPost2010PropOp28
 70
     1
102
RTVSPost2010Prop29
280
     1
102
RTVSPost2010PropOp29
 70
     1
102
RTVSPost2010Prop30
280
     1
102
RTVSPost2010PropOp30
 70
     1
102
RTVSPost2010Prop31
280
     0
102
RTVSPost2010PropOp31
 70
     1
102
RTVSPost2010Prop32
280
     0
102
RTVSPost2010PropOp32
 70
     1
102
RTVSPost2010Prop33
280
     0
102
RTVSPost2010PropOp33
 70
     1
102
RTVSPost2010Prop34
280
     0
102
RTVSPost2010PropOp34
 70
     1
102
RTVSPost2010Prop35
280
     0
102
RTVSPost2010PropOp35
 70
     1
102
RTVSPost2010Prop36
280
     0
102
RTVSPost2010PropOp36
 70
     1
102
RTVSPost2010Prop37
 90
       50
102
RTVSPost2010PropOp37
 70
     1
102
RTVSPost2010Prop38
140
0.0
102
RTVSPost2010PropOp38
 70
     1
102
RTVSPost2010Prop39
140
1.0
102
RTVSPost2010PropOp39
 70
     1
102
RTVSPost2010Prop40
 90
        0
102
RTVSPost2010PropOp40
 70
     1
102
RTVSPost2010Prop41ColorIndex
 90
       18
102
RTVSPost2010Prop41ColorRGB
 90
        0
102
RTVSPost2010PropOp41
 70
     1
102
RTVSPost2010Prop42
 90
       50
102
RTVSPost2010PropOp42
 70
     1
102
RTVSPost2010Prop43
 90
        3
102
RTVSPost2010PropOp43
 70
     1
102
RTVSPost2010Prop44ColorIndex
 90
        5
102
RTVSPost2010Prop44ColorRGB
 90
      255
102
RTVSPost2010PropOp44
 70
     1
102
RTVSPost2010Prop45
280
     0
102
RTVSPost2010PropOp45
 70
     1
102
RTVSPost2010Prop46
 90
       50
102
RTVSPost2010PropOp46
 70
     1
102
RTVSPost2010Prop47
 90
       50
102
RTVSPost2010PropOp47
 70
     1
102
RTVSPost2010Prop48
 90
       50
102
RTVSPost2010PropOp48
 70
     1
102
RTVSPost2010Prop49
280
     0
102
RTVSPost2010PropOp49
 70
     1
102
RTVSPost2010Prop50
 90
       50
102
RTVSPost2010PropOp50
 70
     1
102
RTVSPost2010Prop51ColorIndex
 90
      256
102
RTVSPost2010Prop51ColorRGB
 90
-16777216
102
RTVSPost2010PropOp51
 70
     0
102
RTVSPost2010Prop52
140
1.0
102
RTVSPost2010PropOp52
 70
     0
102
RTVSPost2010Prop53
 90
        2
102
RTVSPost2010PropOp53
 70
     1
102
RTVSPost2010Prop54
  1
strokes_ogs.tif
102
RTVSPost2010PropOp54
 70
     1
102
RTVSPost2010Prop55
280
     0
102
RTVSPost2010PropOp55
 70
     1
102
RTVSPost2010Prop56
140
1.0
102
RTVSPost2010PropOp56
 70
     1
102
RTVSPost2010Prop57
140
1.0
102
RTVSPost2010PropOp57
 70
     1
102
RTVSPropertyOp0
 70
     1
102
RTVSPropertyOp1
 70
     1
102
RTVSPropertyOp2
 70
     1
102
RTVSPropertyOp3
 70
     1
102
RTVSPropertyOp4
 70
     1
102
RTVSPropertyOp5
 70
     1
102
RTVSPropertyOp6
 70
     1
102
RTVSPropertyOp7
 70
     1
102
RTVSPropertyOp8
 70
     1
102
RTVSPropertyOp9
 70
     1
102
RTVSPropertyOp10
 70
     1
102
RTVSPropertyOp11
 70
     1
102
RTVSPropertyOp12
 70
     1
102
RTVSPropertyOp13
 70
     1
102
RTVSPropertyOp14
 70
     1
102
RTVSPropertyOp15
 70
     1
102
RTVSPropertyOp16
 70
     1
102
RTVSPropertyOp17
 70
     1
102
RTVSPropertyOp18
 70
     1
102
RTVSPropertyOp19
 70
     1
102
RTVSPropertyOp20
 70
     1
102
RTVSPropertyOp21
 70
     1
102
RTVSPropertyOp22
 70
     1
102
RTVSPropertyOp23
 70
     1
102
RTVSPropertyOp24
 70
     1
102
RTVSPropertyOp25
 70
     1
102
RTVSPropertyOp26
 70
     1
102
RTVSPropertyOp27
 70
     1
102
RTVSPropertyOp28
 70
     1
102
RTVSPropertyOp29
 70
     1
102
RTVSPropertyOp30
 70
     1
102
RTVSPropertyOp31
 70
     1
102
RTVSPropertyOp32
 70
     1
102
RTVSPropertyOp33
 70
     1
102
RTVSPropertyOp34
 70
     1
102
RTVSPropertyOp35
 70
     1
102
RTVSPropertyOp36
 70
     1
102
RTVSPropertyOp37
 70
     1
102
RTVSPropertyOp38
 70
     1
102
RTVSPropertyOp39
 70
     1
102
RTVSPropertyOp40
 70
     1
102
RTVSPropertyOp41
 70
     1
102
RTVSPropertyOp42
 70
     1
102
RTVSPropertyOp43
 70
     1
102
RTVSPropertyOp44
 70
     1
102
RTVSPropertyOp45
 70
     1
102
RTVSPropertyOp46
 70
     1
102
RTVSPropertyOp47
 70
     1
102
RTVSPropertyOp48
 70
     1
102
RTVSPropertyOp49
 70
     1
102
RTVSPropertyOp50
 70
     1
102
RTVSPropertyOp51
 70
     0
102
RTVSPropertyOp52
 70
     0
102
RTVSPropertyOp53
 70
     1
102
RTVSPropertyOp54
 70
     1
102
RTVSPropertyOp55
 70
     1
102
RTVSPropertyOp56
 70
     1
102
RTVSPropertyOp57
 70
     1
102
RTVSPropertyOp58
 70
     1
102
RTVSPropertyOp59
 70
     1
102
RTVSPropertyOp60
 70
     1
102
RTVSPropertyOp61
 70
     1
102
RTVSPropertyOp62
 70
     1
  0
XRECORD
  5
52A8
102
{ACAD_REACTORS
330
52A7
102
}
330
52A7
100
AcDbXrecord
280
     1
102
RTVSPost2010Prop28
280
     0
102
RTVSPost2010PropOp28
 70
     1
102
RTVSPost2010Prop29
280
     1
102
RTVSPost2010PropOp29
 70
     1
102
RTVSPost2010Prop30
280
     1
102
RTVSPost2010PropOp30
 70
     1
102
RTVSPost2010Prop31
280
     0
102
RTVSPost2010PropOp31
 70
     1
102
RTVSPost2010Prop32
280
     0
102
RTVSPost2010PropOp32
 70
     1
102
RTVSPost2010Prop33
280
     0
102
RTVSPost2010PropOp33
 70
     1
102
RTVSPost2010Prop34
280
     0
102
RTVSPost2010PropOp34
 70
     1
102
RTVSPost2010Prop35
280
     0
102
RTVSPost2010PropOp35
 70
     1
102
RTVSPost2010Prop36
280
     0
102
RTVSPost2010PropOp36
 70
     1
102
RTVSPost2010Prop37
 90
       50
102
RTVSPost2010PropOp37
 70
     1
102
RTVSPost2010Prop38
140
0.0
102
RTVSPost2010PropOp38
 70
     1
102
RTVSPost2010Prop39
140
1.0
102
RTVSPost2010PropOp39
 70
     1
102
RTVSPost2010Prop40
 90
        0
102
RTVSPost2010PropOp40
 70
     1
102
RTVSPost2010Prop41ColorIndex
 90
       18
102
RTVSPost2010Prop41ColorRGB
 90
        0
102
RTVSPost2010PropOp41
 70
     1
102
RTVSPost2010Prop42
 90
       50
102
RTVSPost2010PropOp42
 70
     1
102
RTVSPost2010Prop43
 90
        3
102
RTVSPost2010PropOp43
 70
     1
102
RTVSPost2010Prop44ColorIndex
 90
        5
102
RTVSPost2010Prop44ColorRGB
 90
      255
102
RTVSPost2010PropOp44
 70
     1
102
RTVSPost2010Prop45
280
     0
102
RTVSPost2010PropOp45
 70
     1
102
RTVSPost2010Prop46
 90
       50
102
RTVSPost2010PropOp46
 70
     1
102
RTVSPost2010Prop47
 90
       50
102
RTVSPost2010PropOp47
 70
     1
102
RTVSPost2010Prop48
 90
       50
102
RTVSPost2010PropOp48
 70
     1
102
RTVSPost2010Prop49
280
     0
102
RTVSPost2010PropOp49
 70
     1
102
RTVSPost2010Prop50
 90
       50
102
RTVSPost2010PropOp50
 70
     1
102
RTVSPost2010Prop51ColorIndex
 90
      256
102
RTVSPost2010Prop51ColorRGB
 90
-16777216
102
RTVSPost2010PropOp51
 70
     0
102
RTVSPost2010Prop52
140
1.0
102
RTVSPost2010PropOp52
 70
     0
102
RTVSPost2010Prop53
 90
        2
102
RTVSPost2010PropOp53
 70
     1
102
RTVSPost2010Prop54
  1
strokes_ogs.tif
102
RTVSPost2010PropOp54
 70
     1
102
RTVSPost2010Prop55
280
     0
102
RTVSPost2010PropOp55
 70
     1
102
RTVSPost2010Prop56
140
1.0
102
RTVSPost2010PropOp56
 70
     1
102
RTVSPost2010Prop57
140
1.0
102
RTVSPost2010PropOp57
 70
     1
102
RTVSPropertyOp0
 70
     1
102
RTVSPropertyOp1
 70
     1
102
RTVSPropertyOp2
 70
     1
102
RTVSPropertyOp3
 70
     1
102
RTVSPropertyOp4
 70
     1
102
RTVSPropertyOp5
 70
     1
102
RTVSPropertyOp6
 70
     1
102
RTVSPropertyOp7
 70
     1
102
RTVSPropertyOp8
 70
     1
102
RTVSPropertyOp9
 70
     1
102
RTVSPropertyOp10
 70
     1
102
RTVSPropertyOp11
 70
     1
102
RTVSPropertyOp12
 70
     1
102
RTVSPropertyOp13
 70
     1
102
RTVSPropertyOp14
 70
     1
102
RTVSPropertyOp15
 70
     1
102
RTVSPropertyOp16
 70
     1
102
RTVSPropertyOp17
 70
     1
102
RTVSPropertyOp18
 70
     1
102
RTVSPropertyOp19
 70
     1
102
RTVSPropertyOp20
 70
     1
102
RTVSPropertyOp21
 70
     1
102
RTVSPropertyOp22
 70
     1
102
RTVSPropertyOp23
 70
     1
102
RTVSPropertyOp24
 70
     1
102
RTVSPropertyOp25
 70
     1
102
RTVSPropertyOp26
 70
     1
102
RTVSPropertyOp27
 70
     1
102
RTVSPropertyOp28
 70
     1
102
RTVSPropertyOp29
 70
     1
102
RTVSPropertyOp30
 70
     1
102
RTVSPropertyOp31
 70
     1
102
RTVSPropertyOp32
 70
     1
102
RTVSPropertyOp33
 70
     1
102
RTVSPropertyOp34
 70
     1
102
RTVSPropertyOp35
 70
     1
102
RTVSPropertyOp36
 70
     1
102
RTVSPropertyOp37
 70
     1
102
RTVSPropertyOp38
 70
     1
102
RTVSPropertyOp39
 70
     1
102
RTVSPropertyOp40
 70
     1
102
RTVSPropertyOp41
 70
     1
102
RTVSPropertyOp42
 70
     1
102
RTVSPropertyOp43
 70
     1
102
RTVSPropertyOp44
 70
     1
102
RTVSPropertyOp45
 70
     1
102
RTVSPropertyOp46
 70
     1
102
RTVSPropertyOp47
 70
     1
102
RTVSPropertyOp48
 70
     1
102
RTVSPropertyOp49
 70
     1
102
RTVSPropertyOp50
 70
     1
102
RTVSPropertyOp51
 70
     0
102
RTVSPropertyOp52
 70
     0
102
RTVSPropertyOp53
 70
     1
102
RTVSPropertyOp54
 70
     1
102
RTVSPropertyOp55
 70
     1
102
RTVSPropertyOp56
 70
     1
102
RTVSPropertyOp57
 70
     1
102
RTVSPropertyOp58
 70
     1
102
RTVSPropertyOp59
 70
     1
102
RTVSPropertyOp60
 70
     1
102
RTVSPropertyOp61
 70
     1
102
RTVSPropertyOp62
 70
     1
  0
XRECORD
  5
52A6
102
{ACAD_REACTORS
330
52A5
102
}
330
52A5
100
AcDbXrecord
280
     1
102
RTVSPost2010Prop28
280
     0
102
RTVSPost2010PropOp28
 70
     1
102
RTVSPost2010Prop29
280
     1
102
RTVSPost2010PropOp29
 70
     1
102
RTVSPost2010Prop30
280
     1
102
RTVSPost2010PropOp30
 70
     1
102
RTVSPost2010Prop31
280
     0
102
RTVSPost2010PropOp31
 70
     1
102
RTVSPost2010Prop32
280
     0
102
RTVSPost2010PropOp32
 70
     1
102
RTVSPost2010Prop33
280
     0
102
RTVSPost2010PropOp33
 70
     1
102
RTVSPost2010Prop34
280
     0
102
RTVSPost2010PropOp34
 70
     1
102
RTVSPost2010Prop35
280
     0
102
RTVSPost2010PropOp35
 70
     1
102
RTVSPost2010Prop36
280
     0
102
RTVSPost2010PropOp36
 70
     1
102
RTVSPost2010Prop37
 90
       50
102
RTVSPost2010PropOp37
 70
     1
102
RTVSPost2010Prop38
140
0.0
102
RTVSPost2010PropOp38
 70
     1
102
RTVSPost2010Prop39
140
1.0
102
RTVSPost2010PropOp39
 70
     1
102
RTVSPost2010Prop40
 90
        0
102
RTVSPost2010PropOp40
 70
     1
102
RTVSPost2010Prop41ColorIndex
 90
       18
102
RTVSPost2010Prop41ColorRGB
 90
        0
102
RTVSPost2010PropOp41
 70
     1
102
RTVSPost2010Prop42
 90
       50
102
RTVSPost2010PropOp42
 70
     1
102
RTVSPost2010Prop43
 90
        3
102
RTVSPost2010PropOp43
 70
     1
102
RTVSPost2010Prop44ColorIndex
 90
        5
102
RTVSPost2010Prop44ColorRGB
 90
      255
102
RTVSPost2010PropOp44
 70
     1
102
RTVSPost2010Prop45
280
     0
102
RTVSPost2010PropOp45
 70
     1
102
RTVSPost2010Prop46
 90
       50
102
RTVSPost2010PropOp46
 70
     1
102
RTVSPost2010Prop47
 90
       50
102
RTVSPost2010PropOp47
 70
     1
102
RTVSPost2010Prop48
 90
       50
102
RTVSPost2010PropOp48
 70
     1
102
RTVSPost2010Prop49
280
     0
102
RTVSPost2010PropOp49
 70
     1
102
RTVSPost2010Prop50
 90
       50
102
RTVSPost2010PropOp50
 70
     1
102
RTVSPost2010Prop51ColorIndex
 90
      256
102
RTVSPost2010Prop51ColorRGB
 90
-16777216
102
RTVSPost2010PropOp51
 70
     0
102
RTVSPost2010Prop52
140
1.0
102
RTVSPost2010PropOp52
 70
     0
102
RTVSPost2010Prop53
 90
        2
102
RTVSPost2010PropOp53
 70
     1
102
RTVSPost2010Prop54
  1
strokes_ogs.tif
102
RTVSPost2010PropOp54
 70
     1
102
RTVSPost2010Prop55
280
     0
102
RTVSPost2010PropOp55
 70
     1
102
RTVSPost2010Prop56
140
1.0
102
RTVSPost2010PropOp56
 70
     1
102
RTVSPost2010Prop57
140
1.0
102
RTVSPost2010PropOp57
 70
     1
102
RTVSPropertyOp0
 70
     1
102
RTVSPropertyOp1
 70
     1
102
RTVSPropertyOp2
 70
     1
102
RTVSPropertyOp3
 70
     1
102
RTVSPropertyOp4
 70
     1
102
RTVSPropertyOp5
 70
     1
102
RTVSPropertyOp6
 70
     1
102
RTVSPropertyOp7
 70
     1
102
RTVSPropertyOp8
 70
     1
102
RTVSPropertyOp9
 70
     1
102
RTVSPropertyOp10
 70
     1
102
RTVSPropertyOp11
 70
     1
102
RTVSPropertyOp12
 70
     1
102
RTVSPropertyOp13
 70
     1
102
RTVSPropertyOp14
 70
     1
102
RTVSPropertyOp15
 70
     1
102
RTVSPropertyOp16
 70
     1
102
RTVSPropertyOp17
 70
     1
102
RTVSPropertyOp18
 70
     1
102
RTVSPropertyOp19
 70
     1
102
RTVSPropertyOp20
 70
     1
102
RTVSPropertyOp21
 70
     1
102
RTVSPropertyOp22
 70
     1
102
RTVSPropertyOp23
 70
     1
102
RTVSPropertyOp24
 70
     1
102
RTVSPropertyOp25
 70
     1
102
RTVSPropertyOp26
 70
     1
102
RTVSPropertyOp27
 70
     1
102
RTVSPropertyOp28
 70
     1
102
RTVSPropertyOp29
 70
     1
102
RTVSPropertyOp30
 70
     1
102
RTVSPropertyOp31
 70
     1
102
RTVSPropertyOp32
 70
     1
102
RTVSPropertyOp33
 70
     1
102
RTVSPropertyOp34
 70
     1
102
RTVSPropertyOp35
 70
     1
102
RTVSPropertyOp36
 70
     1
102
RTVSPropertyOp37
 70
     1
102
RTVSPropertyOp38
 70
     1
102
RTVSPropertyOp39
 70
     1
102
RTVSPropertyOp40
 70
     1
102
RTVSPropertyOp41
 70
     1
102
RTVSPropertyOp42
 70
     1
102
RTVSPropertyOp43
 70
     1
102
RTVSPropertyOp44
 70
     1
102
RTVSPropertyOp45
 70
     1
102
RTVSPropertyOp46
 70
     1
102
RTVSPropertyOp47
 70
     1
102
RTVSPropertyOp48
 70
     1
102
RTVSPropertyOp49
 70
     1
102
RTVSPropertyOp50
 70
     1
102
RTVSPropertyOp51
 70
     0
102
RTVSPropertyOp52
 70
     0
102
RTVSPropertyOp53
 70
     1
102
RTVSPropertyOp54
 70
     1
102
RTVSPropertyOp55
 70
     1
102
RTVSPropertyOp56
 70
     1
102
RTVSPropertyOp57
 70
     1
102
RTVSPropertyOp58
 70
     1
102
RTVSPropertyOp59
 70
     1
102
RTVSPropertyOp60
 70
     1
102
RTVSPropertyOp61
 70
     1
102
RTVSPropertyOp62
 70
     1
  0
XRECORD
  5
52A0
102
{ACAD_REACTORS
330
529F
102
}
330
529F
100
AcDbXrecord
280
     1
102
RTVSPost2010Prop28
280
     0
102
RTVSPost2010PropOp28
 70
     1
102
RTVSPost2010Prop29
280
     1
102
RTVSPost2010PropOp29
 70
     1
102
RTVSPost2010Prop30
280
     1
102
RTVSPost2010PropOp30
 70
     1
102
RTVSPost2010Prop31
280
     0
102
RTVSPost2010PropOp31
 70
     1
102
RTVSPost2010Prop32
280
     0
102
RTVSPost2010PropOp32
 70
     1
102
RTVSPost2010Prop33
280
     0
102
RTVSPost2010PropOp33
 70
     1
102
RTVSPost2010Prop34
280
     0
102
RTVSPost2010PropOp34
 70
     1
102
RTVSPost2010Prop35
280
     0
102
RTVSPost2010PropOp35
 70
     1
102
RTVSPost2010Prop36
280
     0
102
RTVSPost2010PropOp36
 70
     1
102
RTVSPost2010Prop37
 90
       50
102
RTVSPost2010PropOp37
 70
     1
102
RTVSPost2010Prop38
140
0.0
102
RTVSPost2010PropOp38
 70
     1
102
RTVSPost2010Prop39
140
1.0
102
RTVSPost2010PropOp39
 70
     1
102
RTVSPost2010Prop40
 90
        0
102
RTVSPost2010PropOp40
 70
     1
102
RTVSPost2010Prop41ColorIndex
 90
       18
102
RTVSPost2010Prop41ColorRGB
 90
        0
102
RTVSPost2010PropOp41
 70
     1
102
RTVSPost2010Prop42
 90
       50
102
RTVSPost2010PropOp42
 70
     1
102
RTVSPost2010Prop43
 90
        3
102
RTVSPost2010PropOp43
 70
     1
102
RTVSPost2010Prop44ColorIndex
 90
        5
102
RTVSPost2010Prop44ColorRGB
 90
      255
102
RTVSPost2010PropOp44
 70
     1
102
RTVSPost2010Prop45
280
     0
102
RTVSPost2010PropOp45
 70
     1
102
RTVSPost2010Prop46
 90
       50
102
RTVSPost2010PropOp46
 70
     1
102
RTVSPost2010Prop47
 90
       50
102
RTVSPost2010PropOp47
 70
     1
102
RTVSPost2010Prop48
 90
       50
102
RTVSPost2010PropOp48
 70
     1
102
RTVSPost2010Prop49
280
     0
102
RTVSPost2010PropOp49
 70
     1
102
RTVSPost2010Prop50
 90
       50
102
RTVSPost2010PropOp50
 70
     1
102
RTVSPost2010Prop51ColorIndex
 90
      256
102
RTVSPost2010Prop51ColorRGB
 90
-16777216
102
RTVSPost2010PropOp51
 70
     0
102
RTVSPost2010Prop52
140
1.0
102
RTVSPost2010PropOp52
 70
     0
102
RTVSPost2010Prop53
 90
        2
102
RTVSPost2010PropOp53
 70
     1
102
RTVSPost2010Prop54
  1
strokes_ogs.tif
102
RTVSPost2010PropOp54
 70
     1
102
RTVSPost2010Prop55
280
     0
102
RTVSPost2010PropOp55
 70
     1
102
RTVSPost2010Prop56
140
1.0
102
RTVSPost2010PropOp56
 70
     1
102
RTVSPost2010Prop57
140
1.0
102
RTVSPost2010PropOp57
 70
     1
102
RTVSPropertyOp0
 70
     1
102
RTVSPropertyOp1
 70
     1
102
RTVSPropertyOp2
 70
     1
102
RTVSPropertyOp3
 70
     1
102
RTVSPropertyOp4
 70
     1
102
RTVSPropertyOp5
 70
     1
102
RTVSPropertyOp6
 70
     1
102
RTVSPropertyOp7
 70
     1
102
RTVSPropertyOp8
 70
     1
102
RTVSPropertyOp9
 70
     1
102
RTVSPropertyOp10
 70
     1
102
RTVSPropertyOp11
 70
     1
102
RTVSPropertyOp12
 70
     1
102
RTVSPropertyOp13
 70
     1
102
RTVSPropertyOp14
 70
     1
102
RTVSPropertyOp15
 70
     1
102
RTVSPropertyOp16
 70
     1
102
RTVSPropertyOp17
 70
     1
102
RTVSPropertyOp18
 70
     1
102
RTVSPropertyOp19
 70
     1
102
RTVSPropertyOp20
 70
     1
102
RTVSPropertyOp21
 70
     1
102
RTVSPropertyOp22
 70
     1
102
RTVSPropertyOp23
 70
     1
102
RTVSPropertyOp24
 70
     1
102
RTVSPropertyOp25
 70
     1
102
RTVSPropertyOp26
 70
     1
102
RTVSPropertyOp27
 70
     1
102
RTVSPropertyOp28
 70
     1
102
RTVSPropertyOp29
 70
     1
102
RTVSPropertyOp30
 70
     1
102
RTVSPropertyOp31
 70
     1
102
RTVSPropertyOp32
 70
     1
102
RTVSPropertyOp33
 70
     1
102
RTVSPropertyOp34
 70
     1
102
RTVSPropertyOp35
 70
     1
102
RTVSPropertyOp36
 70
     1
102
RTVSPropertyOp37
 70
     1
102
RTVSPropertyOp38
 70
     1
102
RTVSPropertyOp39
 70
     1
102
RTVSPropertyOp40
 70
     1
102
RTVSPropertyOp41
 70
     1
102
RTVSPropertyOp42
 70
     1
102
RTVSPropertyOp43
 70
     1
102
RTVSPropertyOp44
 70
     1
102
RTVSPropertyOp45
 70
     1
102
RTVSPropertyOp46
 70
     1
102
RTVSPropertyOp47
 70
     1
102
RTVSPropertyOp48
 70
     1
102
RTVSPropertyOp49
 70
     1
102
RTVSPropertyOp50
 70
     1
102
RTVSPropertyOp51
 70
     0
102
RTVSPropertyOp52
 70
     0
102
RTVSPropertyOp53
 70
     1
102
RTVSPropertyOp54
 70
     1
102
RTVSPropertyOp55
 70
     1
102
RTVSPropertyOp56
 70
     1
102
RTVSPropertyOp57
 70
     1
102
RTVSPropertyOp58
 70
     1
102
RTVSPropertyOp59
 70
     1
102
RTVSPropertyOp60
 70
     1
102
RTVSPropertyOp61
 70
     1
102
RTVSPropertyOp62
 70
     1
  0
XRECORD
  5
52A2
102
{ACAD_REACTORS
330
52A1
102
}
330
52A1
100
AcDbXrecord
280
     1
102
RTVSPost2010Prop28
280
     0
102
RTVSPost2010PropOp28
 70
     1
102
RTVSPost2010Prop29
280
     1
102
RTVSPost2010PropOp29
 70
     1
102
RTVSPost2010Prop30
280
     1
102
RTVSPost2010PropOp30
 70
     1
102
RTVSPost2010Prop31
280
     0
102
RTVSPost2010PropOp31
 70
     1
102
RTVSPost2010Prop32
280
     0
102
RTVSPost2010PropOp32
 70
     1
102
RTVSPost2010Prop33
280
     0
102
RTVSPost2010PropOp33
 70
     1
102
RTVSPost2010Prop34
280
     0
102
RTVSPost2010PropOp34
 70
     1
102
RTVSPost2010Prop35
280
     0
102
RTVSPost2010PropOp35
 70
     1
102
RTVSPost2010Prop36
280
     0
102
RTVSPost2010PropOp36
 70
     1
102
RTVSPost2010Prop37
 90
       50
102
RTVSPost2010PropOp37
 70
     1
102
RTVSPost2010Prop38
140
0.0
102
RTVSPost2010PropOp38
 70
     1
102
RTVSPost2010Prop39
140
1.0
102
RTVSPost2010PropOp39
 70
     1
102
RTVSPost2010Prop40
 90
        0
102
RTVSPost2010PropOp40
 70
     1
102
RTVSPost2010Prop41ColorIndex
 90
       18
102
RTVSPost2010Prop41ColorRGB
 90
        0
102
RTVSPost2010PropOp41
 70
     1
102
RTVSPost2010Prop42
 90
       50
102
RTVSPost2010PropOp42
 70
     1
102
RTVSPost2010Prop43
 90
        3
102
RTVSPost2010PropOp43
 70
     1
102
RTVSPost2010Prop44ColorIndex
 90
        5
102
RTVSPost2010Prop44ColorRGB
 90
      255
102
RTVSPost2010PropOp44
 70
     1
102
RTVSPost2010Prop45
280
     0
102
RTVSPost2010PropOp45
 70
     1
102
RTVSPost2010Prop46
 90
       50
102
RTVSPost2010PropOp46
 70
     1
102
RTVSPost2010Prop47
 90
       50
102
RTVSPost2010PropOp47
 70
     1
102
RTVSPost2010Prop48
 90
       50
102
RTVSPost2010PropOp48
 70
     1
102
RTVSPost2010Prop49
280
     0
102
RTVSPost2010PropOp49
 70
     1
102
RTVSPost2010Prop50
 90
       50
102
RTVSPost2010PropOp50
 70
     1
102
RTVSPost2010Prop51ColorIndex
 90
      256
102
RTVSPost2010Prop51ColorRGB
 90
-16777216
102
RTVSPost2010PropOp51
 70
     0
102
RTVSPost2010Prop52
140
1.0
102
RTVSPost2010PropOp52
 70
     0
102
RTVSPost2010Prop53
 90
        2
102
RTVSPost2010PropOp53
 70
     1
102
RTVSPost2010Prop54
  1
strokes_ogs.tif
102
RTVSPost2010PropOp54
 70
     1
102
RTVSPost2010Prop55
280
     0
102
RTVSPost2010PropOp55
 70
     1
102
RTVSPost2010Prop56
140
1.0
102
RTVSPost2010PropOp56
 70
     1
102
RTVSPost2010Prop57
140
1.0
102
RTVSPost2010PropOp57
 70
     1
102
RTVSPropertyOp0
 70
     1
102
RTVSPropertyOp1
 70
     1
102
RTVSPropertyOp2
 70
     1
102
RTVSPropertyOp3
 70
     1
102
RTVSPropertyOp4
 70
     1
102
RTVSPropertyOp5
 70
     1
102
RTVSPropertyOp6
 70
     1
102
RTVSPropertyOp7
 70
     1
102
RTVSPropertyOp8
 70
     1
102
RTVSPropertyOp9
 70
     1
102
RTVSPropertyOp10
 70
     1
102
RTVSPropertyOp11
 70
     1
102
RTVSPropertyOp12
 70
     1
102
RTVSPropertyOp13
 70
     1
102
RTVSPropertyOp14
 70
     1
102
RTVSPropertyOp15
 70
     1
102
RTVSPropertyOp16
 70
     1
102
RTVSPropertyOp17
 70
     1
102
RTVSPropertyOp18
 70
     1
102
RTVSPropertyOp19
 70
     1
102
RTVSPropertyOp20
 70
     1
102
RTVSPropertyOp21
 70
     1
102
RTVSPropertyOp22
 70
     1
102
RTVSPropertyOp23
 70
     1
102
RTVSPropertyOp24
 70
     1
102
RTVSPropertyOp25
 70
     1
102
RTVSPropertyOp26
 70
     1
102
RTVSPropertyOp27
 70
     1
102
RTVSPropertyOp28
 70
     1
102
RTVSPropertyOp29
 70
     1
102
RTVSPropertyOp30
 70
     1
102
RTVSPropertyOp31
 70
     1
102
RTVSPropertyOp32
 70
     1
102
RTVSPropertyOp33
 70
     1
102
RTVSPropertyOp34
 70
     1
102
RTVSPropertyOp35
 70
     1
102
RTVSPropertyOp36
 70
     1
102
RTVSPropertyOp37
 70
     1
102
RTVSPropertyOp38
 70
     1
102
RTVSPropertyOp39
 70
     1
102
RTVSPropertyOp40
 70
     1
102
RTVSPropertyOp41
 70
     1
102
RTVSPropertyOp42
 70
     1
102
RTVSPropertyOp43
 70
     1
102
RTVSPropertyOp44
 70
     1
102
RTVSPropertyOp45
 70
     1
102
RTVSPropertyOp46
 70
     1
102
RTVSPropertyOp47
 70
     1
102
RTVSPropertyOp48
 70
     1
102
RTVSPropertyOp49
 70
     1
102
RTVSPropertyOp50
 70
     1
102
RTVSPropertyOp51
 70
     0
102
RTVSPropertyOp52
 70
     0
102
RTVSPropertyOp53
 70
     1
102
RTVSPropertyOp54
 70
     1
102
RTVSPropertyOp55
 70
     1
102
RTVSPropertyOp56
 70
     1
102
RTVSPropertyOp57
 70
     1
102
RTVSPropertyOp58
 70
     1
102
RTVSPropertyOp59
 70
     1
102
RTVSPropertyOp60
 70
     1
102
RTVSPropertyOp61
 70
     1
102
RTVSPropertyOp62
 70
     1
  0
XRECORD
  5
5298
102
{ACAD_REACTORS
330
5297
102
}
330
5297
100
AcDbXrecord
280
     1
102
RTVSPost2010Prop28
280
     0
102
RTVSPost2010PropOp28
 70
     1
102
RTVSPost2010Prop29
280
     1
102
RTVSPost2010PropOp29
 70
     1
102
RTVSPost2010Prop30
280
     1
102
RTVSPost2010PropOp30
 70
     1
102
RTVSPost2010Prop31
280
     0
102
RTVSPost2010PropOp31
 70
     1
102
RTVSPost2010Prop32
280
     0
102
RTVSPost2010PropOp32
 70
     1
102
RTVSPost2010Prop33
280
     0
102
RTVSPost2010PropOp33
 70
     1
102
RTVSPost2010Prop34
280
     0
102
RTVSPost2010PropOp34
 70
     1
102
RTVSPost2010Prop35
280
     0
102
RTVSPost2010PropOp35
 70
     1
102
RTVSPost2010Prop36
280
     0
102
RTVSPost2010PropOp36
 70
     1
102
RTVSPost2010Prop37
 90
       50
102
RTVSPost2010PropOp37
 70
     1
102
RTVSPost2010Prop38
140
0.0
102
RTVSPost2010PropOp38
 70
     1
102
RTVSPost2010Prop39
140
1.0
102
RTVSPost2010PropOp39
 70
     1
102
RTVSPost2010Prop40
 90
        0
102
RTVSPost2010PropOp40
 70
     1
102
RTVSPost2010Prop41ColorIndex
 90
       18
102
RTVSPost2010Prop41ColorRGB
 90
        0
102
RTVSPost2010PropOp41
 70
     1
102
RTVSPost2010Prop42
 90
       50
102
RTVSPost2010PropOp42
 70
     1
102
RTVSPost2010Prop43
 90
        3
102
RTVSPost2010PropOp43
 70
     1
102
RTVSPost2010Prop44ColorIndex
 90
        5
102
RTVSPost2010Prop44ColorRGB
 90
      255
102
RTVSPost2010PropOp44
 70
     1
102
RTVSPost2010Prop45
280
     0
102
RTVSPost2010PropOp45
 70
     1
102
RTVSPost2010Prop46
 90
       50
102
RTVSPost2010PropOp46
 70
     1
102
RTVSPost2010Prop47
 90
       50
102
RTVSPost2010PropOp47
 70
     1
102
RTVSPost2010Prop48
 90
       50
102
RTVSPost2010PropOp48
 70
     1
102
RTVSPost2010Prop49
280
     0
102
RTVSPost2010PropOp49
 70
     1
102
RTVSPost2010Prop50
 90
       50
102
RTVSPost2010PropOp50
 70
     1
102
RTVSPost2010Prop51ColorIndex
 90
      256
102
RTVSPost2010Prop51ColorRGB
 90
-16777216
102
RTVSPost2010PropOp51
 70
     0
102
RTVSPost2010Prop52
140
1.0
102
RTVSPost2010PropOp52
 70
     0
102
RTVSPost2010Prop53
 90
        2
102
RTVSPost2010PropOp53
 70
     1
102
RTVSPost2010Prop54
  1
strokes_ogs.tif
102
RTVSPost2010PropOp54
 70
     1
102
RTVSPost2010Prop55
280
     0
102
RTVSPost2010PropOp55
 70
     1
102
RTVSPost2010Prop56
140
1.0
102
RTVSPost2010PropOp56
 70
     1
102
RTVSPost2010Prop57
140
1.0
102
RTVSPost2010PropOp57
 70
     1
102
RTVSPropertyOp0
 70
     1
102
RTVSPropertyOp1
 70
     1
102
RTVSPropertyOp2
 70
     1
102
RTVSPropertyOp3
 70
     1
102
RTVSPropertyOp4
 70
     1
102
RTVSPropertyOp5
 70
     1
102
RTVSPropertyOp6
 70
     1
102
RTVSPropertyOp7
 70
     1
102
RTVSPropertyOp8
 70
     1
102
RTVSPropertyOp9
 70
     1
102
RTVSPropertyOp10
 70
     1
102
RTVSPropertyOp11
 70
     1
102
RTVSPropertyOp12
 70
     1
102
RTVSPropertyOp13
 70
     1
102
RTVSPropertyOp14
 70
     1
102
RTVSPropertyOp15
 70
     1
102
RTVSPropertyOp16
 70
     1
102
RTVSPropertyOp17
 70
     1
102
RTVSPropertyOp18
 70
     1
102
RTVSPropertyOp19
 70
     1
102
RTVSPropertyOp20
 70
     1
102
RTVSPropertyOp21
 70
     1
102
RTVSPropertyOp22
 70
     1
102
RTVSPropertyOp23
 70
     1
102
RTVSPropertyOp24
 70
     1
102
RTVSPropertyOp25
 70
     1
102
RTVSPropertyOp26
 70
     1
102
RTVSPropertyOp27
 70
     1
102
RTVSPropertyOp28
 70
     1
102
RTVSPropertyOp29
 70
     1
102
RTVSPropertyOp30
 70
     1
102
RTVSPropertyOp31
 70
     1
102
RTVSPropertyOp32
 70
     1
102
RTVSPropertyOp33
 70
     1
102
RTVSPropertyOp34
 70
     1
102
RTVSPropertyOp35
 70
     1
102
RTVSPropertyOp36
 70
     1
102
RTVSPropertyOp37
 70
     1
102
RTVSPropertyOp38
 70
     1
102
RTVSPropertyOp39
 70
     1
102
RTVSPropertyOp40
 70
     1
102
RTVSPropertyOp41
 70
     1
102
RTVSPropertyOp42
 70
     1
102
RTVSPropertyOp43
 70
     1
102
RTVSPropertyOp44
 70
     1
102
RTVSPropertyOp45
 70
     1
102
RTVSPropertyOp46
 70
     1
102
RTVSPropertyOp47
 70
     1
102
RTVSPropertyOp48
 70
     1
102
RTVSPropertyOp49
 70
     1
102
RTVSPropertyOp50
 70
     1
102
RTVSPropertyOp51
 70
     0
102
RTVSPropertyOp52
 70
     0
102
RTVSPropertyOp53
 70
     1
102
RTVSPropertyOp54
 70
     1
102
RTVSPropertyOp55
 70
     1
102
RTVSPropertyOp56
 70
     1
102
RTVSPropertyOp57
 70
     1
102
RTVSPropertyOp58
 70
     1
102
RTVSPropertyOp59
 70
     1
102
RTVSPropertyOp60
 70
     1
102
RTVSPropertyOp61
 70
     1
102
RTVSPropertyOp62
 70
     1
  0
XRECORD
  5
528C
102
{ACAD_REACTORS
330
528B
102
}
330
528B
100
AcDbXrecord
280
     1
102
RTVSPost2010Prop28
280
     0
102
RTVSPost2010PropOp28
 70
     1
102
RTVSPost2010Prop29
280
     1
102
RTVSPost2010PropOp29
 70
     1
102
RTVSPost2010Prop30
280
     1
102
RTVSPost2010PropOp30
 70
     1
102
RTVSPost2010Prop31
280
     0
102
RTVSPost2010PropOp31
 70
     1
102
RTVSPost2010Prop32
280
     0
102
RTVSPost2010PropOp32
 70
     1
102
RTVSPost2010Prop33
280
     0
102
RTVSPost2010PropOp33
 70
     1
102
RTVSPost2010Prop34
280
     0
102
RTVSPost2010PropOp34
 70
     1
102
RTVSPost2010Prop35
280
     0
102
RTVSPost2010PropOp35
 70
     1
102
RTVSPost2010Prop36
280
     0
102
RTVSPost2010PropOp36
 70
     1
102
RTVSPost2010Prop37
 90
       50
102
RTVSPost2010PropOp37
 70
     1
102
RTVSPost2010Prop38
140
0.0
102
RTVSPost2010PropOp38
 70
     1
102
RTVSPost2010Prop39
140
1.0
102
RTVSPost2010PropOp39
 70
     1
102
RTVSPost2010Prop40
 90
        0
102
RTVSPost2010PropOp40
 70
     1
102
RTVSPost2010Prop41ColorIndex
 90
       18
102
RTVSPost2010Prop41ColorRGB
 90
        0
102
RTVSPost2010PropOp41
 70
     1
102
RTVSPost2010Prop42
 90
       50
102
RTVSPost2010PropOp42
 70
     1
102
RTVSPost2010Prop43
 90
        3
102
RTVSPost2010PropOp43
 70
     1
102
RTVSPost2010Prop44ColorIndex
 90
        5
102
RTVSPost2010Prop44ColorRGB
 90
      255
102
RTVSPost2010PropOp44
 70
     1
102
RTVSPost2010Prop45
280
     0
102
RTVSPost2010PropOp45
 70
     1
102
RTVSPost2010Prop46
 90
       50
102
RTVSPost2010PropOp46
 70
     1
102
RTVSPost2010Prop47
 90
       50
102
RTVSPost2010PropOp47
 70
     1
102
RTVSPost2010Prop48
 90
       50
102
RTVSPost2010PropOp48
 70
     1
102
RTVSPost2010Prop49
280
     0
102
RTVSPost2010PropOp49
 70
     1
102
RTVSPost2010Prop50
 90
       50
102
RTVSPost2010PropOp50
 70
     1
102
RTVSPost2010Prop51ColorIndex
 90
      256
102
RTVSPost2010Prop51ColorRGB
 90
-16777216
102
RTVSPost2010PropOp51
 70
     0
102
RTVSPost2010Prop52
140
1.0
102
RTVSPost2010PropOp52
 70
     0
102
RTVSPost2010Prop53
 90
        2
102
RTVSPost2010PropOp53
 70
     1
102
RTVSPost2010Prop54
  1
strokes_ogs.tif
102
RTVSPost2010PropOp54
 70
     1
102
RTVSPost2010Prop55
280
     0
102
RTVSPost2010PropOp55
 70
     1
102
RTVSPost2010Prop56
140
1.0
102
RTVSPost2010PropOp56
 70
     1
102
RTVSPost2010Prop57
140
1.0
102
RTVSPost2010PropOp57
 70
     1
102
RTVSPropertyOp0
 70
     1
102
RTVSPropertyOp1
 70
     1
102
RTVSPropertyOp2
 70
     1
102
RTVSPropertyOp3
 70
     1
102
RTVSPropertyOp4
 70
     1
102
RTVSPropertyOp5
 70
     1
102
RTVSPropertyOp6
 70
     1
102
RTVSPropertyOp7
 70
     1
102
RTVSPropertyOp8
 70
     1
102
RTVSPropertyOp9
 70
     1
102
RTVSPropertyOp10
 70
     1
102
RTVSPropertyOp11
 70
     1
102
RTVSPropertyOp12
 70
     1
102
RTVSPropertyOp13
 70
     1
102
RTVSPropertyOp14
 70
     1
102
RTVSPropertyOp15
 70
     1
102
RTVSPropertyOp16
 70
     1
102
RTVSPropertyOp17
 70
     1
102
RTVSPropertyOp18
 70
     1
102
RTVSPropertyOp19
 70
     1
102
RTVSPropertyOp20
 70
     1
102
RTVSPropertyOp21
 70
     1
102
RTVSPropertyOp22
 70
     1
102
RTVSPropertyOp23
 70
     1
102
RTVSPropertyOp24
 70
     1
102
RTVSPropertyOp25
 70
     1
102
RTVSPropertyOp26
 70
     1
102
RTVSPropertyOp27
 70
     1
102
RTVSPropertyOp28
 70
     1
102
RTVSPropertyOp29
 70
     1
102
RTVSPropertyOp30
 70
     1
102
RTVSPropertyOp31
 70
     1
102
RTVSPropertyOp32
 70
     1
102
RTVSPropertyOp33
 70
     1
102
RTVSPropertyOp34
 70
     1
102
RTVSPropertyOp35
 70
     1
102
RTVSPropertyOp36
 70
     1
102
RTVSPropertyOp37
 70
     1
102
RTVSPropertyOp38
 70
     1
102
RTVSPropertyOp39
 70
     1
102
RTVSPropertyOp40
 70
     1
102
RTVSPropertyOp41
 70
     1
102
RTVSPropertyOp42
 70
     1
102
RTVSPropertyOp43
 70
     1
102
RTVSPropertyOp44
 70
     1
102
RTVSPropertyOp45
 70
     1
102
RTVSPropertyOp46
 70
     1
102
RTVSPropertyOp47
 70
     1
102
RTVSPropertyOp48
 70
     1
102
RTVSPropertyOp49
 70
     1
102
RTVSPropertyOp50
 70
     1
102
RTVSPropertyOp51
 70
     0
102
RTVSPropertyOp52
 70
     0
102
RTVSPropertyOp53
 70
     1
102
RTVSPropertyOp54
 70
     1
102
RTVSPropertyOp55
 70
     1
102
RTVSPropertyOp56
 70
     1
102
RTVSPropertyOp57
 70
     1
102
RTVSPropertyOp58
 70
     1
102
RTVSPropertyOp59
 70
     1
102
RTVSPropertyOp60
 70
     1
102
RTVSPropertyOp61
 70
     1
102
RTVSPropertyOp62
 70
     1
  0
XRECORD
  5
52A4
102
{ACAD_REACTORS
330
52A3
102
}
330
52A3
100
AcDbXrecord
280
     1
102
RTVSPost2010Prop28
280
     0
102
RTVSPost2010PropOp28
 70
     1
102
RTVSPost2010Prop29
280
     1
102
RTVSPost2010PropOp29
 70
     1
102
RTVSPost2010Prop30
280
     1
102
RTVSPost2010PropOp30
 70
     1
102
RTVSPost2010Prop31
280
     0
102
RTVSPost2010PropOp31
 70
     1
102
RTVSPost2010Prop32
280
     0
102
RTVSPost2010PropOp32
 70
     1
102
RTVSPost2010Prop33
280
     0
102
RTVSPost2010PropOp33
 70
     1
102
RTVSPost2010Prop34
280
     0
102
RTVSPost2010PropOp34
 70
     1
102
RTVSPost2010Prop35
280
     0
102
RTVSPost2010PropOp35
 70
     1
102
RTVSPost2010Prop36
280
     0
102
RTVSPost2010PropOp36
 70
     1
102
RTVSPost2010Prop37
 90
       50
102
RTVSPost2010PropOp37
 70
     1
102
RTVSPost2010Prop38
140
0.0
102
RTVSPost2010PropOp38
 70
     1
102
RTVSPost2010Prop39
140
1.0
102
RTVSPost2010PropOp39
 70
     1
102
RTVSPost2010Prop40
 90
        0
102
RTVSPost2010PropOp40
 70
     1
102
RTVSPost2010Prop41ColorIndex
 90
       18
102
RTVSPost2010Prop41ColorRGB
 90
        0
102
RTVSPost2010PropOp41
 70
     1
102
RTVSPost2010Prop42
 90
       50
102
RTVSPost2010PropOp42
 70
     1
102
RTVSPost2010Prop43
 90
        3
102
RTVSPost2010PropOp43
 70
     1
102
RTVSPost2010Prop44ColorIndex
 90
        5
102
RTVSPost2010Prop44ColorRGB
 90
      255
102
RTVSPost2010PropOp44
 70
     1
102
RTVSPost2010Prop45
280
     0
102
RTVSPost2010PropOp45
 70
     1
102
RTVSPost2010Prop46
 90
       50
102
RTVSPost2010PropOp46
 70
     1
102
RTVSPost2010Prop47
 90
       50
102
RTVSPost2010PropOp47
 70
     1
102
RTVSPost2010Prop48
 90
       50
102
RTVSPost2010PropOp48
 70
     1
102
RTVSPost2010Prop49
280
     0
102
RTVSPost2010PropOp49
 70
     1
102
RTVSPost2010Prop50
 90
       50
102
RTVSPost2010PropOp50
 70
     1
102
RTVSPost2010Prop51ColorIndex
 90
      256
102
RTVSPost2010Prop51ColorRGB
 90
-16777216
102
RTVSPost2010PropOp51
 70
     0
102
RTVSPost2010Prop52
140
1.0
102
RTVSPost2010PropOp52
 70
     0
102
RTVSPost2010Prop53
 90
        2
102
RTVSPost2010PropOp53
 70
     1
102
RTVSPost2010Prop54
  1
strokes_ogs.tif
102
RTVSPost2010PropOp54
 70
     1
102
RTVSPost2010Prop55
280
     0
102
RTVSPost2010PropOp55
 70
     1
102
RTVSPost2010Prop56
140
1.0
102
RTVSPost2010PropOp56
 70
     1
102
RTVSPost2010Prop57
140
1.0
102
RTVSPost2010PropOp57
 70
     1
102
RTVSPropertyOp0
 70
     1
102
RTVSPropertyOp1
 70
     1
102
RTVSPropertyOp2
 70
     1
102
RTVSPropertyOp3
 70
     1
102
RTVSPropertyOp4
 70
     1
102
RTVSPropertyOp5
 70
     1
102
RTVSPropertyOp6
 70
     1
102
RTVSPropertyOp7
 70
     1
102
RTVSPropertyOp8
 70
     1
102
RTVSPropertyOp9
 70
     1
102
RTVSPropertyOp10
 70
     1
102
RTVSPropertyOp11
 70
     1
102
RTVSPropertyOp12
 70
     1
102
RTVSPropertyOp13
 70
     1
102
RTVSPropertyOp14
 70
     1
102
RTVSPropertyOp15
 70
     1
102
RTVSPropertyOp16
 70
     1
102
RTVSPropertyOp17
 70
     1
102
RTVSPropertyOp18
 70
     1
102
RTVSPropertyOp19
 70
     1
102
RTVSPropertyOp20
 70
     1
102
RTVSPropertyOp21
 70
     1
102
RTVSPropertyOp22
 70
     1
102
RTVSPropertyOp23
 70
     1
102
RTVSPropertyOp24
 70
     1
102
RTVSPropertyOp25
 70
     1
102
RTVSPropertyOp26
 70
     1
102
RTVSPropertyOp27
 70
     1
102
RTVSPropertyOp28
 70
     1
102
RTVSPropertyOp29
 70
     1
102
RTVSPropertyOp30
 70
     1
102
RTVSPropertyOp31
 70
     1
102
RTVSPropertyOp32
 70
     1
102
RTVSPropertyOp33
 70
     1
102
RTVSPropertyOp34
 70
     1
102
RTVSPropertyOp35
 70
     1
102
RTVSPropertyOp36
 70
     1
102
RTVSPropertyOp37
 70
     1
102
RTVSPropertyOp38
 70
     1
102
RTVSPropertyOp39
 70
     1
102
RTVSPropertyOp40
 70
     1
102
RTVSPropertyOp41
 70
     1
102
RTVSPropertyOp42
 70
     1
102
RTVSPropertyOp43
 70
     1
102
RTVSPropertyOp44
 70
     1
102
RTVSPropertyOp45
 70
     1
102
RTVSPropertyOp46
 70
     1
102
RTVSPropertyOp47
 70
     1
102
RTVSPropertyOp48
 70
     1
102
RTVSPropertyOp49
 70
     1
102
RTVSPropertyOp50
 70
     1
102
RTVSPropertyOp51
 70
     0
102
RTVSPropertyOp52
 70
     0
102
RTVSPropertyOp53
 70
     1
102
RTVSPropertyOp54
 70
     1
102
RTVSPropertyOp55
 70
     1
102
RTVSPropertyOp56
 70
     1
102
RTVSPropertyOp57
 70
     1
102
RTVSPropertyOp58
 70
     1
102
RTVSPropertyOp59
 70
     1
102
RTVSPropertyOp60
 70
     1
102
RTVSPropertyOp61
 70
     1
102
RTVSPropertyOp62
 70
     1
  0
ENDSEC
  0
EOF
