  0
SECTION
  2
HEADER
  9
$ACADVER
  1
AC1018
  9
$ACADMAINTVER
 70
   104
  9
$DWGCODEPAGE
  3
ANSI_1250
  9
$LASTSAVEDBY
  1
EVA
  9
$INSBASE
 10
0.0
 20
0.0
 30
0.0
  9
$EXTMIN
 10
70.30587700879424
 20
62.95943637126447
 30
0.0
  9
$EXTMAX
 10
900.5063439737282
 20
1287.397042492462
 30
0.0
  9
$LIMMIN
 10
0.0
 20
0.0
  9
$LIMMAX
 10
271.6285070728513
 20
136.3429239280804
  9
$ORTHOMODE
 70
     1
  9
$REGENMODE
 70
     1
  9
$FILLMODE
 70
     1
  9
$QTEXTMODE
 70
     0
  9
$MIRRTEXT
 70
     0
  9
$LTSCALE
 40
15.0
  9
$ATTMODE
 70
     1
  9
$TEXTSIZE
 40
14.0
  9
$TRACEWID
 40
1.0
  9
$TEXTSTYLE
  7
ROMANS
  9
$CLAYER
  8
V25
  9
$CELTYPE
  6
BYLAYER
  9
$CECOLOR
 62
   256
  9
$CELTSCALE
 40
15.0
  9
$DISPSILH
 70
     0
  9
$DIMSCALE
 40
5.0
  9
$DIMASZ
 40
3.5
  9
$DIMEXO
 40
0.0
  9
$DIMDLI
 40
3.75
  9
$DIMRND
 40
0.0
  9
$DIMDLE
 40
0.0
  9
$DIMEXE
 40
1.25
  9
$DIMTP
 40
0.0
  9
$DIMTM
 40
0.0
  9
$DIMTXT
 40
3.5
  9
$DIMCEN
 40
3.5
  9
$DIMTSZ
 40
0.0
  9
$DIMTOL
 70
     0
  9
$DIMLIM
 70
     0
  9
$DIMTIH
 70
     0
  9
$DIMTOH
 70
     0
  9
$DIMSE1
 70
     0
  9
$DIMSE2
 70
     0
  9
$DIMTAD
 70
     1
  9
$DIMZIN
 70
     8
  9
$DIMBLK
  1

  9
$DIMASO
 70
     1
  9
$DIMSHO
 70
     1
  9
$DIMPOST
  1

  9
$DIMAPOST
  1

  9
$DIMALT
 70
     0
  9
$DIMALTD
 70
     4
  9
$DIMALTF
 40
0.0394
  9
$DIMLFAC
 40
1.0
  9
$DIMTOFL
 70
     0
  9
$DIMTVP
 40
0.0
  9
$DIMTIX
 70
     0
  9
$DIMSOXD
 70
     0
  9
$DIMSAH
 70
     0
  9
$DIMBLK1
  1

  9
$DIMBLK2
  1

  9
$DIMSTYLE
  2
18
  9
$DIMCLRD
 70
     0
  9
$DIMCLRE
 70
     0
  9
$DIMCLRT
 70
     2
  9
$DIMTFAC
 40
1.0
  9
$DIMGAP
 40
0.625
  9
$DIMJUST
 70
     0
  9
$DIMSD1
 70
     0
  9
$DIMSD2
 70
     0
  9
$DIMTOLJ
 70
     1
  9
$DIMTZIN
 70
     0
  9
$DIMALTZ
 70
     0
  9
$DIMALTTZ
 70
     0
  9
$DIMUPT
 70
     0
  9
$DIMDEC
 70
     0
  9
$DIMTDEC
 70
     4
  9
$DIMALTU
 70
     8
  9
$DIMALTTD
 70
     4
  9
$DIMTXSTY
  7
ROMANS
  9
$DIMAUNIT
 70
     0
  9
$DIMADEC
 70
     0
  9
$DIMALTRND
 40
0.0
  9
$DIMAZIN
 70
     0
  9
$DIMDSEP
 70
    46
  9
$DIMATFIT
 70
     3
  9
$DIMFRAC
 70
     0
  9
$DIMLDRBLK
  1

  9
$DIMLUNIT
 70
     6
  9
$DIMLWD
 70
    -2
  9
$DIMLWE
 70
    -2
  9
$DIMTMOVE
 70
     0
  9
$LUNITS
 70
     2
  9
$LUPREC
 70
     4
  9
$SKETCHINC
 40
0.5
  9
$FILLETRAD
 40
0.0
  9
$AUNITS
 70
     0
  9
$AUPREC
 70
     0
  9
$MENU
  1
.
  9
$ELEVATION
 40
0.0
  9
$PELEVATION
 40
0.0
  9
$THICKNESS
 40
0.0
  9
$LIMCHECK
 70
     0
  9
$CHAMFERA
 40
10.0
  9
$CHAMFERB
 40
10.0
  9
$CHAMFERC
 40
20.0
  9
$CHAMFERD
 40
0.0
  9
$SKPOLY
 70
     0
  9
$TDCREATE
 40
2451600.645418067
  9
$TDUCREATE
 40
2451600.562084734
  9
$TDUPDATE
 40
2457248.523990406
  9
$TDUUPDATE
 40
2457248.440657072
  9
$TDINDWG
 40
1.7549545602
  9
$TDUSRTIMER
 40
1.7549543287
  9
$USRTIMER
 70
     1
  9
$ANGBASE
 50
0.0
  9
$ANGDIR
 70
     0
  9
$PDMODE
 70
     0
  9
$PDSIZE
 40
0.0
  9
$PLINEWID
 40
0.0
  9
$SPLFRAME
 70
     0
  9
$SPLINETYPE
 70
     6
  9
$SPLINESEGS
 70
     8
  9
$HANDSEED
  5
557C
  9
$SURFTAB1
 70
     6
  9
$SURFTAB2
 70
     6
  9
$SURFTYPE
 70
     6
  9
$SURFU
 70
     6
  9
$SURFV
 70
     6
  9
$UCSBASE
  2

  9
$UCSNAME
  2

  9
$UCSORG
 10
765.688562816759
 20
-118.6975910772071
 30
0.0
  9
$UCSXDIR
 10
1.0
 20
0.0
 30
0.0
  9
$UCSYDIR
 10
0.0
 20
1.0
 30
0.0
  9
$UCSORTHOREF
  2

  9
$UCSORTHOVIEW
 70
     0
  9
$UCSORGTOP
 10
0.0
 20
0.0
 30
0.0
  9
$UCSORGBOTTOM
 10
0.0
 20
0.0
 30
0.0
  9
$UCSORGLEFT
 10
0.0
 20
0.0
 30
0.0
  9
$UCSORGRIGHT
 10
0.0
 20
0.0
 30
0.0
  9
$UCSORGFRONT
 10
0.0
 20
0.0
 30
0.0
  9
$UCSORGBACK
 10
0.0
 20
0.0
 30
0.0
  9
$PUCSBASE
  2

  9
$PUCSNAME
  2

  9
$PUCSORG
 10
0.0
 20
0.0
 30
0.0
  9
$PUCSXDIR
 10
1.0
 20
0.0
 30
0.0
  9
$PUCSYDIR
 10
0.0
 20
1.0
 30
0.0
  9
$PUCSORTHOREF
  2

  9
$PUCSORTHOVIEW
 70
     0
  9
$PUCSORGTOP
 10
0.0
 20
0.0
 30
0.0
  9
$PUCSORGBOTTOM
 10
0.0
 20
0.0
 30
0.0
  9
$PUCSORGLEFT
 10
0.0
 20
0.0
 30
0.0
  9
$PUCSORGRIGHT
 10
0.0
 20
0.0
 30
0.0
  9
$PUCSORGFRONT
 10
0.0
 20
0.0
 30
0.0
  9
$PUCSORGBACK
 10
0.0
 20
0.0
 30
0.0
  9
$USERI1
 70
     0
  9
$USERI2
 70
     0
  9
$USERI3
 70
     0
  9
$USERI4
 70
     0
  9
$USERI5
 70
     0
  9
$USERR1
 40
0.0
  9
$USERR2
 40
0.0
  9
$USERR3
 40
0.0
  9
$USERR4
 40
0.0
  9
$USERR5
 40
0.0
  9
$WORLDVIEW
 70
     1
  9
$SHADEDGE
 70
     3
  9
$SHADEDIF
 70
    70
  9
$TILEMODE
 70
     0
  9
$MAXACTVP
 70
    48
  9
$PINSBASE
 10
0.0
 20
0.0
 30
0.0
  9
$PLIMCHECK
 70
     0
  9
$PEXTMIN
 10
6.281416120989097
 20
2.642657989685733
 30
0.0
  9
$PEXTMAX
 10
196.0315659403611
 20
281.2760437736162
 30
0.0
  9
$PLIMMIN
 10
-6.043083
 20
-6.762742
  9
$PLIMMAX
 10
203.930245
 20
290.205581
  9
$UNITMODE
 70
     0
  9
$VISRETAIN
 70
     1
  9
$PLINEGEN
 70
     0
  9
$PSLTSCALE
 70
     0
  9
$TREEDEPTH
 70
  3020
  9
$CMLSTYLE
  2
STANDARD
  9
$CMLJUST
 70
     0
  9
$CMLSCALE
 40
20.0
  9
$PROXYGRAPHICS
 70
     1
  9
$MEASUREMENT
 70
     1
  9
$CELWEIGHT
370
    -1
  9
$ENDCAPS
280
     0
  9
$JOINSTYLE
280
     0
  9
$LWDISPLAY
290
     0
  9
$INSUNITS
 70
     0
  9
$HYPERLINKBASE
  1

  9
$STYLESHEET
  1
CORUS_Mono.ctb
  9
$XEDIT
290
     1
  9
$CEPSNTYPE
380
     0
  9
$PSTYLEMODE
290
     1
  9
$FINGERPRINTGUID
  2
{9E2E0D10-E48E-11D3-BEBA-006008753510}
  9
$VERSIONGUID
  2
{799F3C96-D340-49F8-A51A-4BF4A13125C7}
  9
$EXTNAMES
290
     1
  9
$PSVPSCALE
 40
0.0
  9
$OLESTARTUP
290
     0
  9
$SORTENTS
280
    96
  9
$INDEXCTL
280
     0
  9
$HIDETEXT
280
     0
  9
$XCLIPFRAME
290
     0
  9
$HALOGAP
280
     0
  9
$OBSCOLOR
 70
   257
  9
$OBSLTYPE
280
     0
  9
$INTERSECTIONDISPLAY
280
     0
  9
$INTERSECTIONCOLOR
 70
   257
  9
$DIMASSOC
280
     1
  9
$PROJECTNAME
  1

  0
ENDSEC
  0
SECTION
  2
CLASSES
  0
CLASS
  1
ACDBDICTIONARYWDFLT
  2
AcDbDictionaryWithDefault
  3
ObjectDBX Classes
 90
        0
 91
        1
280
     0
281
     0
  0
CLASS
  1
RASTERVARIABLES
  2
AcDbRasterVariables
  3
ISM
 90
        0
 91
        1
280
     0
281
     0
  0
CLASS
  1
IMAGEDEF
  2
AcDbRasterImageDef
  3
ISM
 90
        0
 91
        1
280
     0
281
     0
  0
CLASS
  1
IMAGEDEF_REACTOR
  2
AcDbRasterImageDefReactor
  3
ISM
 90
        1
 91
        0
280
     0
281
     0
  0
CLASS
  1
IMAGE
  2
AcDbRasterImage
  3
ISM
 90
     2175
 91
        0
280
     0
281
     1
  0
CLASS
  1
DICTIONARYVAR
  2
AcDbDictionaryVar
  3
ObjectDBX Classes
 90
        0
 91
       13
280
     0
281
     0
  0
CLASS
  1
PLOTSETTINGS
  2
AcDbPlotSettings
  3
ObjectDBX Classes
 90
        0
 91
        1
280
     0
281
     0
  0
CLASS
  1
MATERIAL
  2
AcDbMaterial
  3
ObjectDBX Classes
 90
     1153
 91
        3
280
     0
281
     0
  0
CLASS
  1
VISUALSTYLE
  2
AcDbVisualStyle
  3
ObjectDBX Classes
 90
     4095
 91
       24
280
     0
281
     0
  0
CLASS
  1
TABLESTYLE
  2
AcDbTableStyle
  3
ObjectDBX Classes
 90
     4095
 91
        1
280
     0
281
     0
  0
CLASS
  1
SCALE
  2
AcDbScale
  3
ObjectDBX Classes
 90
     1153
 91
       17
280
     0
281
     0
  0
CLASS
  1
MLEADERSTYLE
  2
AcDbMLeaderStyle
  3
ACDB_MLEADERSTYLE_CLASS
 90
     4095
 91
        1
280
     0
281
     0
  0
CLASS
  1
ACDBSECTIONVIEWSTYLE
  2
AcDbSectionViewStyle
  3
ObjectDBX Classes
 90
     1025
 91
        1
280
     0
281
     0
  0
CLASS
  1
ACDBDETAILVIEWSTYLE
  2
AcDbDetailViewStyle
  3
ObjectDBX Classes
 90
     1025
 91
        1
280
     0
281
     0
  0
CLASS
  1
CELLSTYLEMAP
  2
AcDbCellStyleMap
  3
ObjectDBX Classes
 90
     1152
 91
        2
280
     0
281
     0
  0
ENDSEC
  0
SECTION
  2
TABLES
  0
TABLE
  2
VPORT
  5
8
330
0
100
AcDbSymbolTable
 70
     1
  0
VPORT
  5
543B
330
8
100
AcDbSymbolTableRecord
100
AcDbViewportTableRecord
  2
*Active
 70
     0
 10
0.0
 20
0.0
 11
1.0
 21
1.0
 12
1146.688968938931
 22
298.2859318107898
 13
0.0
 23
0.0
 14
10.0
 24
10.0
 15
10.0
 25
10.0
 16
0.0
 26
0.0
 36
1.0
 17
0.0
 27
0.0
 37
0.0
 40
1721.475011282427
 41
1.581724581724581
 42
50.0
 43
0.0
 44
0.0
 50
0.0
 51
0.0
 71
     0
 72
 20000
 73
     1
 74
     0
 75
     0
 76
     0
 77
     0
 78
     0
281
     0
 65
     1
110
765.688562816759
120
-118.6975910772071
130
0.0
111
1.0
121
0.0
131
0.0
112
0.0
122
1.0
132
0.0
 79
     0
146
0.0
1001
ACAD_NAV_VCDISPLAY
1070
     3
  0
ENDTAB
  0
TABLE
  2
LTYPE
  5
5
330
0
100
AcDbSymbolTable
 70
     7
  0
LTYPE
  5
12
330
5
100
AcDbSymbolTableRecord
100
AcDbLinetypeTableRecord
  2
BYBLOCK
 70
     0
  3

 72
    65
 73
     0
 40
0.0
  0
LTYPE
  5
13
330
5
100
AcDbSymbolTableRecord
100
AcDbLinetypeTableRecord
  2
BYLAYER
 70
     0
  3

 72
    65
 73
     0
 40
0.0
  0
LTYPE
  5
14
330
5
100
AcDbSymbolTableRecord
100
AcDbLinetypeTableRecord
  2
CONTINUOUS
 70
     0
  3
Solid line
 72
    65
 73
     0
 40
0.0
  0
LTYPE
  5
113E
330
5
100
AcDbSymbolTableRecord
100
AcDbLinetypeTableRecord
  2
VERDECKTX2
 70
     0
  3
Verdeckt (2x) ____ ____ ____ ____ ____ ____ ___
 72
    65
 73
     2
 40
19.05
 49
12.7
 74
     0
 49
-6.349999999999999
 74
     0
  0
LTYPE
  5
11FB
330
5
100
AcDbSymbolTableRecord
100
AcDbLinetypeTableRecord
  2
GESTRICHELT
 70
     0
  3
__ __ __ __ __ __ __ __ __ __ __ __ __ __ __
 72
    65
 73
     2
 40
0.75
 49
0.5
 74
     0
 49
-0.25
 74
     0
  0
LTYPE
  5
11FC
330
5
100
AcDbSymbolTableRecord
100
AcDbLinetypeTableRecord
  2
STRICHPUNKT
 70
     0
  3
__ . __ . __ . __ . __ . __ . __ . __ . __ . __
 72
    65
 73
     4
 40
1.0
 49
0.5
 74
     0
 49
-0.25
 74
     0
 49
0.0
 74
     0
 49
-0.25
 74
     0
  0
LTYPE
  5
11FD
330
5
100
AcDbSymbolTableRecord
100
AcDbLinetypeTableRecord
  2
VERDECKT
 70
     0
  3
_ _ _ _ _ _ _ _ _ _ _ _ _ _ _ _ _ _ _ _ _ _ _
 72
    65
 73
     2
 40
0.375
 49
0.25
 74
     0
 49
-0.125
 74
     0
  0
LTYPE
  5
28F7
330
5
100
AcDbSymbolTableRecord
100
AcDbLinetypeTableRecord
  2
AUSGEZOGEN
 70
     0
  3
Ausgezogene Linie
 72
    65
 73
     0
 40
0.0
  0
LTYPE
  5
2F05
330
5
100
AcDbSymbolTableRecord
100
AcDbLinetypeTableRecord
  2
PUNKT
 70
     0
  3
Punkt . . . . . . . . . . . . . . . . . . . . .
 72
    65
 73
     2
 40
6.349999999999999
 49
0.0
 74
     0
 49
-6.349999999999999
 74
     0
  0
ENDTAB
  0
TABLE
  2
LAYER
  5
2
102
{ACAD_XDICTIONARY
360
5493
102
}
330
0
100
AcDbSymbolTable
 70
    13
  0
LAYER
  5
E
102
{ACAD_XDICTIONARY
360
54B2
102
}
330
2
100
AcDbSymbolTableRecord
100
AcDbLayerTableRecord
  2
0
 70
     0
 62
     7
  6
CONTINUOUS
370
    -3
390
5E8
  0
LAYER
  5
28
330
2
100
AcDbSymbolTableRecord
100
AcDbLayerTableRecord
  2
DEFPOINTS
 70
     0
 62
     7
  6
CONTINUOUS
290
     0
370
    -3
390
5E8
  0
LAYER
  5
B7
102
{ACAD_XDICTIONARY
360
54B4
102
}
330
2
100
AcDbSymbolTableRecord
100
AcDbLayerTableRecord
  2
V5
 70
     0
 62
     7
  6
CONTINUOUS
370
    -3
390
5E8
  0
LAYER
  5
8F4
102
{ACAD_XDICTIONARY
360
54B6
102
}
330
2
100
AcDbSymbolTableRecord
100
AcDbLayerTableRecord
  2
Mansfen
 70
     1
 62
     4
  6
CONTINUOUS
370
    -3
390
5E8
  0
LAYER
  5
11FF
102
{ACAD_XDICTIONARY
360
54B8
102
}
330
2
100
AcDbSymbolTableRecord
100
AcDbLayerTableRecord
  2
V35
 70
     0
 62
     3
  6
CONTINUOUS
370
    -3
390
5E8
  0
LAYER
  5
1200
102
{ACAD_XDICTIONARY
360
54BA
102
}
330
2
100
AcDbSymbolTableRecord
100
AcDbLayerTableRecord
  2
V25
 70
     0
 62
     4
  6
CONTINUOUS
370
    -3
390
5E8
  0
LAYER
  5
1201
102
{ACAD_XDICTIONARY
360
54BC
102
}
330
2
100
AcDbSymbolTableRecord
100
AcDbLayerTableRecord
  2
SV35
 70
     0
 62
     6
  6
VERDECKT
370
    -3
390
5E8
  0
LAYER
  5
1202
102
{ACAD_XDICTIONARY
360
54BE
102
}
330
2
100
AcDbSymbolTableRecord
100
AcDbLayerTableRecord
  2
ACHS
 70
     0
 62
     4
  6
STRICHPUNKT
370
    -3
390
5E8
  0
LAYER
  5
1207
102
{ACAD_XDICTIONARY
360
54C0
102
}
330
2
100
AcDbSymbolTableRecord
100
AcDbLayerTableRecord
  2
TXT-D
 70
     0
 62
     2
  6
CONTINUOUS
370
    -3
390
5E8
  0
LAYER
  5
27E3
102
{ACAD_XDICTIONARY
360
54C2
102
}
330
2
100
AcDbSymbolTableRecord
100
AcDbLayerTableRecord
  2
INSULATION
 70
     0
 62
     4
  6
CONTINUOUS
370
    -3
390
5E8
  0
LAYER
  5
27E4
102
{ACAD_XDICTIONARY
360
54C4
102
}
330
2
100
AcDbSymbolTableRecord
100
AcDbLayerTableRecord
  2
_INSULATION
 70
     0
 62
     4
  6
CONTINUOUS
370
    -3
390
5E8
  0
LAYER
  5
28F8
102
{ACAD_XDICTIONARY
360
54C6
102
}
330
2
100
AcDbSymbolTableRecord
100
AcDbLayerTableRecord
  2
ISO10TES
 70
     0
 62
     4
  6
CONTINUOUS
370
    -3
390
5E8
  0
LAYER
  5
2ADA
102
{ACAD_XDICTIONARY
360
54C8
102
}
330
2
100
AcDbSymbolTableRecord
100
AcDbLayerTableRecord
  2
V30
 70
     0
 62
     3
  6
CONTINUOUS
370
    -3
390
5E8
  0
ENDTAB
  0
TABLE
  2
STYLE
  5
3
330
0
100
AcDbSymbolTable
 70
     3
  0
STYLE
  5
F
330
3
100
AcDbSymbolTableRecord
100
AcDbTextStyleTableRecord
  2
STANDARD
 70
     0
 40
0.0
 41
1.0
 50
0.0
 71
     0
 42
2.5
  3
txt
  4

  0
STYLE
  5
BF
330
3
100
AcDbSymbolTableRecord
100
AcDbTextStyleTableRecord
  2
ROMANS
 70
     0
 40
14.0
 41
1.0
 50
0.0
 71
     0
 42
14.0
  3
arial.ttf
  4

1001
ACAD
1000
Arial
1071
       34
  0
STYLE
  5
91F
330
3
100
AcDbSymbolTableRecord
100
AcDbTextStyleTableRecord
  2
Stil1
 70
     0
 40
3.0
 41
1.0
 50
0.0
 71
     0
 42
3.0
  3
arial.ttf
  4

1001
ACAD
1000
Arial
1071
       34
  0
ENDTAB
  0
TABLE
  2
VIEW
  5
6
330
0
100
AcDbSymbolTable
 70
     0
  0
ENDTAB
  0
TABLE
  2
UCS
  5
7
330
0
100
AcDbSymbolTable
 70
     0
  0
ENDTAB
  0
TABLE
  2
APPID
  5
9
330
0
100
AcDbSymbolTable
 70
     6
  0
APPID
  5
10
330
9
100
AcDbSymbolTableRecord
100
AcDbRegAppTableRecord
  2
ACAD
 70
     0
  0
APPID
  5
246E
330
9
100
AcDbSymbolTableRecord
100
AcDbRegAppTableRecord
  2
CONTENTBLOCKICON
 70
     0
  0
APPID
  5
2C7F
330
9
100
AcDbSymbolTableRecord
100
AcDbRegAppTableRecord
  2
DCO15
 70
     0
  0
APPID
  5
5498
330
9
100
AcDbSymbolTableRecord
100
AcDbRegAppTableRecord
  2
ACAD_EXEMPT_FROM_CAD_STANDARDS
 70
     0
  0
APPID
  5
549A
330
9
100
AcDbSymbolTableRecord
100
AcDbRegAppTableRecord
  2
ACAD_NAV_VCDISPLAY
 70
     0
  0
APPID
  5
5577
330
9
100
AcDbSymbolTableRecord
100
AcDbRegAppTableRecord
  2
ACAD_MLEADERVER
 70
     0
  0
ENDTAB
  0
TABLE
  2
DIMSTYLE
  5
A
330
0
100
AcDbSymbolTable
 70
     2
100
AcDbDimStyleTable
 71
     1
340
280
  0
DIMSTYLE
105
1D
330
A
100
AcDbSymbolTableRecord
100
AcDbDimStyleTableRecord
  2
STANDARD
 70
     0
340
F
  0
DIMSTYLE
105
280
330
A
100
AcDbSymbolTableRecord
100
AcDbDimStyleTableRecord
  2
18
 70
     0
 40
5.0
 41
3.5
 42
0.0
 43
3.75
 44
1.25
 73
     0
 74
     0
 77
     1
 78
     8
140
3.5
141
3.5
143
0.0394
147
0.625
171
     4
178
     2
271
     0
273
     8
274
     4
277
     6
340
BF
  0
ENDTAB
  0
TABLE
  2
BLOCK_RECORD
  5
1
330
0
100
AcDbSymbolTable
 70
     5
  0
BLOCK_RECORD
  5
18
102
{ACAD_XDICTIONARY
360
81C
102
}
330
1
100
AcDbSymbolTableRecord
100
AcDbBlockTableRecord
  2
*MODEL_SPACE
340
5EB
  0
BLOCK_RECORD
  5
2CEE
330
1
100
AcDbSymbolTableRecord
100
AcDbBlockTableRecord
  2
*Paper_Space
340
2CED
  0
BLOCK_RECORD
  5
1987
330
1
100
AcDbSymbolTableRecord
100
AcDbBlockTableRecord
  2
OKAPPE
340
0
102
{BLKREFS
331
40E3
102
}
  0
BLOCK_RECORD
  5
27DE
330
1
100
AcDbSymbolTableRecord
100
AcDbBlockTableRecord
  2
DAEMM
340
0
102
{BLKREFS
331
2B3A
331
2B3B
331
2B3C
331
2B3D
331
2B3E
331
2B3F
331
2B40
331
2B41
331
2B42
331
2B43
331
2B44
331
2B45
331
2B46
331
2B47
331
324B
331
324C
331
324D
331
324E
331
324F
331
3250
331
3251
331
3252
331
524A
331
524B
331
5251
102
}
  0
BLOCK_RECORD
  5
2B5C
330
1
100
AcDbSymbolTableRecord
100
AcDbBlockTableRecord
  2
wädä
340
0
310
2800000020000000200000000100080000000000000400000000000000000000000000000000000000000000000080000080000000808000800000008000800080800000C0C0C000C0DCC000F0CAA6000020400000206000002080000020A0000020C0000020E00000400000004020000040400000406000004080000040A0
310
000040C0000040E00000600000006020000060400000606000006080000060A0000060C0000060E00000800000008020000080400000806000008080000080A0000080C0000080E00000A0000000A0200000A0400000A0600000A0800000A0A00000A0C00000A0E00000C0000000C0200000C0400000C0600000C0800000C0
310
A00000C0C00000C0E00000E0000000E0200000E0400000E0600000E0800000E0A00000E0C00000E0E00040000000400020004000400040006000400080004000A0004000C0004000E00040200000402020004020400040206000402080004020A0004020C0004020E000404000004040200040404000404060004040800040
310
40A0004040C0004040E00040600000406020004060400040606000406080004060A0004060C0004060E00040800000408020004080400040806000408080004080A0004080C0004080E00040A0000040A0200040A0400040A0600040A0800040A0A00040A0C00040A0E00040C0000040C0200040C0400040C0600040C08000
310
40C0A00040C0C00040C0E00040E0000040E0200040E0400040E0600040E0800040E0A00040E0C00040E0E00080000000800020008000400080006000800080008000A0008000C0008000E00080200000802020008020400080206000802080008020A0008020C0008020E00080400000804020008040400080406000804080
310
008040A0008040C0008040E00080600000806020008060400080606000806080008060A0008060C0008060E00080800000808020008080400080806000808080008080A0008080C0008080E00080A0000080A0200080A0400080A0600080A0800080A0A00080A0C00080A0E00080C0000080C0200080C0400080C0600080C0
310
800080C0A00080C0C00080C0E00080E0000080E0200080E0400080E0600080E0800080E0A00080E0C00080E0E000C0000000C0002000C0004000C0006000C0008000C000A000C000C000C000E000C0200000C0202000C0204000C0206000C0208000C020A000C020C000C020E000C0400000C0402000C0404000C0406000C0
310
408000C040A000C040C000C040E000C0600000C0602000C0604000C0606000C0608000C060A000C060C000C060E000C0800000C0802000C0804000C0806000C0808000C080A000C080C000C080E000C0A00000C0A02000C0A04000C0A06000C0A08000C0A0A000C0A0C000C0A0E000C0C00000C0C02000C0C04000C0C06000
310
C0C08000C0C0A000F0FBFF00A4A0A000808080000000FF0000FF000000FFFF00FF000000FF00FF00FFFF0000FFFFFF0000000000000000000000000000000000000000000000000000000000000000000000000000000000000000000000000000000000000000000000000000000000000000000000000000000000000000
310
00000000000000000000000000000000000000000000000000000000000000000000000000000000000000000000000000000000000000000000000000000000000000000000000000000000000000000000000000000000000000000000000000000000000000000000000000000000000000000000000000000000000000
310
00000000000000000000000000000000000000000000000000000000000000000000000000000000000000000000000000000000000000000000000000000000000000000000000000000000000000000000000000000000000000000000000000000000000000000000000000000000000000000000000000000000000000
310
00000000000000000000FEFEFEFE0000000000000000000000000000000000000000FEFEFEFEFEFEFEFE00000000FE000000000000000000000000FEFEFEFEFEFEFE00000000000000000000000000FE00000000000000FEFEFEFE000000000000000000000000000000000000000000000000000000FE000000FEFEFEFEFE
310
FE000000000000000000000000000000FE000000000000FE000000000000000000FEFEFEFEFE00000000000000000000FE0000000000FE000000000000000000000000000000FEFEFEFEFEFE000000FE0000000000FE000000000000000000000000000000000000000000FEFEFEFE00000000000000FE0000000000000000
310
00000000FEFEFEFEFEFEFEFE000000000000000000000000FE00000000FEFEFEFEFEFEFE000000000000000000000000000000000000000000FEFEFEFE000000000000000000000000000000000000000000000000000000000000000000000000000000000000000000000000000000000000000000000000000000000000
310
00000000000000000000000000000000000000000000000000000000000000000000000000000000000000000000000000000000000000000000000000000000000000000000000000000000000000000000000000000000000000000000000000000000000000000000000000000000000000000000000000000000000000
310
00000000000000000000000000000000000000000000000000000000000000000000000000000000000000000000000000000000000000000000000000000000000000000000000000000000000000000000000000000000000000000000000000000000000000000000000000000000000000000000000000000000000000
310
0000000000000000000000000000000000000000000000000000000000000000000000000000000000000000000000000000000000000000
102
{BLKREFS
331
3374
331
462B
331
5267
331
526D
331
3392
331
40EB
331
40EC
331
4324
331
4325
331
4326
331
4327
331
4328
331
4329
331
432A
331
432B
331
432C
331
432D
331
432E
331
432F
331
4337
331
4338
102
}
  0
BLOCK_RECORD
  5
43B0
330
1
100
AcDbSymbolTableRecord
100
AcDbBlockTableRecord
  2
Klipp L25 neu
340
0
310
2800000020000000200000000100080000000000000400000000000000000000000000000000000000000000000080000080000000808000800000008000800080800000C0C0C000C0DCC000F0CAA6000020400000206000002080000020A0000020C0000020E00000400000004020000040400000406000004080000040A0
310
000040C0000040E00000600000006020000060400000606000006080000060A0000060C0000060E00000800000008020000080400000806000008080000080A0000080C0000080E00000A0000000A0200000A0400000A0600000A0800000A0A00000A0C00000A0E00000C0000000C0200000C0400000C0600000C0800000C0
310
A00000C0C00000C0E00000E0000000E0200000E0400000E0600000E0800000E0A00000E0C00000E0E00040000000400020004000400040006000400080004000A0004000C0004000E00040200000402020004020400040206000402080004020A0004020C0004020E000404000004040200040404000404060004040800040
310
40A0004040C0004040E00040600000406020004060400040606000406080004060A0004060C0004060E00040800000408020004080400040806000408080004080A0004080C0004080E00040A0000040A0200040A0400040A0600040A0800040A0A00040A0C00040A0E00040C0000040C0200040C0400040C0600040C08000
310
40C0A00040C0C00040C0E00040E0000040E0200040E0400040E0600040E0800040E0A00040E0C00040E0E00080000000800020008000400080006000800080008000A0008000C0008000E00080200000802020008020400080206000802080008020A0008020C0008020E00080400000804020008040400080406000804080
310
008040A0008040C0008040E00080600000806020008060400080606000806080008060A0008060C0008060E00080800000808020008080400080806000808080008080A0008080C0008080E00080A0000080A0200080A0400080A0600080A0800080A0A00080A0C00080A0E00080C0000080C0200080C0400080C0600080C0
310
800080C0A00080C0C00080C0E00080E0000080E0200080E0400080E0600080E0800080E0A00080E0C00080E0E000C0000000C0002000C0004000C0006000C0008000C000A000C000C000C000E000C0200000C0202000C0204000C0206000C0208000C020A000C020C000C020E000C0400000C0402000C0404000C0406000C0
310
408000C040A000C040C000C040E000C0600000C0602000C0604000C0606000C0608000C060A000C060C000C060E000C0800000C0802000C0804000C0806000C0808000C080A000C080C000C080E000C0A00000C0A02000C0A04000C0A06000C0A08000C0A0A000C0A0C000C0A0E000C0C00000C0C02000C0C04000C0C06000
310
C0C08000C0C0A000F0FBFF00A4A0A000808080000000FF0000FF000000FFFF00FF000000FF00FF00FFFF0000FFFFFF0000000000000000000000000000000000000000000000000000000000000000000000000000FFFFFFFFFFFFFFFFFFFFFFFFFFFFFFFFFFFFFFFFFF0000000000000000000000FF000000000000000000
310
00000000000000000000FF0000000000000000000000FFFFFFFFFFFFFFFFFF00000000FFFFFFFFFFFFFFFF0000000000000000000000000000000000000000FF00FF0000000000000000000000000000000000000000000000000000000000FF00FF0000000000000000000000000000000000000000000000000000000000
310
FF00FF0000000000000000000000000000000000000000000000000000000000FF00FF000000000000000000000000000000000000000000000000000000000000FF00000000000000000000000000000000000000000000000000000000000000FF0000000000000000000000000000000000000000000000000000000000
310
00000000000000000000000000000000000000000000000000000000000000000000FF00000000000000000000000000000000000000000000000000000000000000FF00000000000000000000000000000000000000000000000000000000000000FF00000000000000000000000000000000000000000000000000000000
310
000000FF00000000000000000000000000000000000000000000000000000000000000FF00000000000000000000000000000000000000000000000000000000000000FF00000000000000000000000000000000000000000000000000000000000000FF000000000000000000000000000000000000000000000000000000
310
00000000FF00000000000000000000000000000000000000000000000000000000000000FF00000000000000000000000000000000000000000000000000000000000000FF00000000000000000000000000000000000000000000000000000000000000FF0000000000000000000000000000000000000000000000000000
310
0000000000FF00000000000000000000000000000000000000000000000000000000000000FF00000000000000000000000000000000000000000000000000000000000000FF000000000000000000000000000000000000000000000000000000000000FFFFFFFF0000000000000000000000000000000000000000000000
310
00000000FF000000FF000000000000000000000000000000000000000000000000000000FF000000FF000000000000000000000000000000000000000000000000000000000000FF000000000000000000000000000000000000000000000000000000000000FF000000000000000000000000000000000000000000000000
310
0000000000000000000000000000000000000000000000000000000000000000000000000000000000000000000000000000000000000000
102
{BLKREFS
331
43D1
331
43D2
331
43D3
102
}
  0
BLOCK_RECORD
  5
4EA4
330
1
100
AcDbSymbolTableRecord
100
AcDbBlockTableRecord
  2
e140
340
0
102
{BLKREFS
331
5249
102
}
  0
ENDTAB
  0
ENDSEC
  0
SECTION
  2
BLOCKS
  0
BLOCK
  5
19
330
18
100
AcDbEntity
  8
0
100
AcDbBlockBegin
  2
*MODEL_SPACE
 70
     0
 10
0.0
 20
0.0
 30
0.0
  3
*MODEL_SPACE
  1

  0
ENDBLK
  5
1A
330
18
100
AcDbEntity
  8
0
100
AcDbBlockEnd
  0
BLOCK
  5
2D0C
330
2CEE
100
AcDbEntity
 67
     1
  8
0
 48
15.0
100
AcDbBlockBegin
  2
*Paper_Space
 70
     0
 10
0.0
 20
0.0
 30
0.0
  3
*Paper_Space
  1

  0
ENDBLK
  5
2D0D
330
2CEE
100
AcDbEntity
 67
     1
  8
0
 48
15.0
100
AcDbBlockEnd
  0
BLOCK
  5
1995
330
1987
100
AcDbEntity
  8
0
100
AcDbBlockBegin
  2
OKAPPE
 70
     0
 10
0.0
 20
0.0
 30
0.0
  3
OKAPPE
  1

  0
LINE
  5
1988
330
1987
100
AcDbEntity
  8
ACHS
100
AcDbLine
 10
-0.0523408411157789
 20
0.1898566739969283
 30
0.0
 11
5.447659158884221
 21
0.1898566739969283
 31
0.0
  0
LINE
  5
1989
330
1987
100
AcDbEntity
  8
ACHS
100
AcDbLine
 10
-0.0523408411157789
 20
0.1898566739969283
 30
0.0
 11
-15.94039117203374
 21
0.1898566739969283
 31
0.0
  0
LINE
  5
198A
330
1987
100
AcDbEntity
  8
V5
  6
Continuous
100
AcDbLine
 10
-17.55234084111578
 20
75.18985667399693
 30
0.0
 11
10.94765915888422
 21
75.18985667399693
 31
0.0
  0
LINE
  5
198B
330
1987
100
AcDbEntity
  8
V5
  6
Continuous
100
AcDbLine
 10
10.94765915888422
 20
75.18985667399693
 30
0.0
 11
10.94765915888422
 21
40.18985667399692
 31
0.0
  0
LINE
  5
198C
330
1987
100
AcDbEntity
  8
V5
  6
Continuous
100
AcDbLine
 10
-17.55234084111578
 20
75.18985667399693
 30
0.0
 11
-17.55234084111578
 21
70.68985667399693
 31
0.0
  0
LINE
  5
198D
330
1987
100
AcDbEntity
  8
V5
  6
Continuous
100
AcDbLine
 10
-17.55234084111578
 20
70.68985667399693
 30
0.0
 11
6.447659158884221
 21
70.68985667399693
 31
0.0
  0
LINE
  5
198E
330
1987
100
AcDbEntity
  8
V5
  6
Continuous
100
AcDbLine
 10
6.447659158884221
 20
70.68985667399693
 30
0.0
 11
6.447659158884221
 21
40.18985667399692
 31
0.0
  0
LINE
  5
198F
330
1987
100
AcDbEntity
  8
V5
  6
Continuous
100
AcDbLine
 10
-0.0523408411157789
 20
12.18985667399693
 30
0.0
 11
10.94765915888422
 21
40.18985667399692
 31
0.0
  0
LINE
  5
1990
330
1987
100
AcDbEntity
  8
V5
  6
Continuous
100
AcDbLine
 10
-0.0523408411157789
 20
-8.810143326003071
 30
0.0
 11
-3.052340841115778
 21
-5.810143326003071
 31
0.0
  0
LINE
  5
1991
330
1987
100
AcDbEntity
  8
V5
  6
Continuous
100
AcDbLine
 10
-3.952340841115869
 20
9.489856673996996
 30
0.0
 11
-3.052340841115778
 21
-5.810143326003071
 31
0.0
  0
LINE
  5
1992
330
1987
100
AcDbEntity
  8
V5
  6
Continuous
100
AcDbLine
 10
-3.952340841115869
 20
9.489856673996996
 30
0.0
 11
6.447659158884221
 21
40.18985667399692
 31
0.0
  0
LINE
  5
1993
330
1987
100
AcDbEntity
  8
V5
  6
Continuous
100
AcDbLine
 10
-0.0523408411157789
 20
-8.810143326003071
 30
0.0
 11
-0.0523408411157789
 21
12.18985667399693
 31
0.0
  0
LWPOLYLINE
  5
1994
330
1987
100
AcDbEntity
  8
V5
  6
Continuous
100
AcDbPolyline
 90
       11
 70
     0
 43
0.0
 10
-17.55234084111578
 20
75.18985667399693
 10
10.94765915888422
 20
75.18985667399693
 10
10.94765915888422
 20
40.18985667399692
 10
-0.0523408411157789
 20
12.18985667399693
 10
-0.0523408411157789
 20
-8.810143326003071
 10
-3.052340841115778
 20
-5.810143326002958
 10
-3.952340841115869
 20
9.489856673996882
 10
6.447659158884221
 20
40.18985667399704
 10
6.447659158884221
 20
70.68985667399693
 10
-17.55234084111578
 20
70.68985667399693
 10
-17.55234084111578
 20
75.18985667399693
  0
ENDBLK
  5
1996
330
1987
100
AcDbEntity
  8
0
100
AcDbBlockEnd
  0
BLOCK
  5
27E0
330
27DE
100
AcDbEntity
  8
0
 48
5.0
100
AcDbBlockBegin
  2
DAEMM
 70
     0
 10
0.0
 20
0.0
 30
0.0
  3
DAEMM
  1

  0
LWPOLYLINE
  5
27DF
330
27DE
100
AcDbEntity
  8
INSULATION
100
AcDbPolyline
 90
        6
 70
     0
 43
0.0
 10
0.0
 20
0.0
 42
0.5249926553343702
 10
1.869693845669928
 20
2.710102051443413
 10
0.1303061543300714
 20
7.289897948556586
 42
-1.449489742783175
 10
3.869693845669928
 20
7.289897948556586
 10
2.130306154330071
 20
2.710102051443413
 42
0.5249926553343702
 10
4.0
 20
0.0
  0
ENDBLK
  5
27E1
330
27DE
100
AcDbEntity
  8
0
 48
5.0
100
AcDbBlockEnd
  0
BLOCK
  5
2B64
330
2B5C
100
AcDbEntity
  8
0
 48
5.0
100
AcDbBlockBegin
  2
wädä
 70
     0
 10
0.0
 20
0.0
 30
0.0
  3
wädä
  1

  0
LWPOLYLINE
  5
2B5D
330
2B5C
100
AcDbEntity
  8
ISO10TES
100
AcDbPolyline
 90
        2
 70
     0
 43
0.0
 10
-60.4800000000001
 20
-0.0000000000001137
 10
-8.6399982384115
 20
8.639999999999758
  0
LINE
  5
2B5E
330
2B5C
100
AcDbEntity
  8
ISO10TES
100
AcDbLine
 10
-8.639998238411507
 20
8.639999999999758
 30
0.0
 11
-60.48000000000016
 21
17.27999999999986
 31
0.0
  0
LINE
  5
2B5F
330
2B5C
100
AcDbEntity
  8
ISO10TES
100
AcDbLine
 10
-8.639998238411507
 20
-8.639999999999986
 30
0.0
 11
-60.48000000000016
 21
0.0000000000002274
 31
0.0
  0
ARC
  5
2B60
330
2B5C
100
AcDbEntity
  8
ISO10TES
100
AcDbCircle
 10
-60.48000000000006
 20
8.639999999999872
 30
0.0
 40
8.640000000000002
100
AcDbArc
 50
90.0
 51
180.0
  0
ARC
  5
2B61
330
2B5C
100
AcDbEntity
  8
ISO10TES
100
AcDbCircle
 10
-60.48000000000006
 20
8.639999999999872
 30
0.0
 40
8.640000000000002
100
AcDbArc
 50
180.0
 51
270.0
  0
LWPOLYLINE
  5
2B62
330
2B5C
100
AcDbEntity
  8
ISO10TES
100
AcDbPolyline
 90
        2
 70
     0
 43
0.0
 10
-8.64
 20
8.639999999999986
 42
-0.4142135623730951
 10
0.0
 20
0.0
 42
-0.4142135623730951
  0
ARC
  5
2B63
330
2B5C
100
AcDbEntity
  8
ISO10TES
100
AcDbCircle
 10
-8.639999999999801
 20
0.0000000000002274
 30
0.0
 40
8.639999999999837
100
AcDbArc
 50
269.9999999999988
 51
0.0
  0
ENDBLK
  5
2B65
330
2B5C
100
AcDbEntity
  8
0
 48
5.0
100
AcDbBlockEnd
  0
BLOCK
  5
43B1
330
43B0
100
AcDbEntity
  8
0
 48
15.0
100
AcDbBlockBegin
  2
Klipp L25 neu
 70
     0
 10
0.0
 20
0.0
 30
0.0
  3
Klipp L25 neu
  1

  0
LWPOLYLINE
  5
43B3
330
43B0
100
AcDbEntity
  8
V5
 62
     7
100
AcDbPolyline
 90
       10
 70
     0
 43
0.0
 10
-5.748966999999993
 20
5.999999999999886
 10
-30.00000999999997
 20
5.999999999999886
 10
-30.00000999999997
 20
4.282318561602551
 10
-28.00001000000066
 20
4.282318561602551
 10
-28.00001000000066
 20
1.782318561602551
 10
-30.00000999999997
 20
1.782318561602551
 10
-30.00000999999997
 20
-0.0000000000001137
 10
0.0
 20
-0.0000000000001137
 10
29.99999000000002
 20
-0.0000000000001137
 10
29.99999000000002
 20
1.782318561602551
  0
LINE
  5
43B4
330
43B0
100
AcDbEntity
  8
V5
 62
     7
100
AcDbLine
 10
29.99999000000002
 20
5.999999999999886
 30
0.0
 11
5.748950999999806
 21
5.999999999999886
 31
0.0
  0
LINE
  5
43B5
330
43B0
100
AcDbEntity
  8
V5
 62
     7
100
AcDbLine
 10
29.99999000000002
 20
4.282318561602551
 30
0.0
 11
29.99999000000002
 21
5.999999999999886
 31
0.0
  0
LINE
  5
43B6
330
43B0
100
AcDbEntity
  8
V5
 62
     7
100
AcDbLine
 10
30.00000999999997
 20
1.782318561602551
 30
0.0
 11
28.00001000000066
 21
1.782318561602551
 31
0.0
  0
LINE
  5
43B7
330
43B0
100
AcDbEntity
  8
V5
 62
     7
100
AcDbLine
 10
28.00001000000066
 20
1.782318561602551
 30
0.0
 11
28.00001000000066
 21
4.282318561602551
 31
0.0
  0
LINE
  5
43B8
330
43B0
100
AcDbEntity
  8
V5
 62
     7
100
AcDbLine
 10
28.00001000000066
 20
4.282318561602551
 30
0.0
 11
30.00000999999997
 21
4.282318561602551
 31
0.0
  0
ARC
  5
43B9
330
43B0
100
AcDbEntity
  8
V5
 62
     7
100
AcDbCircle
 10
-5.748966999999993
 20
8.999999999999658
 30
0.0
 40
2.999999
100
AcDbArc
 50
270.0
 51
354.9993999999996
  0
ARC
  5
43BA
330
43B0
100
AcDbEntity
  8
V5
 62
     7
100
AcDbCircle
 10
5.748950999999806
 20
8.999999999999658
 30
0.0
 40
2.999999
100
AcDbArc
 50
185.0006000000003
 51
270.0
  0
LINE
  5
43BB
330
43B0
100
AcDbEntity
  8
V5
 62
     7
100
AcDbLine
 10
-2.760390000000029
 20
8.738499999999589
 30
0.0
 11
-1.250008000000207
 21
25.99999999999989
 31
0.0
  0
LINE
  5
43BC
330
43B0
100
AcDbEntity
  8
V5
 62
     7
100
AcDbLine
 10
2.760373999999842
 20
8.738499999999589
 30
0.0
 11
1.249991999999792
 21
25.99999999999989
 31
0.0
  0
LINE
  5
43BD
330
43B0
100
AcDbEntity
  8
V5
 62
     7
100
AcDbLine
 10
-1.250008000000207
 20
68.99999999999966
 30
0.0
 11
-1.250008000000207
 21
25.99999999999989
 31
0.0
  0
LINE
  5
43BE
330
43B0
100
AcDbEntity
  8
V5
 62
     7
100
AcDbLine
 10
1.249991999999792
 20
68.99999999999966
 30
0.0
 11
1.249991999999792
 21
25.99999999999989
 31
0.0
  0
ARC
  5
43BF
330
43B0
100
AcDbEntity
  8
V5
 62
     7
100
AcDbCircle
 10
2.249990999999909
 20
68.99999999999966
 30
0.0
 40
1.0
100
AcDbArc
 50
90.00001999999875
 51
180.0
  0
ARC
  5
43C0
330
43B0
100
AcDbEntity
  8
V5
 62
     7
100
AcDbCircle
 10
0.0
 20
77.99999999999966
 30
0.0
 40
3.0
100
AcDbArc
 50
0.0
 51
90.0
  0
LINE
  5
43C1
330
43B0
100
AcDbEntity
  8
V5
 62
     7
100
AcDbLine
 10
-5.707119000000147
 20
74.2928899999996
 30
0.0
 11
-3.000004999999987
 21
76.99999699999978
 31
0.0
  0
ARC
  5
43C2
330
43B0
100
AcDbEntity
  8
V5
 62
     7
100
AcDbCircle
 10
-5.000008000000207
 20
73.58578999999974
 30
0.0
 40
1.0
100
AcDbArc
 50
135.0
 51
135.0
  0
ARC
  5
43C3
330
43B0
100
AcDbEntity
  8
V5
 62
     7
100
AcDbCircle
 10
-2.250007000000096
 20
68.99999999999966
 30
0.0
 40
1.0
100
AcDbArc
 50
0.00000683018917
 51
89.99998000000124
  0
LINE
  5
43C4
330
43B0
100
AcDbEntity
  8
V5
 62
     7
100
AcDbLine
 10
-2.250007000000096
 20
69.99999899999955
 30
0.0
 11
-5.000008000000207
 21
69.99999899999955
 31
0.0
  0
LINE
  5
43C5
330
43B0
100
AcDbEntity
  8
V5
 62
     7
100
AcDbLine
 10
-6.000007000000096
 20
71.00000199999965
 30
0.0
 11
-6.000007000000096
 21
73.58578999999974
 31
0.0
  0
ARC
  5
43C6
330
43B0
100
AcDbEntity
  8
V5
 62
     7
100
AcDbCircle
 10
-5.000008000000207
 20
71.00000199999965
 30
0.0
 40
1.0
100
AcDbArc
 50
180.0
 51
270.0
  0
ARC
  5
43C7
330
43B0
100
AcDbEntity
  8
V5
 62
     7
100
AcDbCircle
 10
-5.000008000000207
 20
73.58578999999974
 30
0.0
 40
1.0
100
AcDbArc
 50
136.2894999999988
 51
180.0052000000029
  0
LINE
  5
43C8
330
43B0
100
AcDbEntity
  8
V5
 62
     7
100
AcDbLine
 10
-3.000004999999987
 20
76.99999699999978
 30
0.0
 11
-3.000004999999987
 21
77.99999999999966
 31
0.0
  0
ARC
  5
43C9
330
43B0
100
AcDbEntity
  8
V5
 62
     7
100
AcDbCircle
 10
0.0
 20
77.99999999999966
 30
0.0
 40
3.0
100
AcDbArc
 50
90.0
 51
180.0
  0
LINE
  5
43CA
330
43B0
100
AcDbEntity
  8
V5
 62
     7
100
AcDbLine
 10
5.70710299999996
 20
74.2928899999996
 30
0.0
 11
2.999993999999787
 21
76.99999699999978
 31
0.0
  0
ARC
  5
43CB
330
43B0
100
AcDbEntity
  8
V5
 62
     7
100
AcDbCircle
 10
4.999991999999792
 20
73.58578999999974
 30
0.0
 40
1.0
100
AcDbArc
 50
45.0
 51
45.0
  0
LINE
  5
43CC
330
43B0
100
AcDbEntity
  8
V5
 62
     7
100
AcDbLine
 10
2.249990999999909
 20
69.99999899999955
 30
0.0
 11
4.999991999999792
 21
69.99999899999955
 31
0.0
  0
LINE
  5
43CD
330
43B0
100
AcDbEntity
  8
V5
 62
     7
100
AcDbLine
 10
5.99999600000001
 20
71.00000199999965
 30
0.0
 11
5.99999600000001
 21
73.58578999999974
 31
0.0
  0
ARC
  5
43CE
330
43B0
100
AcDbEntity
  8
V5
 62
     7
100
AcDbCircle
 10
4.999991999999792
 20
71.00000199999965
 30
0.0
 40
1.0
100
AcDbArc
 50
270.0
 51
0.0000086514213948
  0
ARC
  5
43CF
330
43B0
100
AcDbEntity
  8
V5
 62
     7
100
AcDbCircle
 10
4.999991999999792
 20
73.58578999999974
 30
0.0
 40
1.0
100
AcDbArc
 50
359.9947999999971
 51
43.71047999999577
  0
LINE
  5
43D0
330
43B0
100
AcDbEntity
  8
V5
 62
     7
100
AcDbLine
 10
2.999993999999787
 20
76.99999699999978
 30
0.0
 11
2.999993999999787
 21
77.99999999999966
 31
0.0
  0
ENDBLK
  5
43B2
330
43B0
100
AcDbEntity
  8
0
 48
15.0
100
AcDbBlockEnd
  0
BLOCK
  5
4EC7
330
4EA4
100
AcDbEntity
  8
0
 62
     6
 48
10.0
100
AcDbBlockBegin
  2
e140
 70
     0
 10
0.0
 20
0.0
 30
0.0
  3
e140
  1

  0
LINE
  5
4EA5
330
4EA4
100
AcDbEntity
  8
0
 62
     3
100
AcDbLine
 10
1.761882177941579
 20
146.0000000000004
 30
0.0
 11
25.48733180248865
 21
11.0
 31
0.0
  0
LINE
  5
4EA6
330
4EA4
100
AcDbEntity
  8
0
 62
     3
100
AcDbLine
 10
-1.761882177942503
 20
146.0000000000001
 30
0.0
 11
-25.48733180248864
 21
11.0
 31
0.0
  0
LINE
  5
4EA7
330
4EA4
100
AcDbEntity
  8
0
 62
     3
100
AcDbLine
 10
-4.705591908087658
 20
12.70737123184409
 30
0.0
 11
-2.000000000000454
 21
29.0
 31
0.0
  0
LINE
  5
4EA8
330
4EA4
100
AcDbEntity
  8
0
 62
     3
100
AcDbLine
 10
4.705591908087637
 20
12.70737123184401
 30
0.0
 11
1.999999999999545
 21
29.0
 31
0.0
  0
LINE
  5
4EA9
330
4EA4
100
AcDbEntity
  8
0
 62
     4
100
AcDbLine
 10
-21.99999999999864
 20
18.45272980605568
 30
0.0
 11
-21.99999999999973
 21
-19.91791965098093
 31
0.0
  0
LINE
  5
4EAA
330
4EA4
100
AcDbEntity
  8
0
 62
     4
100
AcDbLine
 10
21.99999999999954
 20
18.45272980605341
 30
0.0
 11
21.99999999999954
 21
-19.91791965098093
 31
0.0
  0
LINE
  5
4EAB
330
4EA4
100
AcDbEntity
  8
0
 62
     3
100
AcDbLine
 10
-32.50000000000046
 20
0.0
 30
0.0
 11
32.50000000000046
 21
0.0
 31
0.0
  0
LINE
  5
4EAC
330
4EA4
100
AcDbEntity
  8
0
 62
     3
100
AcDbLine
 10
-6.684068191505676
 20
10.99999999999997
 30
0.0
 11
-32.00000000000045
 21
11.0
 31
0.0
  0
LINE
  5
4EAD
330
4EA4
100
AcDbEntity
  8
0
 62
     3
100
AcDbLine
 10
-32.50000000000046
 20
10.5
 30
0.0
 11
-32.50000000000046
 21
0.0
 31
0.0
  0
ARC
  5
4EAE
330
4EA4
100
AcDbEntity
  8
0
 62
     3
100
AcDbCircle
 10
-32.00000000000045
 20
10.5
 30
0.0
 40
0.5
100
AcDbArc
 50
90.0
 51
180.0
  0
LINE
  5
4EAF
330
4EA4
100
AcDbEntity
  8
0
 62
     3
100
AcDbLine
 10
6.684068191505641
 20
10.99999999999997
 30
0.0
 11
32.00000000000045
 21
11.0
 31
0.0
  0
ARC
  5
4EB0
330
4EA4
100
AcDbEntity
  8
0
 62
     3
100
AcDbCircle
 10
-6.684068191505676
 20
12.99999999999997
 30
0.0
 40
2.0
100
AcDbArc
 50
270.0
 51
351.5866003291716
  0
ARC
  5
4EB1
330
4EA4
100
AcDbEntity
  8
0
 62
     3
100
AcDbCircle
 10
6.684068191505641
 20
12.99999999999997
 30
0.0
 40
2.0
100
AcDbArc
 50
188.4133996708317
 51
270.0
  0
LINE
  5
4EB2
330
4EA4
100
AcDbEntity
  8
0
 62
     3
100
AcDbLine
 10
32.50000000000046
 20
10.5
 30
0.0
 11
32.50000000000046
 21
0.0
 31
0.0
  0
ARC
  5
4EB3
330
4EA4
100
AcDbEntity
  8
0
 62
     3
100
AcDbCircle
 10
32.00000000000045
 20
10.5
 30
0.0
 40
0.5
100
AcDbArc
 50
0.0
 51
90.0
  0
LINE
  5
4EB4
330
4EA4
100
AcDbEntity
  8
0
 62
     3
100
AcDbLine
 10
1.761882177941579
 20
146.0000000000004
 30
0.0
 11
1.999999999999545
 21
29.0
 31
0.0
  0
LINE
  5
4EB5
330
4EA4
100
AcDbEntity
  8
0
 62
     3
100
AcDbLine
 10
-1.761882177942503
 20
146.0000000000001
 30
0.0
 11
-2.000000000000454
 21
29.0
 31
0.0
  0
ARC
  5
4EB6
330
4EA4
100
AcDbEntity
  8
0
 62
     3
100
AcDbCircle
 10
-2.549919279120675
 20
189.2
 30
0.0
 40
0.8
100
AcDbArc
 50
359.9768564758476
 51
90.0
  0
ARC
  5
4EB7
330
4EA4
100
AcDbEntity
  8
0
 62
     3
100
AcDbCircle
 10
2.54991927911977
 20
189.2
 30
0.0
 40
0.8
100
AcDbArc
 50
90.0
 51
180.0231435241524
  0
LINE
  5
4EB8
330
4EA4
100
AcDbEntity
  8
0
 62
     3
100
AcDbLine
 10
1.749919344383773
 20
189.1996768554512
 30
0.0
 11
1.761882177941579
 21
146.0000000000004
 31
0.0
  0
LINE
  5
4EB9
330
4EA4
100
AcDbEntity
  8
0
 62
     3
100
AcDbLine
 10
-1.749919344384679
 20
189.1996768554512
 30
0.0
 11
-1.761882177942503
 21
146.0000000000001
 31
0.0
  0
ARC
  5
4EBA
330
4EA4
100
AcDbEntity
  8
0
 62
     3
100
AcDbCircle
 10
-0.0000000000004547
 20
198.0
 30
0.0
 40
3.0
100
AcDbArc
 50
0.0
 51
180.0
  0
LINE
  5
4EBB
330
4EA4
100
AcDbEntity
  8
0
 62
     3
100
AcDbLine
 10
-2.549919279120675
 20
190.0
 30
0.0
 11
-6.000000000000454
 21
190.0
 31
0.0
  0
LINE
  5
4EBC
330
4EA4
100
AcDbEntity
  8
0
 62
     3
100
AcDbLine
 10
-5.597271020094954
 20
193.5344394073002
 30
0.0
 11
-3.100682244976724
 21
196.847524613036
 31
0.0
  0
ARC
  5
4EBD
330
4EA4
100
AcDbEntity
  8
0
 62
     3
100
AcDbCircle
 10
-4.000000000000451
 20
192.330809360996
 30
0.0
 40
2.0
100
AcDbArc
 50
142.9999999999953
 51
180.0
  0
LINE
  5
4EBE
330
4EA4
100
AcDbEntity
  8
0
 62
     3
100
AcDbLine
 10
-6.000000000000454
 20
190.0
 30
0.0
 11
-6.000000000000451
 21
192.330809360996
 31
0.0
  0
LINE
  5
4EBF
330
4EA4
100
AcDbEntity
  8
0
 62
     3
100
AcDbLine
 10
-3.000000000000454
 20
197.1484321246121
 30
0.0
 11
-3.000000000000454
 21
198.0
 31
0.0
  0
ARC
  5
4EC0
330
4EA4
100
AcDbEntity
  8
0
 62
     3
100
AcDbCircle
 10
-3.500000000000454
 20
197.1484321246121
 30
0.0
 40
0.5
100
AcDbArc
 50
322.9999999999953
 51
0.0000000000032569
  0
ARC
  5
4EC1
330
4EA4
100
AcDbEntity
  8
0
 62
     3
100
AcDbCircle
 10
3.999999999999545
 20
192.330809360996
 30
0.0
 40
2.0
100
AcDbArc
 50
0.0
 51
37.00000000000466
  0
LINE
  5
4EC2
330
4EA4
100
AcDbEntity
  8
0
 62
     3
100
AcDbLine
 10
2.54991927911977
 20
190.0
 30
0.0
 11
5.999999999999545
 21
190.0
 31
0.0
  0
LINE
  5
4EC3
330
4EA4
100
AcDbEntity
  8
0
 62
     3
100
AcDbLine
 10
5.597271020094048
 20
193.5344394073003
 30
0.0
 11
3.100682244975814
 21
196.847524613036
 31
0.0
  0
ARC
  5
4EC4
330
4EA4
100
AcDbEntity
  8
0
 62
     3
100
AcDbCircle
 10
3.499999999999545
 20
197.1484321246121
 30
0.0
 40
0.5
100
AcDbArc
 50
179.9999999999967
 51
217.0000000000047
  0
LINE
  5
4EC5
330
4EA4
100
AcDbEntity
  8
0
 62
     3
100
AcDbLine
 10
2.999999999999545
 20
197.1484321246121
 30
0.0
 11
2.999999999999545
 21
198.0
 31
0.0
  0
LINE
  5
4EC6
330
4EA4
100
AcDbEntity
  8
0
 62
     3
100
AcDbLine
 10
5.999999999999545
 20
190.0
 30
0.0
 11
5.999999999999545
 21
192.330809360996
 31
0.0
  0
ENDBLK
  5
4EC8
330
4EA4
100
AcDbEntity
  8
0
 62
     6
 48
10.0
100
AcDbBlockEnd
  0
ENDSEC
  0
SECTION
  2
ENTITIES
  0
LINE
  5
20B3
330
18
100
AcDbEntity
  8
V25
 48
15.0
100
AcDbLine
 10
842.6501891118725
 20
782.9594363712642
 30
0.0
 11
545.1867939281932
 21
782.9594363712645
 31
0.0
  0
LINE
  5
20B4
330
18
100
AcDbEntity
  8
V25
100
AcDbLine
 10
562.4429333116657
 20
992.5610268701261
 30
0.0
 11
562.442933311666
 21
1256.384791702114
 31
0.0
  0
LINE
  5
20B7
330
18
100
AcDbEntity
  8
V25
100
AcDbLine
 10
702.4429333116658
 20
992.5610268701261
 30
0.0
 11
702.4429333116658
 21
1256.384791702113
 31
0.0
  0
LINE
  5
20BD
330
18
100
AcDbEntity
  8
ACHS
 62
     3
 48
4.0
100
AcDbLine
 10
311.143171224656
 20
1256.384791702114
 30
0.0
 11
713.0444870704533
 21
1256.384791702113
 31
0.0
  0
LINE
  5
20BE
330
18
100
AcDbEntity
  8
V25
100
AcDbLine
 10
684.3155187578437
 20
1081.263819834959
 30
0.0
 11
724.5488464616161
 21
1081.263819834959
 31
0.0
  0
TEXT
  5
20D0
330
18
100
AcDbEntity
  8
TXT-D
  6
VERDECKTX2
 62
     7
 48
5.0
100
AcDbText
 10
785.1082359507991
 20
1150.414777826705
 30
0.0
 40
14.0
  1
vaznice
 50
90.0
  7
ROMANS
100
AcDbText
  0
TEXT
  5
20D1
330
18
100
AcDbEntity
  8
TXT-D
  6
VERDECKTX2
 62
     7
 48
5.0
100
AcDbText
 10
821.4179285238298
 20
1149.621317296139
 30
0.0
 40
14.0
  1
vazník
 50
90.0
  7
ROMANS
100
AcDbText
  0
LINE
  5
20D9
330
18
100
AcDbEntity
  8
TXT-D
 62
     1
100
AcDbLine
 10
778.6904559012204
 20
1144.690028304116
 30
0.0
 11
778.6904559012204
 21
1118.816905877035
 31
0.0
  0
LINE
  5
20DE
330
18
100
AcDbEntity
  8
TXT-D
 62
     1
100
AcDbLine
 10
674.5778738846143
 20
1118.816905877035
 30
0.0
 11
778.6904559012204
 21
1118.816905877035
 31
0.0
  0
LWPOLYLINE
  5
20E3
330
18
100
AcDbEntity
  8
V5
100
AcDbPolyline
 90
        2
 70
     0
 43
0.0
 10
613.5662002098964
 20
782.9594363712645
 10
900.5063439737282
 20
782.9594363712642
  0
LINE
  5
20EA
330
18
100
AcDbEntity
  8
V35
100
AcDbLine
 10
706.1493024560428
 20
992.3064511339537
 30
0.0
 11
706.1493024560428
 21
1112.306451133953
 31
0.0
  0
LINE
  5
20EB
330
18
100
AcDbEntity
  8
V35
100
AcDbLine
 10
726.1493024560428
 20
1049.806451133953
 30
0.0
 11
763.1493024560428
 21
1049.806451133953
 31
0.0
  0
LINE
  5
20EC
330
18
100
AcDbEntity
  8
V35
100
AcDbLine
 10
726.1493024560428
 20
1054.806451133954
 30
0.0
 11
763.1493024560428
 21
1054.806451133954
 31
0.0
  0
LINE
  5
20ED
330
18
100
AcDbEntity
  8
V35
100
AcDbLine
 10
714.1493024560428
 20
992.3064511339537
 30
0.0
 11
714.1493024560428
 21
1037.806451133953
 31
0.0
  0
LINE
  5
20EE
330
18
100
AcDbEntity
  8
V35
100
AcDbLine
 10
706.1493024560428
 20
992.3064511339537
 30
0.0
 11
714.1493024560428
 21
992.3064511339537
 31
0.0
  0
LINE
  5
20EF
330
18
100
AcDbEntity
  8
V35
100
AcDbLine
 10
714.1493024560428
 20
1112.306451133953
 30
0.0
 11
706.1493024560428
 21
1112.306451133953
 31
0.0
  0
LINE
  5
20F0
330
18
100
AcDbEntity
  8
V35
100
AcDbLine
 10
714.1493024560428
 20
1066.806451133953
 30
0.0
 11
714.1493024560428
 21
1112.306451133953
 31
0.0
  0
ARC
  5
20F1
330
18
100
AcDbEntity
  8
V35
100
AcDbCircle
 10
726.1493024560428
 20
1066.806451133954
 30
0.0
 40
12.0
100
AcDbArc
 50
180.0
 51
270.0
  0
ARC
  5
20F2
330
18
100
AcDbEntity
  8
V35
100
AcDbCircle
 10
726.1493024560428
 20
1037.806451133954
 30
0.0
 40
12.0
100
AcDbArc
 50
90.0
 51
180.0
  0
ARC
  5
20F3
330
18
100
AcDbEntity
  8
V35
100
AcDbCircle
 10
800.1493024560428
 20
1037.806451133954
 30
0.0
 40
12.0
100
AcDbArc
 50
0.0
 51
90.0
  0
ARC
  5
20F4
330
18
100
AcDbEntity
  8
V35
100
AcDbCircle
 10
800.1493024560428
 20
1066.806451133954
 30
0.0
 40
12.0
100
AcDbArc
 50
270.0
 51
0.0
  0
LINE
  5
20F5
330
18
100
AcDbEntity
  8
V35
100
AcDbLine
 10
812.1493024560429
 20
1066.806451133953
 30
0.0
 11
812.1493024560429
 21
1112.306451133953
 31
0.0
  0
LINE
  5
20F6
330
18
100
AcDbEntity
  8
V35
100
AcDbLine
 10
812.1493024560429
 20
1112.306451133953
 30
0.0
 11
820.1493024560429
 21
1112.306451133953
 31
0.0
  0
LINE
  5
20F7
330
18
100
AcDbEntity
  8
V35
100
AcDbLine
 10
820.1493024560425
 20
992.3064511339537
 30
0.0
 11
812.1493024560429
 21
992.3064511339537
 31
0.0
  0
LINE
  5
20F8
330
18
100
AcDbEntity
  8
V35
100
AcDbLine
 10
812.1493024560429
 20
992.3064511339537
 30
0.0
 11
812.1493024560429
 21
1037.806451133953
 31
0.0
  0
LINE
  5
20F9
330
18
100
AcDbEntity
  8
V35
100
AcDbLine
 10
800.1493024560428
 20
1054.806451133954
 30
0.0
 11
763.1493024560428
 21
1054.806451133954
 31
0.0
  0
LINE
  5
20FA
330
18
100
AcDbEntity
  8
V35
100
AcDbLine
 10
800.1493024560428
 20
1049.806451133953
 30
0.0
 11
763.1493024560428
 21
1049.806451133953
 31
0.0
  0
LINE
  5
20FB
330
18
100
AcDbEntity
  8
V35
100
AcDbLine
 10
820.1493024560425
 20
992.3064511339537
 30
0.0
 11
820.1493024560429
 21
1112.306451133953
 31
0.0
  0
LWPOLYLINE
  5
20FD
330
18
100
AcDbEntity
  8
V35
100
AcDbPolyline
 90
        2
 70
     1
 43
2.9
 10
674.5778738846143
 20
1117.266905877035
 42
1.0
 10
674.5778738846143
 20
1120.366905877035
 42
1.0
  0
LINE
  5
2218
330
18
100
AcDbEntity
  8
TXT-D
 62
     1
100
AcDbLine
 10
814.6904559012204
 20
1144.690028304116
 30
0.0
 11
814.6904559012204
 21
1100.276908315178
 31
0.0
  0
LWPOLYLINE
  5
2260
330
18
100
AcDbEntity
  8
V5
 62
     7
100
AcDbPolyline
 90
       33
 70
     0
 43
0.0
 10
293.432093837249
 20
706.883668413343
 42
-0.8518717637873237
 10
273.1191711063195
 20
713.6115313622479
 42
-0.3441842485073744
 10
276.7297296715989
 20
716.9591347143073
 10
277.0851337919332
 20
716.9888401041634
 42
0.3077507175483973
 10
280.5689660494369
 20
719.8340020779903
 42
-0.3559174951861054
 10
284.746079030199
 20
722.6798249303283
 42
-0.2401758746392449
 10
293.100183504933
 20
717.4743083360901
 42
0.2629884054316376
 10
295.6700098079825
 20
716.0222078070419
 10
327.4093941467624
 20
716.0222078070724
 42
0.2931365125316157
 10
328.3210699020489
 20
716.6165077757489
 10
328.4413303988928
 20
716.880755997096
 42
-0.2939859278524366
 10
333.4471911084853
 20
720.1025202014225
 42
0.4142135623730951
 10
337.5471911084853
 20
724.2025202014224
 10
337.5471911084856
 20
803.9422019371457
 42
0.2446984432290329
 10
335.7988544975246
 20
807.3007253187304
 10
331.9922554975244
 20
809.9661343187303
 42
-0.5205670505517518
 10
331.9922542393974
 20
818.9768068059091
 10
335.7988532393974
 20
821.6422168059093
 42
0.2446984432290355
 10
337.5471894825519
 20
825.0007393378279
 10
337.5471894825519
 20
905.9407393378281
 42
0.2446984432290357
 10
335.7988532393974
 20
909.2992618697465
 10
331.9922542393974
 20
911.9646718697465
 42
-0.5205670505517466
 10
331.9922554975247
 20
920.9753443569255
 10
335.7988544975247
 20
923.6407533569254
 42
0.2446984432290353
 10
337.5471911084856
 20
926.9992767385103
 10
337.5471911084856
 20
1004.563300700631
 42
0.4142135623731031
 10
333.4472911084854
 20
1008.663200700631
 42
-0.2939817751607098
 10
328.4413303988929
 20
1011.884964906186
 10
328.321069902049
 20
1012.149213127533
 42
0.2931365125316157
 10
327.4093941467627
 20
1012.743513096209
 10
300.353824964627
 20
1012.743513096238
 42
0.2992947414849744
 10
297.5995502002468
 20
1010.932618021094
 42
-3.892127811935753
 10
296.2206594028397
 20
1025.339374066194
  0
LINE
  5
2264
330
18
100
AcDbEntity
  8
V25
100
AcDbLine
 10
570.3824718284171
 20
992.5610268701261
 30
0.0
 11
570.3824718284173
 21
1256.384791702114
 31
0.0
  0
LINE
  5
2265
330
18
100
AcDbEntity
  8
V25
100
AcDbLine
 10
694.1902152893304
 20
992.5610268701261
 30
0.0
 11
694.1902152893306
 21
1256.384791702113
 31
0.0
  0
LINE
  5
229D
330
18
100
AcDbEntity
  8
V25
100
AcDbLine
 10
547.9526020823808
 20
1062.421948438873
 30
0.0
 11
580.7504762194747
 21
1062.421948438873
 31
0.0
  0
LINE
  5
22A0
330
18
100
AcDbEntity
  8
TXT-D
 62
     1
100
AcDbLine
 10
743.1566384774913
 20
1145.198825821936
 30
0.0
 11
743.1566384774913
 21
1132.497774274823
 31
0.0
  0
TEXT
  5
22A1
330
18
100
AcDbEntity
  8
TXT-D
  6
VERDECKTX2
 62
     7
 48
5.0
100
AcDbText
 10
749.3427564177712
 20
1150.414777826705
 30
0.0
 40
14.0
  1
trapézový plech
 50
90.0
  7
ROMANS
100
AcDbText
  0
LWPOLYLINE
  5
22A4
330
18
100
AcDbEntity
  8
V5
 62
     7
100
AcDbPolyline
 90
       11
 70
     0
 43
2.5
 10
526.2584878910375
 20
1256.384791702114
 10
526.2584878910375
 20
1251.171948438873
 10
556.2584878910375
 20
1232.421948438873
 10
556.2584878910375
 20
1214.921948438873
 10
556.2584878910375
 20
1197.421948438873
 10
526.2584878910375
 20
1178.671948438873
 10
526.2584878910375
 20
1098.671948438873
 10
556.2584878910375
 20
1079.921948438873
 10
556.2584878910375
 20
1044.921948438873
 10
526.2584878910375
 20
1026.171948438873
 10
526.2584878910375
 20
992.6429373407721
  0
LINE
  5
22B8
330
18
100
AcDbEntity
  8
TXT-D
 62
     1
100
AcDbLine
 10
526.2584878910375
 20
1132.497774274824
 30
0.0
 11
743.1566384774913
 21
1132.497774274823
 31
0.0
  0
LINE
  5
239E
330
18
100
AcDbEntity
  8
ACHS
 62
     3
 48
4.0
100
AcDbLine
 10
900.5063439737281
 20
645.9029696361385
 30
0.0
 11
900.5063439737282
 21
1008.294220746146
 31
0.0
  0
LINE
  5
23A5
330
18
100
AcDbEntity
  8
V25
100
AcDbLine
 10
562.4429333116657
 20
992.5610268701261
 30
0.0
 11
702.4429333116658
 21
992.5610268701261
 31
0.0
  0
LINE
  5
2AF9
330
18
100
AcDbEntity
  8
V5
  6
VERDECKTX2
 48
15.0
100
AcDbLine
 10
475.9131278637168
 20
1256.384791702114
 30
0.0
 11
475.9131278637164
 21
980.0778719967965
 31
0.0
  0
LINE
  5
2AFA
330
18
100
AcDbEntity
  8
V5
  6
VERDECKTX2
 48
15.0
100
AcDbLine
 10
475.9131278637164
 20
980.0778719967963
 30
0.0
 11
510.9499246171259
 21
980.0778719967961
 31
0.0
  0
LINE
  5
2AFB
330
18
100
AcDbEntity
  8
V5
  6
VERDECKTX2
 48
15.0
100
AcDbLine
 10
510.9499246171264
 20
1256.384791702114
 30
0.0
 11
510.949924617126
 21
980.0778719967963
 31
0.0
  0
LINE
  5
2B29
330
18
100
AcDbEntity
  8
V5
  6
VERDECKTX2
 48
15.0
100
AcDbLine
 10
478.9131278637167
 20
1256.384791702114
 30
0.0
 11
478.9131278637164
 21
980.0778719967965
 31
0.0
  0
INSERT
  5
2B3A
330
18
100
AcDbEntity
  8
_INSULATION
  6
VERDECKTX2
 48
15.0
100
AcDbBlockReference
  2
DAEMM
 10
509.9499246171263
 20
979.9804902364231
 30
0.0
 41
3.101183216521264
 42
3.048570044353879
 43
3.101183216521264
 50
90.0
  0
INSERT
  5
2B3B
330
18
100
AcDbEntity
  8
_INSULATION
  6
VERDECKTX2
 48
15.0
100
AcDbBlockReference
  2
DAEMM
 10
509.9499246171263
 20
992.3852231025081
 30
0.0
 41
3.101183216521264
 42
3.048570044353879
 43
3.101183216521264
 50
90.0
  0
INSERT
  5
2B3C
330
18
100
AcDbEntity
  8
_INSULATION
  6
VERDECKTX2
 48
15.0
100
AcDbBlockReference
  2
DAEMM
 10
509.9499246171263
 20
1004.789955968593
 30
0.0
 41
3.101183216521264
 42
3.048570044353879
 43
3.101183216521264
 50
90.0
  0
INSERT
  5
2B3D
330
18
100
AcDbEntity
  8
_INSULATION
  6
VERDECKTX2
 48
15.0
100
AcDbBlockReference
  2
DAEMM
 10
509.9499246171263
 20
1017.194688834678
 30
0.0
 41
3.101183216521264
 42
3.048570044353879
 43
3.101183216521264
 50
90.0
  0
INSERT
  5
2B3E
330
18
100
AcDbEntity
  8
_INSULATION
  6
VERDECKTX2
 48
15.0
100
AcDbBlockReference
  2
DAEMM
 10
509.9499246171263
 20
1029.599421700763
 30
0.0
 41
3.101183216521264
 42
3.048570044353879
 43
3.101183216521264
 50
90.0
  0
INSERT
  5
2B3F
330
18
100
AcDbEntity
  8
_INSULATION
  6
VERDECKTX2
 48
15.0
100
AcDbBlockReference
  2
DAEMM
 10
509.9499246171263
 20
1042.004154566848
 30
0.0
 41
3.101183216521264
 42
3.048570044353879
 43
3.101183216521264
 50
90.0
  0
INSERT
  5
2B40
330
18
100
AcDbEntity
  8
_INSULATION
  6
VERDECKTX2
 48
15.0
100
AcDbBlockReference
  2
DAEMM
 10
509.9499246171263
 20
1054.408887432933
 30
0.0
 41
3.101183216521264
 42
3.048570044353879
 43
3.101183216521264
 50
90.0
  0
INSERT
  5
2B41
330
18
100
AcDbEntity
  8
_INSULATION
  6
VERDECKTX2
 48
15.0
100
AcDbBlockReference
  2
DAEMM
 10
509.9499246171263
 20
1066.813620299018
 30
0.0
 41
3.101183216521264
 42
3.048570044353879
 43
3.101183216521264
 50
90.0
  0
INSERT
  5
2B42
330
18
100
AcDbEntity
  8
_INSULATION
  6
VERDECKTX2
 48
15.0
100
AcDbBlockReference
  2
DAEMM
 10
509.9499246171263
 20
1079.218353165103
 30
0.0
 41
3.101183216521264
 42
3.048570044353879
 43
3.101183216521264
 50
90.0
  0
INSERT
  5
2B43
330
18
100
AcDbEntity
  8
_INSULATION
  6
VERDECKTX2
 48
15.0
100
AcDbBlockReference
  2
DAEMM
 10
509.9499246171263
 20
1091.623086031188
 30
0.0
 41
3.101183216521264
 42
3.048570044353879
 43
3.101183216521264
 50
90.0
  0
INSERT
  5
2B44
330
18
100
AcDbEntity
  8
_INSULATION
  6
VERDECKTX2
 48
15.0
100
AcDbBlockReference
  2
DAEMM
 10
509.9499246171263
 20
1104.027818897273
 30
0.0
 41
3.101183216521264
 42
3.048570044353879
 43
3.101183216521264
 50
90.0
  0
INSERT
  5
2B45
330
18
100
AcDbEntity
  8
_INSULATION
  6
VERDECKTX2
 48
15.0
100
AcDbBlockReference
  2
DAEMM
 10
509.9499246171263
 20
1116.432551763359
 30
0.0
 41
3.101183216521264
 42
3.048570044353879
 43
3.101183216521264
 50
90.0
  0
INSERT
  5
2B46
330
18
100
AcDbEntity
  8
_INSULATION
  6
VERDECKTX2
 48
15.0
100
AcDbBlockReference
  2
DAEMM
 10
509.9499246171263
 20
1128.837284629444
 30
0.0
 41
3.101183216521264
 42
3.048570044353879
 43
3.101183216521264
 50
90.0
  0
INSERT
  5
2B47
330
18
100
AcDbEntity
  8
_INSULATION
  6
VERDECKTX2
 48
15.0
100
AcDbBlockReference
  2
DAEMM
 10
509.9499246171263
 20
1141.242017495529
 30
0.0
 41
3.101183216521264
 42
3.048570044353879
 43
3.101183216521264
 50
90.0
  0
LINE
  5
2B4A
330
18
100
AcDbEntity
  8
V25
100
AcDbLine
 10
503.8336742059503
 20
1138.671948438873
 30
0.0
 11
533.3912364354981
 21
1138.671948438873
 31
0.0
  0
LWPOLYLINE
  5
2FB5
330
18
100
AcDbEntity
  8
V35
100
AcDbPolyline
 90
        2
 70
     1
 43
2.9
 10
814.6904559012204
 20
1098.726908315178
 42
1.0
 10
814.6904559012204
 20
1101.826908315178
 42
1.0
  0
LWPOLYLINE
  5
2FB6
330
18
100
AcDbEntity
  8
V35
100
AcDbPolyline
 90
        2
 70
     1
 43
2.9
 10
526.2584878910375
 20
1130.947774274824
 42
1.0
 10
526.2584878910375
 20
1134.047774274824
 42
1.0
  0
LWPOLYLINE
  5
30C0
330
18
100
AcDbEntity
  8
V5
 62
     7
100
AcDbPolyline
 90
       33
 70
     0
 43
0.0
 10
293.4320938372488
 20
401.8836684133431
 42
-0.8518717637873237
 10
273.119171106319
 20
408.611531362248
 42
-0.3441842485073744
 10
276.7297296715987
 20
411.9591347143074
 10
277.0851337919329
 20
411.9888401041635
 42
0.3077507175483973
 10
280.5689660494366
 20
414.8340020779905
 42
-0.3559174951861054
 10
284.7460790301985
 20
417.6798249303284
 42
-0.2401758746392449
 10
293.1001835049327
 20
412.4743083360902
 42
0.2629884054316376
 10
295.6700098079819
 20
411.022207807042
 10
327.4093941467621
 20
411.0222078070725
 42
0.2931365125316157
 10
328.3210699020484
 20
411.616507775749
 10
328.4413303988925
 20
411.8807559970961
 42
-0.2939859278524366
 10
333.4471911084851
 20
415.1025202014226
 42
0.4142135623730951
 10
337.547191108485
 20
419.2025202014225
 10
337.5471911084853
 20
498.9422019371458
 42
0.2446984432290329
 10
335.7988544975244
 20
502.3007253187305
 10
331.9922554975244
 20
504.9661343187303
 42
-0.5205670505517518
 10
331.9922542393971
 20
513.9768068059092
 10
335.7988532393971
 20
516.6422168059093
 42
0.2446984432290355
 10
337.5471894825516
 20
520.000739337828
 10
337.5471894825516
 20
600.940739337828
 42
0.2446984432290357
 10
335.7988532393971
 20
604.2992618697464
 10
331.9922542393971
 20
606.9646718697465
 42
-0.5205670505517466
 10
331.9922554975244
 20
615.9753443569254
 10
335.7988544975244
 20
618.6407533569254
 42
0.2446984432290353
 10
337.5471911084853
 20
621.9992767385104
 10
337.5471911084853
 20
699.563300700631
 42
0.4142135623731031
 10
333.4472911084851
 20
703.663200700631
 42
-0.2939817751607098
 10
328.4413303988928
 20
706.8849649061858
 10
328.3210699020489
 20
707.1492131275329
 42
0.2931365125316157
 10
327.4093941467624
 20
707.7435130962093
 10
300.3538249646269
 20
707.743513096238
 42
0.2992947414849744
 10
297.5995502002467
 20
705.9326180210939
 42
-3.892127811935753
 10
296.2206594028396
 20
720.3393740661936
  0
LWPOLYLINE
  5
30C1
330
18
100
AcDbEntity
  8
V5
 62
     7
100
AcDbPolyline
 90
       33
 70
     0
 43
0.0
 10
293.4320938372485
 20
96.883668413343
 42
-0.8518717637873237
 10
273.1191711063187
 20
103.6115313622481
 42
-0.3441842485073744
 10
276.7297296715984
 20
106.9591347143076
 10
277.0851337919326
 20
106.9888401041638
 42
0.3077507175483973
 10
280.5689660494364
 20
109.8340020779906
 42
-0.3559174951861054
 10
284.7460790301982
 20
112.6798249303285
 42
-0.2401758746392449
 10
293.1001835049324
 20
107.4743083360903
 42
0.2629884054316376
 10
295.6700098079817
 20
106.0222078070421
 10
327.4093941467618
 20
106.0222078070725
 42
0.2931365125316157
 10
328.3210699020481
 20
106.616507775749
 10
328.441330398892
 20
106.8807559970961
 42
-0.2939859278524366
 10
333.4471911084845
 20
110.1025202014226
 42
0.4142135623730951
 10
337.5471911084847
 20
114.2025202014226
 10
337.5471911084848
 20
193.9422019371458
 42
0.2446984432290329
 10
335.7988544975238
 20
197.3007253187305
 10
331.9922554975239
 20
199.9661343187305
 42
-0.5205670505517518
 10
331.9922542393966
 20
208.9768068059093
 10
335.7988532393966
 20
211.6422168059095
 42
0.2446984432290355
 10
337.5471894825511
 20
215.0007393378281
 10
337.5471894825511
 20
295.9407393378283
 42
0.2446984432290357
 10
335.7988532393966
 20
299.2992618697467
 10
331.9922542393966
 20
301.9646718697468
 42
-0.5205670505517466
 10
331.9922554975239
 20
310.9753443569257
 10
335.7988544975238
 20
313.6407533569254
 42
0.2446984432290353
 10
337.5471911084848
 20
316.9992767385106
 10
337.547191108485
 20
394.5633007006314
 42
0.4142135623731031
 10
333.4472911084848
 20
398.6632007006311
 42
-0.2939817751607098
 10
328.4413303988925
 20
401.8849649061859
 10
328.3210699020484
 20
402.1492131275332
 42
0.2931365125316157
 10
327.4093941467621
 20
402.7435130962095
 10
300.3538249646264
 20
402.7435130962381
 42
0.2992947414849744
 10
297.5995502002464
 20
400.9326180210942
 42
-3.892127811935753
 10
296.2206594028393
 20
415.3393740661937
  0
LINE
  5
30CC
330
18
100
AcDbEntity
  8
V5
 48
15.0
100
AcDbLine
 10
360.4299056910138
 20
62.9594363712647
 30
0.0
 11
360.4299056910145
 21
772.9594363712644
 31
0.0
  0
LINE
  5
30CE
330
18
100
AcDbEntity
  8
V5
100
AcDbLine
 10
829.1808365373238
 20
772.9594363712642
 30
0.0
 11
610.3257951325207
 21
772.9594363712644
 31
0.0
  0
LINE
  5
30CF
330
18
100
AcDbEntity
  8
V5
 48
15.0
100
AcDbLine
 10
368.4299056910138
 20
62.9594363712647
 30
0.0
 11
368.4299056910145
 21
772.9594363712644
 31
0.0
  0
LINE
  5
30D3
330
18
100
AcDbEntity
  8
V25
100
AcDbLine
 10
346.0656111333275
 20
693.6387921660703
 30
0.0
 11
377.2714711933947
 21
693.6387921660704
 31
0.0
  0
LINE
  5
30D5
330
18
100
AcDbEntity
  8
V25
100
AcDbLine
 10
344.6136552798381
 20
424.4730936043256
 30
0.0
 11
379.200129245049
 21
424.4730936043256
 31
0.0
  0
LINE
  5
30D6
330
18
100
AcDbEntity
  8
V25
100
AcDbLine
 10
344.6136552798381
 20
388.6387921660703
 30
0.0
 11
379.200129245049
 21
388.6387921660703
 31
0.0
  0
LINE
  5
30D7
330
18
100
AcDbEntity
  8
V25
100
AcDbLine
 10
344.6136552798376
 20
119.4730936043256
 30
0.0
 11
379.2001292450484
 21
119.4730936043256
 31
0.0
  0
LINE
  5
30D8
330
18
100
AcDbEntity
  8
V25
100
AcDbLine
 10
344.6136552798376
 20
83.63879216607029
 30
0.0
 11
379.2001292450484
 21
83.63879216607051
 31
0.0
  0
LINE
  5
30E0
330
18
100
AcDbEntity
  8
V35
100
AcDbLine
 10
470.4299056910137
 20
62.95943637126447
 30
0.0
 11
368.4299056910138
 21
62.9594363712647
 31
0.0
  0
LWPOLYLINE
  5
30E3
330
18
100
AcDbEntity
  8
SV35
  6
AUSGEZOGEN
 48
5.0
100
AcDbPolyline
 90
        4
 70
     0
 43
0.0
 10
610.3108667662678
 20
772.9133669265609
 10
829.1808365373238
 20
772.9594363712642
 10
829.1808365373238
 20
782.9594363712642
 10
613.5662002098963
 20
782.9594363712645
  0
LINE
  5
30E4
330
18
100
AcDbEntity
  8
V5
100
AcDbLine
 10
829.1808365373238
 20
764.9594363712644
 30
0.0
 11
607.7334710706202
 21
764.9594363712647
 31
0.0
  0
LINE
  5
30EB
330
18
100
AcDbEntity
  8
V25
100
AcDbLine
 10
625.4836531903463
 20
842.9594363712645
 30
0.0
 11
625.4836531903463
 21
752.1327162510326
 31
0.0
  0
LINE
  5
30EC
330
18
100
AcDbEntity
  8
V5
 48
15.0
100
AcDbLine
 10
829.1808365373238
 20
764.9594363712644
 30
0.0
 11
829.1808365373238
 21
772.9594363712642
 31
0.0
  0
LINE
  5
30F1
330
18
100
AcDbEntity
  8
V25
100
AcDbLine
 10
775.3275819953789
 20
842.9594363712645
 30
0.0
 11
775.3275819953789
 21
752.1327162510324
 31
0.0
  0
CIRCLE
  5
3235
330
18
100
AcDbEntity
  8
V35
 48
15.0
100
AcDbCircle
 10
433.9607808483103
 20
180.2149462080997
 30
0.0
 40
35.0
  0
CIRCLE
  5
3236
330
18
100
AcDbEntity
  8
V35
 48
15.0
100
AcDbCircle
 10
461.7485677776635
 20
347.6182305700741
 30
0.0
 40
45.0
  0
CIRCLE
  5
3237
330
18
100
AcDbEntity
  8
V35
 48
15.0
100
AcDbCircle
 10
490.125447873241
 20
531.9991605143566
 30
0.0
 40
55.0
  0
INSERT
  5
324B
330
18
100
AcDbEntity
  8
_INSULATION
  6
VERDECKTX2
 48
15.0
100
AcDbBlockReference
  2
DAEMM
 10
509.9499246171263
 20
1203.265681825954
 30
0.0
 41
3.101183216521264
 42
3.048570044353879
 43
3.101183216521264
 50
90.0
  0
INSERT
  5
324C
330
18
100
AcDbEntity
  8
_INSULATION
  6
VERDECKTX2
 48
15.0
100
AcDbBlockReference
  2
DAEMM
 10
509.9499246171263
 20
1166.051483227699
 30
0.0
 41
3.101183216521264
 42
3.048570044353879
 43
3.101183216521264
 50
90.0
  0
INSERT
  5
324D
330
18
100
AcDbEntity
  8
_INSULATION
  6
VERDECKTX2
 48
15.0
100
AcDbBlockReference
  2
DAEMM
 10
509.9499246171263
 20
1153.646750361614
 30
0.0
 41
3.101183216521264
 42
3.048570044353879
 43
3.101183216521264
 50
90.0
  0
INSERT
  5
324E
330
18
100
AcDbEntity
  8
_INSULATION
  6
VERDECKTX2
 48
15.0
100
AcDbBlockReference
  2
DAEMM
 10
509.9499246171263
 20
1178.456216093784
 30
0.0
 41
3.101183216521264
 42
3.048570044353879
 43
3.101183216521264
 50
90.0
  0
INSERT
  5
324F
330
18
100
AcDbEntity
  8
_INSULATION
  6
VERDECKTX2
 48
15.0
100
AcDbBlockReference
  2
DAEMM
 10
509.9499246171263
 20
1190.860948959869
 30
0.0
 41
3.101183216521264
 42
3.048570044353879
 43
3.101183216521264
 50
90.0
  0
INSERT
  5
3250
330
18
100
AcDbEntity
  8
_INSULATION
  6
VERDECKTX2
 48
15.0
100
AcDbBlockReference
  2
DAEMM
 10
509.9499246171263
 20
1240.479880424209
 30
0.0
 41
3.101183216521264
 42
3.048570044353879
 43
3.101183216521264
 50
90.0
  0
INSERT
  5
3251
330
18
100
AcDbEntity
  8
_INSULATION
  6
VERDECKTX2
 48
15.0
100
AcDbBlockReference
  2
DAEMM
 10
509.9499246171263
 20
1228.075147558124
 30
0.0
 41
3.101183216521264
 42
3.048570044353879
 43
3.101183216521264
 50
90.0
  0
INSERT
  5
3252
330
18
100
AcDbEntity
  8
_INSULATION
  6
VERDECKTX2
 48
15.0
100
AcDbBlockReference
  2
DAEMM
 10
509.9499246171263
 20
1215.670414692039
 30
0.0
 41
3.101183216521264
 42
3.048570044353879
 43
3.101183216521264
 50
90.0
  0
LINE
  5
3354
330
18
100
AcDbEntity
  8
V25
 48
5.0
100
AcDbLine
 10
900.5063439737281
 20
677.5856543591558
 30
0.0
 11
381.5767957422341
 21
677.5856543591564
 31
0.0
  0
LWPOLYLINE
  5
3357
330
18
100
AcDbEntity
  8
0
100
AcDbPolyline
 90
       19
 70
     0
 43
0.0
 10
475.3264760014265
 20
653.7826823077107
 42
0.029275129537849
 10
478.2069068100729
 20
653.6138876750089
 42
0.2243326451183195
 10
497.2569068100731
 20
662.613887675009
 42
-0.4724409448818896
 10
535.356906810073
 20
662.613887675009
 42
0.2243326451183194
 10
554.4069068100732
 20
653.6138876750089
 42
0.2243326451183195
 10
573.4569068100729
 20
662.613887675009
 42
-0.4724409448818896
 10
611.5569068100728
 20
662.613887675009
 42
0.2243326451183196
 10
630.606906810073
 20
653.6138876750089
 42
0.2243326451183195
 10
649.6569068100727
 20
662.613887675009
 42
-0.4724409448818895
 10
687.7569068100731
 20
662.6138876750087
 42
0.2243326451183194
 10
706.8069068100728
 20
653.6138876750087
 42
0.2243326451183195
 10
725.856906810073
 20
662.6138876750087
 42
-0.4724409448818895
 10
763.9569068100729
 20
662.6138876750087
 42
0.2243326451183194
 10
783.0069068100731
 20
653.6138876750087
 42
0.2243326451183195
 10
802.0569068100728
 20
662.6138876750087
 42
-0.4724409448818895
 10
840.1569068100732
 20
662.6138876750087
 42
0.2243326451183196
 10
859.2069068100729
 20
653.6138876750087
 42
0.22433264511832
 10
878.256906810073
 20
662.6138876750087
 42
-0.258758356233057
 10
900.5063439737277
 20
671.4054668241751
  0
LINE
  5
3358
330
18
100
AcDbEntity
  8
V25
  6
VERDECKT
 48
4.0
100
AcDbLine
 10
900.5063439737281
 20
703.6417725654846
 30
0.0
 11
381.5767957422342
 21
703.6417725654851
 31
0.0
  0
LINE
  5
3359
330
18
100
AcDbEntity
  8
0
100
AcDbLine
 10
900.5063439737281
 20
674.6417725654842
 30
0.0
 11
381.5767957422341
 21
674.641772565485
 31
0.0
  0
LINE
  5
336E
330
18
100
AcDbEntity
  8
TXT-D
 62
     1
100
AcDbLine
 10
781.663457770646
 20
508.7425767661256
 30
0.0
 11
781.663457770646
 21
777.7966655411257
 31
0.0
  0
LINE
  5
336F
330
18
100
AcDbEntity
  8
V25
  6
VERDECKTX2
 48
5.0
100
AcDbLine
 10
821.7858767731442
 20
665.0431492394195
 30
0.0
 11
821.7858767731442
 21
683.8416630403421
 31
0.0
  0
LWPOLYLINE
  5
3370
330
18
100
AcDbEntity
  8
V25
  6
VERDECKTX2
 48
5.0
100
AcDbPolyline
 90
        3
 70
     1
 43
0.0
 10
820.371663210771
 20
667.9774056792937
 10
823.2000903355171
 20
667.9774056792937
 10
821.7858767731442
 20
669.3916192416668
  0
LWPOLYLINE
  5
3371
330
18
100
AcDbEntity
  8
V35
100
AcDbPolyline
 90
        2
 70
     1
 43
2.9
 10
781.663457770646
 20
776.2466655411255
 42
1.0
 10
781.663457770646
 20
779.3466655411255
 42
1.0
  0
LINE
  5
3372
330
18
100
AcDbEntity
  8
V25
  6
VERDECKTX2
 48
5.0
100
AcDbLine
 10
670.7438166992899
 20
665.0431492394195
 30
0.0
 11
670.7438166992899
 21
683.8416630403421
 31
0.0
  0
LWPOLYLINE
  5
3373
330
18
100
AcDbEntity
  8
V25
  6
VERDECKTX2
 48
5.0
100
AcDbPolyline
 90
        3
 70
     1
 43
0.0
 10
669.3296031369166
 20
667.9774056792937
 10
672.1580302616628
 20
667.9774056792937
 10
670.7438166992899
 20
669.3916192416668
  0
INSERT
  5
3374
330
18
100
AcDbEntity
  8
TXT-D
100
AcDbBlockReference
  2
wädä
 10
846.4285517082402
 20
780.0095572555886
 30
0.0
 41
1.181998276682771
 42
1.181998276682771
 43
1.181998276682771
 50
90.0
  0
LINE
  5
3375
330
18
100
AcDbEntity
  8
V25
  6
VERDECKT
 62
     6
 48
1.8
100
AcDbLine
 10
658.6534974352709
 20
688.9981913786057
 30
0.0
 11
673.653497435271
 21
688.9981913786057
 31
0.0
  0
LINE
  5
3376
330
18
100
AcDbEntity
  8
V25
  6
VERDECKT
 62
     6
 48
1.8
100
AcDbLine
 10
658.6534974352709
 20
740.7904794931089
 30
0.0
 11
673.653497435271
 21
740.7904794931089
 31
0.0
  0
LINE
  5
3377
330
18
100
AcDbEntity
  8
V25
  6
VERDECKT
 62
     6
 48
1.8
100
AcDbLine
 10
646.1534974352709
 20
774.7904794931089
 30
0.0
 11
736.153497435271
 21
774.7904794931089
 31
0.0
  0
LINE
  5
3379
330
18
100
AcDbEntity
  8
V25
  6
VERDECKT
 62
     6
 48
1.8
100
AcDbLine
 10
736.153497435271
 20
716.7904794931089
 30
0.0
 11
736.1534974352714
 21
777.7904794931089
 31
0.0
  0
LINE
  5
337E
330
18
100
AcDbEntity
  8
V25
  6
VERDECKT
 62
     6
 48
1.8
100
AcDbLine
 10
708.6534974352709
 20
688.9981913786055
 30
0.0
 11
723.653497435271
 21
688.9981913786055
 31
0.0
  0
LINE
  5
337F
330
18
100
AcDbEntity
  8
V25
  6
VERDECKT
 62
     6
 48
1.8
100
AcDbLine
 10
708.6534974352709
 20
740.7904794931089
 30
0.0
 11
723.653497435271
 21
740.7904794931089
 31
0.0
  0
LINE
  5
3380
330
18
100
AcDbEntity
  8
V25
  6
VERDECKT
 62
     6
 48
1.8
100
AcDbLine
 10
723.653497435271
 20
687.7904794931089
 30
0.0
 11
723.653497435271
 21
740.7904794931089
 31
0.0
  0
LINE
  5
3381
330
18
100
AcDbEntity
  8
V25
  6
VERDECKT
 62
     6
 48
1.8
100
AcDbLine
 10
723.653497435271
 20
687.7904794931089
 30
0.0
 11
736.153497435271
 21
687.7904794931089
 31
0.0
  0
LINE
  5
3382
330
18
100
AcDbEntity
  8
V25
  6
VERDECKT
 62
     6
 48
1.8
100
AcDbLine
 10
736.153497435271
 20
687.7904794931089
 30
0.0
 11
736.153497435271
 21
716.7904794931089
 31
0.0
  0
CIRCLE
  5
3383
330
18
100
AcDbEntity
  8
V25
 62
     6
 48
5.0
100
AcDbCircle
 10
729.9034974352706
 20
697.2904794931091
 30
0.0
 40
3.0
  0
LINE
  5
3384
330
18
100
AcDbEntity
  8
V25
  6
VERDECKT
 62
     6
 48
1.8
100
AcDbLine
 10
673.653497435271
 20
687.7904794931089
 30
0.0
 11
673.653497435271
 21
740.7904794931089
 31
0.0
  0
LINE
  5
3385
330
18
100
AcDbEntity
  8
V25
  6
VERDECKT
 62
     6
 48
1.8
100
AcDbLine
 10
708.6534974352709
 20
687.7904794931089
 30
0.0
 11
708.6534974352709
 21
740.7904794931089
 31
0.0
  0
LINE
  5
3386
330
18
100
AcDbEntity
  8
V25
  6
VERDECKT
 62
     6
 48
1.8
100
AcDbLine
 10
673.653497435271
 20
687.7904794931089
 30
0.0
 11
708.6534974352709
 21
687.7904794931089
 31
0.0
  0
LWPOLYLINE
  5
3387
330
18
100
AcDbEntity
  8
V25
  6
VERDECKT
 62
     6
 48
1.8
100
AcDbPolyline
 90
        4
 70
     1
 43
0.0
 10
686.153497435271
 20
694.2904794931089
 10
696.1534974352709
 20
694.2904794931089
 42
0.9999999999999998
 10
696.1534974352709
 20
700.2904794931089
 10
686.153497435271
 20
700.2904794931089
 42
0.9999999999999998
  0
LINE
  5
3388
330
18
100
AcDbEntity
  8
V25
  6
VERDECKT
 48
2.0
100
AcDbLine
 10
691.153497435271
 20
770.0283787308974
 30
0.0
 11
691.153497435271
 21
800.742412084425
 31
0.0
  0
LWPOLYLINE
  5
3389
330
18
100
AcDbEntity
  8
V25
  6
VERDECKTX2
 62
     6
 48
5.0
100
AcDbPolyline
 90
        3
 70
     1
 43
0.0
 10
689.7392838728976
 20
773.3762659307355
 10
692.5677109976438
 20
773.3762659307355
 10
691.153497435271
 20
774.7904794931089
  0
INSERT
  5
3392
330
18
100
AcDbEntity
  8
TXT-D
100
AcDbBlockReference
  2
wädä
 10
825.5701213491576
 20
764.9594363712644
 30
0.0
 41
0.9761596244422271
 42
0.9761596244422271
 43
0.9761596244422271
 50
90.0
  0
LINE
  5
3393
330
18
100
AcDbEntity
  8
V25
  6
VERDECKT
 62
     6
 48
1.8
100
AcDbLine
 10
646.1534974352709
 20
716.7904794931089
 30
0.0
 11
646.1534974352709
 21
777.7904794931089
 31
0.0
  0
LINE
  5
3396
330
18
100
AcDbEntity
  8
V25
  6
VERDECKT
 62
     6
 48
1.8
100
AcDbLine
 10
658.6534974352709
 20
687.7904794931089
 30
0.0
 11
658.6534974352709
 21
740.7904794931089
 31
0.0
  0
LINE
  5
3397
330
18
100
AcDbEntity
  8
V25
  6
VERDECKT
 62
     6
 48
1.8
100
AcDbLine
 10
646.1534974352709
 20
687.7904794931089
 30
0.0
 11
646.1534974352709
 21
716.7904794931089
 31
0.0
  0
LINE
  5
3398
330
18
100
AcDbEntity
  8
V25
  6
VERDECKT
 62
     6
 48
1.8
100
AcDbLine
 10
646.1534974352709
 20
687.7904794931089
 30
0.0
 11
658.6534974352709
 21
687.7904794931089
 31
0.0
  0
CIRCLE
  5
3399
330
18
100
AcDbEntity
  8
V25
  6
VERDECKT
 62
     6
 48
1.8
100
AcDbCircle
 10
652.4034974352706
 20
697.2904794931091
 30
0.0
 40
3.0
  0
LWPOLYLINE
  5
33A6
330
18
100
AcDbEntity
  8
V25
  6
VERDECKTX2
 48
5.0
100
AcDbPolyline
 90
        3
 70
     1
 43
0.0
 10
515.5716632107717
 20
667.9774056792937
 10
518.4000903355179
 20
667.9774056792937
 10
516.985876773145
 20
669.3916192416668
  0
LINE
  5
33A7
330
18
100
AcDbEntity
  8
V25
  6
VERDECKTX2
 48
5.0
100
AcDbLine
 10
516.985876773145
 20
665.0431492394195
 30
0.0
 11
516.985876773145
 21
683.8416630403424
 31
0.0
  0
ARC
  5
33B7
330
18
100
AcDbEntity
  8
V5
  6
PUNKT
 48
0.05
100
AcDbCircle
 10
388.8482876014995
 20
664.8706793666872
 30
0.0
 40
24.5943124524506
100
AcDbArc
 50
90.0
 51
239.4567052606003
  0
LWPOLYLINE
  5
33B8
330
18
100
AcDbEntity
  8
V30
  6
VERDECKT
 48
2.0
100
AcDbPolyline
 90
        3
 70
     0
 43
1.5
 10
340.6347833831234
 20
695.21154835366
 10
340.6347833831234
 20
671.883500818235
 10
418.1332121291113
 20
671.883500818235
  0
LINE
  5
33B9
330
18
100
AcDbEntity
  8
V25
 48
5.0
100
AcDbLine
 10
381.5767957422342
 20
674.6417725654849
 30
0.0
 11
381.5767957422342
 21
703.6417725654849
 31
0.0
  0
LINE
  5
33BD
330
18
100
AcDbEntity
  8
V25
  6
VERDECKTX2
 48
5.0
100
AcDbLine
 10
404.3338650563402
 20
665.0431492394195
 30
0.0
 11
404.3338650563402
 21
683.8416630403424
 31
0.0
  0
LINE
  5
33C4
330
18
100
AcDbEntity
  8
V5
  6
PUNKT
 48
0.05
100
AcDbLine
 10
388.8482876014998
 20
689.4649918191378
 30
0.0
 11
417.5095971928965
 21
689.4649918191378
 31
0.0
  0
LINE
  5
33DD
330
18
100
AcDbEntity
  8
V5
  6
PUNKT
 48
0.05
100
AcDbLine
 10
405.301506560496
 20
626.6055551695913
 30
0.0
 11
385.679871376373
 21
631.9773433036552
 31
0.0
  0
LINE
  5
33DE
330
18
100
AcDbEntity
  8
V5
  6
PUNKT
 48
0.05
100
AcDbLine
 10
391.1124933564499
 20
641.1841895141206
 30
0.0
 11
405.301506560496
 21
626.6055551695913
 31
0.0
  0
LINE
  5
33DF
330
18
100
AcDbEntity
  8
V5
  6
PUNKT
 48
0.05
100
AcDbLine
 10
405.301506560496
 20
626.6055551695913
 30
0.0
 11
376.3497212756462
 21
643.6889408920714
 31
0.0
  0
LINE
  5
33E0
330
18
100
AcDbEntity
  8
V5
  6
PUNKT
 48
0.05
100
AcDbLine
 10
385.679871376373
 20
631.9773433036552
 30
0.0
 11
391.1124933564499
 21
641.1841895141206
 31
0.0
  0
INSERT
  5
40E3
330
18
100
AcDbEntity
  8
V25
100
AcDbBlockReference
  2
OKAPPE
 10
339.4216704458299
 20
91.70651703969637
 30
0.0
 41
-1.0
 50
90.0
  0
LWPOLYLINE
  5
40E7
330
18
100
AcDbEntity
  8
V5
 48
15.0
100
AcDbPolyline
 90
        4
 70
     0
 43
0.0
 10
304.8814804029199
 20
95.63424063892625
 42
0.3836418557638967
 10
295.8493059726619
 20
93.42634683709514
 42
-3.241916765747243
 10
295.8493059726619
 20
110.3393740661936
 42
0.3767370477214214
 10
304.8814804029199
 20
109.6955816116956
  0
INSERT
  5
40EB
330
18
100
AcDbEntity
  8
TXT-D
100
AcDbBlockReference
  2
wädä
 10
866.9622648502805
 20
780.0095572555915
 30
0.0
 41
1.181998276682771
 42
1.181998276682771
 43
1.181998276682771
 50
90.0
  0
INSERT
  5
40EC
330
18
100
AcDbEntity
  8
TXT-D
100
AcDbBlockReference
  2
wädä
 10
887.4959779923203
 20
780.0095572555886
 30
0.0
 41
1.181998276682771
 42
1.181998276682771
 43
1.181998276682771
 50
90.0
  0
LWPOLYLINE
  5
40EE
330
18
100
AcDbEntity
  8
ISO10TES
100
AcDbPolyline
 90
        2
 70
     0
 43
0.0
 10
900.5063439737281
 20
753.6623859795261
 10
897.8172260238213
 20
769.7970942272436
  0
LINE
  5
40EF
330
18
100
AcDbEntity
  8
ISO10TES
100
AcDbLine
 10
897.8172260238213
 20
769.7970942272436
 30
0.0
 11
887.6047609132818
 21
708.5223014818125
 31
0.0
  0
ARC
  5
40F1
330
18
100
AcDbEntity
  8
ISO10TES
100
AcDbCircle
 10
897.8172260238212
 20
708.5223014818125
 30
0.0
 40
10.21246511053941
100
AcDbArc
 50
180.0
 51
270.0
  0
ARC
  5
40F2
330
18
100
AcDbEntity
  8
ISO10TES
100
AcDbCircle
 10
897.8172260238212
 20
708.5223014818125
 30
0.0
 40
10.21246511053941
100
AcDbArc
 50
270.0
 51
285.2669858451829
  0
LWPOLYLINE
  5
40F3
330
18
100
AcDbEntity
  8
ISO10TES
100
AcDbPolyline
 90
        2
 70
     0
 43
0.0
 10
897.8172260238212
 20
769.7970921450491
 42
-0.1878242220762425
 10
900.5063439737281
 20
776.7031540572091
 42
-0.1878242220762425
  0
LINE
  5
411B
330
18
100
AcDbEntity
  8
V35
  6
VERDECKT
 48
4.0
100
AcDbLine
 10
677.5331751126762
 20
669.9803218706233
 30
0.0
 11
699.1808365373238
 21
764.9594363712644
 31
0.0
  0
INSERT
  5
4324
330
18
100
AcDbEntity
  8
TXT-D
100
AcDbBlockReference
  2
wädä
 10
808.7020830387961
 20
764.9594363712644
 30
0.0
 41
0.9761596244422271
 42
0.9761596244422271
 43
0.9761596244422271
 50
90.0
  0
INSERT
  5
4325
330
18
100
AcDbEntity
  8
TXT-D
100
AcDbBlockReference
  2
wädä
 10
791.8340447284344
 20
764.9594363712644
 30
0.0
 41
0.9761596244422271
 42
0.9761596244422271
 43
0.9761596244422271
 50
90.0
  0
INSERT
  5
4326
330
18
100
AcDbEntity
  8
TXT-D
100
AcDbBlockReference
  2
wädä
 10
774.9660064180726
 20
764.9594363712644
 30
0.0
 41
0.9761596244422271
 42
0.9761596244422271
 43
0.9761596244422271
 50
90.0
  0
INSERT
  5
4327
330
18
100
AcDbEntity
  8
TXT-D
100
AcDbBlockReference
  2
wädä
 10
758.0979681077109
 20
764.9594363712644
 30
0.0
 41
0.9761596244422271
 42
0.9761596244422271
 43
0.9761596244422271
 50
90.0
  0
INSERT
  5
4328
330
18
100
AcDbEntity
  8
TXT-D
100
AcDbBlockReference
  2
wädä
 10
741.2299297973492
 20
764.9594363712644
 30
0.0
 41
0.9761596244422271
 42
0.9761596244422271
 43
0.9761596244422271
 50
90.0
  0
INSERT
  5
4329
330
18
100
AcDbEntity
  8
TXT-D
100
AcDbBlockReference
  2
wädä
 10
724.3618914869874
 20
764.9594363712644
 30
0.0
 41
0.9761596244422271
 42
0.9761596244422271
 43
0.9761596244422271
 50
90.0
  0
INSERT
  5
432A
330
18
100
AcDbEntity
  8
TXT-D
100
AcDbBlockReference
  2
wädä
 10
707.4938531766259
 20
764.9594363712644
 30
0.0
 41
0.9761596244422271
 42
0.9761596244422271
 43
0.9761596244422271
 50
90.0
  0
INSERT
  5
432B
330
18
100
AcDbEntity
  8
TXT-D
100
AcDbBlockReference
  2
wädä
 10
690.6258148662642
 20
764.9594363712644
 30
0.0
 41
0.9761596244422271
 42
0.9761596244422271
 43
0.9761596244422271
 50
90.0
  0
INSERT
  5
432C
330
18
100
AcDbEntity
  8
TXT-D
100
AcDbBlockReference
  2
wädä
 10
673.7577765559024
 20
764.9594363712644
 30
0.0
 41
0.9761596244422271
 42
0.9761596244422271
 43
0.9761596244422271
 50
90.0
  0
INSERT
  5
432D
330
18
100
AcDbEntity
  8
TXT-D
100
AcDbBlockReference
  2
wädä
 10
656.8897382455408
 20
764.9594363712644
 30
0.0
 41
0.9761596244422271
 42
0.9761596244422271
 43
0.9761596244422271
 50
90.0
  0
INSERT
  5
432E
330
18
100
AcDbEntity
  8
TXT-D
100
AcDbBlockReference
  2
wädä
 10
640.0216999351792
 20
764.9594363712644
 30
0.0
 41
0.9761596244422271
 42
0.9761596244422271
 43
0.9761596244422271
 50
90.0
  0
INSERT
  5
432F
330
18
100
AcDbEntity
  8
TXT-D
100
AcDbBlockReference
  2
wädä
 10
623.1536616248176
 20
764.9594363712644
 30
0.0
 41
0.9761596244422271
 42
0.9761596244422271
 43
0.9761596244422271
 50
90.0
  0
INSERT
  5
4337
330
18
100
AcDbEntity
  8
TXT-D
100
AcDbBlockReference
  2
wädä
 10
488.2093551419243
 20
764.9594363712644
 30
0.0
 41
0.9761596244422271
 42
0.9761596244422271
 43
0.9761596244422271
 50
90.0
  0
INSERT
  5
4338
330
18
100
AcDbEntity
  8
TXT-D
100
AcDbBlockReference
  2
wädä
 10
471.3413168315626
 20
764.9594363712644
 30
0.0
 41
0.9761596244422271
 42
0.9761596244422271
 43
0.9761596244422271
 50
90.0
  0
LINE
  5
4353
330
18
100
AcDbEntity
  8
ISO10TES
100
AcDbLine
 10
596.2132798630273
 20
746.6954728241528
 30
0.0
 11
589.417585004094
 21
705.9213022849966
 31
0.0
  0
LINE
  5
4367
330
18
100
AcDbEntity
  8
ISO10TES
100
AcDbLine
 10
496.643374297105
 20
756.5254189356749
 30
0.0
 11
488.209355141924
 21
705.9213022849966
 31
0.0
  0
LWPOLYLINE
  5
436B
330
18
100
AcDbEntity
  8
ISO10TES
100
AcDbPolyline
 90
        2
 70
     0
 43
0.0
 10
496.6433742971045
 20
756.5254172160832
 42
-0.3759165693794073
 10
503.9631500428926
 20
764.8855093647732
 42
-0.3759165693794073
  0
ELLIPSE
  5
4380
330
18
100
AcDbEntity
  8
INSULATION
100
AcDbEllipse
 10
503.8527845284185
 20
1252.884613290295
 30
0.0
 11
-0.0000000000001608
 21
-6.20236643304256
 31
0.0
210
0.0
220
0.0
230
1.0
 40
0.9830344844228967
 41
1.570796326794921
 42
2.170417181003414
  0
LINE
  5
4381
330
18
100
AcDbEntity
  8
INSULATION
100
AcDbLine
 10
495.7398028663022
 20
1256.384791702114
 30
0.0
 11
487.7261601047599
 21
1253.288716549112
 31
0.0
  0
ELLIPSE
  5
4382
330
18
100
AcDbEntity
  8
INSULATION
100
AcDbEllipse
 10
485.5613642622955
 20
1259.086979723337
 30
0.0
 11
-0.0000000000046464
 21
6.202366433042596
 31
0.0
210
0.0
220
0.0
230
1.0
 40
0.983034484422891
 41
2.021579370036286
 42
3.50456130219466
  0
INSERT
  5
43D1
330
18
100
AcDbEntity
  8
V5
100
AcDbBlockReference
  2
Klipp L25 neu
 10
357.4299056910143
 20
712.1877571660705
 30
0.0
 50
90.0
  0
INSERT
  5
43D2
330
18
100
AcDbEntity
  8
V5
100
AcDbBlockReference
  2
Klipp L25 neu
 10
357.4299056910141
 20
407.1877571660707
 30
0.0
 50
90.0
  0
INSERT
  5
43D3
330
18
100
AcDbEntity
  8
V5
100
AcDbBlockReference
  2
Klipp L25 neu
 10
357.429905691014
 20
102.1877571660706
 30
0.0
 50
90.0
  0
LINE
  5
43F2
330
18
100
AcDbEntity
  8
TXT-D
 62
     1
100
AcDbLine
 10
188.7205773609372
 20
943.3307626296908
 30
0.0
 11
447.3865258091943
 21
943.3307626296903
 31
0.0
  0
LINE
  5
43F4
330
18
100
AcDbEntity
  8
TXT-D
 62
     1
100
AcDbLine
 10
258.4720729090533
 20
981.0618084769329
 30
0.0
 11
220.795522210523
 21
981.0618084769329
 31
0.0
  0
LINE
  5
43F6
330
18
100
AcDbEntity
  8
TXT-D
 62
     1
100
AcDbLine
 10
337.5471911084855
 20
788.7475353537015
 30
0.0
 11
82.09802103661521
 21
788.7475353537017
 31
0.0
  0
LINE
  5
43F7
330
18
100
AcDbEntity
  8
TXT-D
 62
     1
100
AcDbLine
 10
541.0709647650126
 20
891.7058672101788
 30
0.0
 11
154.0980210366149
 21
891.705867210179
 31
0.0
  0
TEXT
  5
43F9
330
18
100
AcDbEntity
  8
TXT-D
  6
VERDECKTX2
 62
     7
 48
5.0
100
AcDbText
 10
88.01119760906709
 20
1011.630568589476
 30
0.0
 40
14.0
  1
Kalzip
 50
90.0
  7
ROMANS
100
AcDbText
  0
TEXT
  5
43FC
330
18
100
AcDbEntity
  8
TXT-D
  6
VERDECKTX2
 62
     7
 48
5.0
100
AcDbText
 10
123.2318125480719
 20
1010.685498062427
 30
0.0
 40
14.0
  1
minerální tepelná izolace
 50
90.0
  7
ROMANS
100
AcDbText
  0
LINE
  5
43FD
330
18
100
AcDbEntity
  8
TXT-D
 62
     1
100
AcDbLine
 10
188.7205773609372
 20
1003.673307725754
 30
0.0
 11
188.7205773609372
 21
943.3307626296908
 31
0.0
  0
LINE
  5
43FE
330
18
100
AcDbEntity
  8
TXT-D
 62
     1
100
AcDbLine
 10
220.795522210523
 20
1002.927699719859
 30
0.0
 11
220.795522210523
 21
981.0618084769329
 31
0.0
  0
LINE
  5
4401
330
18
100
AcDbEntity
  8
TXT-D
 62
     1
100
AcDbLine
 10
154.098021036615
 20
1003.673307725754
 30
0.0
 11
154.0980210366149
 21
891.705867210179
 31
0.0
  0
LINE
  5
4402
330
18
100
AcDbEntity
  8
TXT-D
 62
     1
100
AcDbLine
 10
82.09802103661473
 20
1003.673307725754
 30
0.0
 11
82.09802103661521
 21
788.7475353537017
 31
0.0
  0
TEXT
  5
4403
330
18
100
AcDbEntity
  8
TXT-D
  6
VERDECKTX2
 62
     7
 48
5.0
100
AcDbText
 10
250.1327516345416
 20
1009.194282050636
 30
0.0
 40
14.0
  1
alternativa: Al klipsa
 50
90.0
  7
ROMANS
100
AcDbText
  0
TEXT
  5
4404
330
18
100
AcDbEntity
  8
TXT-D
  6
VERDECKTX2
 62
     7
 48
5.0
100
AcDbText
 10
197.1494674748205
 20
1008.708971872387
 30
0.0
 40
14.0
  1
OMEGA profil
 50
90.0
  7
ROMANS
100
AcDbText
  0
TEXT
  5
4406
330
18
100
AcDbEntity
  8
TXT-D
  6
VERDECKTX2
 62
     7
 48
5.0
100
AcDbText
 10
165.6019199485652
 20
1008.708971872387
 30
0.0
 40
14.0
  1
parotěsná vrstva
 50
90.0
  7
ROMANS
100
AcDbText
  0
TEXT
  5
4407
330
18
100
AcDbEntity
  8
TXT-D
  6
VERDECKTX2
 62
     7
 48
5.0
100
AcDbText
 10
228.0578904313547
 20
1009.722409771638
 30
0.0
 40
14.0
  1
poplastovaná klipsa*
 50
90.0
  7
ROMANS
100
AcDbText
  0
LINE
  5
4409
330
18
100
AcDbEntity
  8
TXT-D
 62
     1
100
AcDbLine
 10
129.526487531271
 20
179.8706016146661
 30
0.0
 11
129.5264875312712
 21
87.93244262382245
 31
0.0
  0
LINE
  5
440A
330
18
100
AcDbEntity
  8
TXT-D
 62
     1
100
AcDbLine
 10
261.7012477777781
 20
87.93244262382222
 30
0.0
 11
129.5264875312712
 21
87.93244262382245
 31
0.0
  0
TEXT
  5
440B
330
18
100
AcDbEntity
  8
TXT-D
  6
VERDECKTX2
 62
     7
 48
5.0
100
AcDbText
 10
173.8862280409921
 20
185.7250600942244
 30
0.0
 40
14.0
  1
OMEGA profile
 50
90.0
  7
ROMANS
100
AcDbText
  0
LINE
  5
440C
330
18
100
AcDbEntity
  8
TXT-D
 62
     1
100
AcDbLine
 10
276.2692690181237
 20
115.0682054135261
 30
0.0
 11
165.5264875312712
 21
115.0682054135263
 31
0.0
  0
TEXT
  5
440E
330
18
100
AcDbEntity
  8
TXT-D
  6
VERDECKTX2
 62
     7
 48
5.0
100
AcDbText
 10
135.8224099321028
 20
184.704707987075
 30
0.0
 40
14.0
  1
příchyt ve štítu
 50
90.0
  7
ROMANS
100
AcDbText
  0
LINE
  5
440F
330
18
100
AcDbEntity
  8
TXT-D
 62
     1
100
AcDbLine
 10
165.526487531271
 20
179.8706016146661
 30
0.0
 11
165.5264875312712
 21
115.0682054135263
 31
0.0
  0
TEXT
  5
4410
330
18
100
AcDbEntity
  8
TXT-D
  6
VERDECKTX2
 62
     7
 48
5.0
100
AcDbText
 10
209.8862280409921
 20
185.7250600942242
 30
0.0
 40
14.0
  1
hliníková klipsa
 50
90.0
  7
ROMANS
100
AcDbText
  0
LINE
  5
4411
330
18
100
AcDbEntity
  8
TXT-D
 62
     1
100
AcDbLine
 10
201.5264875312711
 20
179.8706016146659
 30
0.0
 11
201.526487531271
 21
142.20396820323
 31
0.0
  0
LINE
  5
4412
330
18
100
AcDbEntity
  8
TXT-D
 62
     1
100
AcDbLine
 10
323.7886376777775
 20
142.20396820323
 30
0.0
 11
201.526487531271
 21
142.20396820323
 31
0.0
  0
LINE
  5
4413
330
18
100
AcDbEntity
  8
TXT-D
 62
     1
100
AcDbLine
 10
353.9705628150966
 20
124.3218468035743
 30
0.0
 11
323.7886376777775
 21
142.20396820323
 31
0.0
  0
LINE
  5
4416
330
18
100
AcDbEntity
  8
TXT-D
 62
     1
 48
15.0
100
AcDbLine
 10
682.9276716736696
 20
567.3536629064805
 30
0.0
 11
565.5850495568618
 21
567.3536629064805
 31
0.0
  0
LWPOLYLINE
  5
4417
330
18
100
AcDbEntity
  8
V35
100
AcDbPolyline
 90
        2
 70
     1
 43
2.9
 10
565.5850495568618
 20
565.8036629064806
 42
1.0
 10
565.5850495568618
 20
568.9036629064806
 42
1.0
  0
LINE
  5
4419
330
18
100
AcDbEntity
  8
TXT-D
 62
     1
100
AcDbLine
 10
682.9276716736696
 20
520.9799841140388
 30
0.0
 11
682.9276716736696
 21
567.3536629064805
 31
0.0
  0
LWPOLYLINE
  5
4420
330
18
100
AcDbEntity
  8
V35
100
AcDbPolyline
 90
        2
 70
     1
 43
2.9
 10
494.3510085221437
 20
978.3155220452387
 42
1.0
 10
494.3510085221437
 20
981.4155220452388
 42
1.0
  0
LWPOLYLINE
  5
4421
330
18
100
AcDbEntity
  8
V35
100
AcDbPolyline
 90
        2
 70
     1
 43
2.9
 10
541.0709647650126
 20
890.1558672101788
 42
1.0
 10
541.0709647650126
 20
893.2558672101789
 42
1.0
  0
LWPOLYLINE
  5
4422
330
18
100
AcDbEntity
  8
V35
100
AcDbPolyline
 90
        2
 70
     1
 43
2.9
 10
338.3249237957794
 20
787.1975353537016
 42
1.0
 10
338.3249237957794
 20
790.2975353537015
 42
1.0
  0
LWPOLYLINE
  5
4423
330
18
100
AcDbEntity
  8
V35
100
AcDbPolyline
 90
        2
 70
     1
 43
2.9
 10
281.5506745107092
 20
1015.860156352534
 42
1.0
 10
281.5506745107092
 20
1018.960156352534
 42
1.0
  0
LINE
  5
4427
330
18
100
AcDbEntity
  8
TXT-D
 62
     1
100
AcDbLine
 10
840.822585999607
 20
507.6944147043695
 30
0.0
 11
840.822585999607
 21
661.8375587808905
 31
0.0
  0
LWPOLYLINE
  5
4429
330
18
100
AcDbEntity
  8
V35
100
AcDbPolyline
 90
        2
 70
     1
 43
2.9
 10
840.822585999607
 20
659.8449356649624
 42
1.0
 10
840.822585999607
 20
662.9449356649622
 42
1.0
  0
LWPOLYLINE
  5
442D
330
18
100
AcDbEntity
  8
V35
100
AcDbPolyline
 90
        2
 70
     1
 43
2.9
 10
261.7012524630655
 20
86.38244262382238
 42
1.0
 10
261.7012524630655
 20
89.4824426238223
 42
1.0
  0
LWPOLYLINE
  5
442E
330
18
100
AcDbEntity
  8
V35
100
AcDbPolyline
 90
        2
 70
     1
 43
2.9
 10
276.2692737034111
 20
113.5182054135263
 42
1.0
 10
276.2692737034111
 20
116.6182054135262
 42
1.0
  0
LWPOLYLINE
  5
442F
330
18
100
AcDbEntity
  8
V35
100
AcDbPolyline
 90
        2
 70
     1
 43
2.9
 10
353.9705628150966
 20
122.7718468035743
 42
1.0
 10
353.9705628150966
 20
125.8718468035743
 42
1.0
  0
HATCH
  5
446D
330
18
100
AcDbEntity
  8
V35
 62
     1
 48
15.0
100
AcDbHatch
 10
0.0
 20
0.0
 30
0.0
210
0.0
220
0.0
230
1.0
  2
ANSI31
 70
     0
 71
     0
 91
        3
 92
        7
 72
     1
 73
     1
 93
       23
 10
714.1493024560428
 20
1066.806451133953
 42
0.0
 10
714.1493024560428
 20
1081.263819834959
 42
0.0
 10
706.1493024560428
 20
1081.263819834959
 42
0.0
 10
706.1493024560428
 20
1019.365859405594
 42
0.0
 10
714.1493024560428
 20
1019.365859405594
 42
0.0
 10
714.1493024560428
 20
1037.806451133953
 42
-0.4142135623730951
 10
726.1493024560428
 20
1049.806451133953
 42
0.0
 10
763.1493024560428
 20
1049.806451133953
 42
0.0
 10
800.1493024560428
 20
1049.806451133953
 42
-0.4142135623730951
 10
812.1493024560429
 20
1037.806451133953
 42
0.0
 10
812.1493024560429
 20
992.3064511339537
 42
0.0
 10
820.1493024560425
 20
992.3064511339537
 42
0.0
 10
820.1493024560429
 20
1112.306451133953
 42
0.0
 10
814.6904559012204
 20
1112.306451133953
 42
0.0
 10
814.6904559012204
 20
1101.826908315178
 42
-1.0
 10
814.6904559012204
 20
1098.726908315178
 42
-1.0
 10
814.6904559012204
 20
1101.826908315178
 42
0.0
 10
814.6904559012204
 20
1112.306451133953
 42
0.0
 10
812.1493024560429
 20
1112.306451133953
 42
0.0
 10
812.1493024560429
 20
1066.806451133953
 42
-0.4142135623730951
 10
800.1493024560428
 20
1054.806451133954
 42
0.0
 10
763.1493024560428
 20
1054.806451133954
 42
0.0
 10
726.1493024560428
 20
1054.806451133954
 42
-0.4142135623730951
 97
        0
 92
       22
 72
     0
 73
     1
 93
        4
 10
714.1493024560428
 20
1112.306451133953
 10
706.1493024560428
 20
1112.306451133953
 10
706.1493024560428
 20
1081.263819834959
 10
714.1493024560428
 20
1081.263819834959
 97
        0
 92
       22
 72
     0
 73
     1
 93
        4
 10
714.1493024560428
 20
1019.365859405594
 10
706.1493024560428
 20
1019.365859405594
 10
706.1493024560428
 20
992.3064511339537
 10
714.1493024560428
 20
992.3064511339537
 97
        0
 75
     0
 76
     1
 52
89.99999999999998
 41
5.0
 77
     0
 78
     1
 53
134.9999999999999
 43
777.033475286094
 44
-127.5425035465425
 45
-11.22532015133644
 46
-11.22532015133643
 79
     0
 47
0.3913905199190849
 98
        3
 10
711.5412871301681
 20
1055.24530016259
 10
711.1497011616878
 20
1090.470449977931
 10
708.016994218456
 20
1002.407581405283
  0
LINE
  5
4476
330
18
100
AcDbEntity
  8
V5
 48
15.0
100
AcDbLine
 10
360.4299056910138
 20
62.9594363712647
 30
0.0
 11
368.4299056910138
 21
62.9594363712647
 31
0.0
  0
INSERT
  5
462B
330
18
100
AcDbEntity
  8
TXT-D
100
AcDbBlockReference
  2
wädä
 10
505.0773934522842
 20
764.9594363712644
 30
0.0
 41
0.9761596244422271
 42
0.9761596244422271
 43
0.9761596244422271
 50
90.0
  0
LWPOLYLINE
  5
462D
330
18
100
AcDbEntity
  8
V5
 48
15.0
100
AcDbPolyline
 90
        3
 70
     0
 43
2.0
 10
522.2584878910375
 20
1173.890778935312
 10
522.2584878910375
 20
988.3033582575569
 10
588.0744921845019
 20
988.3033582575569
  0
LINE
  5
4878
330
18
100
AcDbEntity
  8
TXT-D
 62
     1
100
AcDbLine
 10
118.098021036615
 20
1003.673307725754
 30
0.0
 11
118.0980210366154
 21
826.1987125496805
 31
0.0
  0
INSERT
  5
5249
330
18
100
AcDbEntity
  8
V35
  6
AUSGEZOGEN
 62
     6
 48
10.0
100
AcDbBlockReference
  2
e140
 10
476.3480205949118
 20
1017.172944797573
 30
0.0
 50
90.0
  0
INSERT
  5
524A
330
18
100
AcDbEntity
  8
INSULATION
  6
AUSGEZOGEN
 62
     6
 48
10.0
100
AcDbBlockReference
  2
DAEMM
 10
476.7063721333105
 20
1111.400100365748
 30
0.0
 41
13.70663284600272
 42
13.60845479272109
 43
13.70663284600272
 50
90.0
  0
INSERT
  5
524B
330
18
100
AcDbEntity
  8
INSULATION
  6
AUSGEZOGEN
 62
     6
 48
10.0
100
AcDbBlockReference
  2
DAEMM
 10
476.7063721333105
 20
1056.573568981737
 30
0.0
 41
13.70663284600272
 42
13.60845479272109
 43
13.70663284600272
 50
90.0
  0
LINE
  5
524D
330
18
100
AcDbEntity
  8
INSULATION
100
AcDbLine
 10
377.5021254568279
 20
1054.78751036676
 30
0.0
 11
433.0272659349885
 21
1033.547149082298
 31
0.0
  0
ELLIPSE
  5
524E
330
18
100
AcDbEntity
  8
INSULATION
100
AcDbEllipse
 10
367.8387337915423
 20
1029.160303289732
 30
0.0
 11
-0.0000000000009617
 21
27.41326569200578
 31
0.0
210
0.0
220
0.0
230
1.0
 40
0.9928371866099661
 41
-0.362968648605676
 42
3.504561302195398
  0
LINE
  5
524F
330
18
100
AcDbEntity
  8
INSULATION
  6
VERDECKT
 48
2.0
100
AcDbLine
 10
439.8260708825821
 20
1027.374244674755
 30
0.0
 11
377.5021254568279
 21
1003.533096212703
 31
0.0
  0
INSERT
  5
5251
330
18
100
AcDbEntity
  8
INSULATION
  6
AUSGEZOGEN
 62
     6
 48
10.0
100
AcDbBlockReference
  2
DAEMM
 10
476.7063721333105
 20
1166.226631749759
 30
0.0
 41
13.70663284600272
 42
13.60845479272109
 43
13.70663284600272
 50
90.0
  0
LWPOLYLINE
  5
5252
330
18
100
AcDbEntity
  8
V35
100
AcDbPolyline
 90
       26
 70
     0
 43
0.0
 10
293.0535137992098
 20
1012.246421996021
 42
-0.8518717637873251
 10
272.7405910682799
 20
1018.974284944926
 42
-0.3441842485073744
 10
276.3511496335597
 20
1022.321888296986
 10
276.7065537538938
 20
1022.351593686842
 42
0.3077507175483973
 10
280.1903860113976
 20
1025.196755660668
 42
-0.3559174951861054
 10
284.3674989921595
 20
1028.042578513006
 42
-0.2401758746392449
 10
292.7216034668938
 20
1022.837061918768
 42
0.2629884054316376
 10
295.2914297699429
 20
1021.38496138972
 10
327.0308141087232
 20
1021.38496138975
 42
0.2931365125316157
 10
327.9424898640094
 20
1021.979261358427
 10
328.0627503608534
 20
1022.243509579774
 42
-0.2939859278524366
 10
333.0686110704459
 20
1025.4652737841
 42
0.4142135623730951
 10
337.1686110704459
 20
1029.565273784101
 10
337.1686110704461
 20
1109.304955519823
 42
0.2446984432290329
 10
335.4202744594851
 20
1112.663478901408
 10
331.613675459485
 20
1115.328887901408
 42
-0.5205670505517518
 10
331.6136742013579
 20
1124.339560388587
 10
335.4202732013579
 20
1127.004970388587
 42
0.2446984432290355
 10
337.1686094445124
 20
1130.363492920506
 10
337.1686094445124
 20
1211.303492920506
 42
0.2446984432290357
 10
335.4202732013579
 20
1214.662015452425
 10
331.6136742013579
 20
1217.327425452424
 42
-0.5205670505517466
 10
331.6136754594851
 20
1226.338097939603
 10
335.4202744594851
 20
1229.003506939603
 42
0.2446984432290353
 10
337.1686110704459
 20
1232.362030321188
 10
337.1686110704459
 20
1256.384791702114
  0
TEXT
  5
5255
330
18
100
AcDbEntity
  8
TXT-D
  6
VERDECKTX2
 62
     7
 48
5.0
100
AcDbText
 10
274.1731262354194
 20
1102.890708386
 30
0.0
 40
14.0
  1
s termopodložkou
 50
90.0
  7
ROMANS
100
AcDbText
  0
LINE
  5
5256
330
18
100
AcDbEntity
  8
V25
 48
15.0
100
AcDbLine
 10
470.4299056910137
 20
62.95943637126447
 30
0.0
 11
699.1808365373238
 21
764.9594363712644
 31
0.0
  0
LWPOLYLINE
  5
525B
330
18
100
AcDbEntity
  8
0
100
AcDbPolyline
 90
        5
 70
     0
 43
0.0
 10
389.4272520231365
 20
656.9797426350024
 42
0.1325101122285585
 10
401.8298157912587
 20
653.6340658982332
 42
0.2243326451183195
 10
420.8798157912585
 20
662.6340658982333
 42
-0.4724409448818895
 10
458.9798157912588
 20
662.6340658982333
 42
0.1956602256982226
 10
475.3264760014266
 20
653.7826823077107
  0
INSERT
  5
5267
330
18
100
AcDbEntity
  8
TXT-D
100
AcDbBlockReference
  2
wädä
 10
420.2081362445417
 20
764.9594363712644
 30
0.0
 41
0.9761596244422271
 42
0.9761596244422271
 43
0.9761596244422271
 50
90.0
  0
LWPOLYLINE
  5
5268
330
18
100
AcDbEntity
  8
ISO10TES
100
AcDbPolyline
 90
        2
 70
     0
 43
0.0
 10
411.7741170893621
 20
756.5254172160832
 42
-0.3759165693794073
 10
419.0938928351502
 20
764.8855093647732
 42
-0.3759165693794073
  0
LINE
  5
5269
330
18
100
AcDbEntity
  8
ISO10TES
100
AcDbLine
 10
411.7741170893626
 20
756.5254189356749
 30
0.0
 11
403.3400979341815
 21
705.9213022849966
 31
0.0
  0
INSERT
  5
526D
330
18
100
AcDbEntity
  8
TXT-D
100
AcDbBlockReference
  2
wädä
 10
437.0761745549033
 20
764.9594363712644
 30
0.0
 41
0.9761596244422271
 42
0.9761596244422271
 43
0.9761596244422271
 50
90.0
  0
LWPOLYLINE
  5
526F
330
18
100
AcDbEntity
  8
ISO10TES
100
AcDbPolyline
 90
        2
 70
     0
 43
0.0
 10
453.9442128652657
 20
705.9213022849969
 10
445.5101937100847
 20
756.5254189356749
  0
LINE
  5
5270
330
18
100
AcDbEntity
  8
ISO10TES
100
AcDbLine
 10
445.5101937100847
 20
756.5254189356749
 30
0.0
 11
437.0761745549036
 21
705.9213022849969
 31
0.0
  0
ARC
  5
5272
330
18
100
AcDbEntity
  8
ISO10TES
100
AcDbCircle
 10
445.5101937100845
 20
705.9213022849969
 30
0.0
 40
8.434019155181067
100
AcDbArc
 50
180.0
 51
270.0
  0
ARC
  5
5273
330
18
100
AcDbEntity
  8
ISO10TES
100
AcDbCircle
 10
445.5101937100845
 20
705.9213022849969
 30
0.0
 40
8.434019155181067
100
AcDbArc
 50
270.0
 51
0.0
  0
LWPOLYLINE
  5
5274
330
18
100
AcDbEntity
  8
ISO10TES
100
AcDbPolyline
 90
        2
 70
     0
 43
0.0
 10
445.5101937100845
 20
756.5254172160835
 42
-0.4142135623730951
 10
453.9442128652656
 20
764.9594363712644
 42
-0.4142135623730951
  0
LINE
  5
5278
330
18
100
AcDbEntity
  8
ISO10TES
100
AcDbLine
 10
462.9072976763819
 20
756.5254189356749
 30
0.0
 11
454.4732785212006
 21
705.9213022849969
 31
0.0
  0
ARC
  5
527C
330
18
100
AcDbEntity
  8
ISO10TES
100
AcDbCircle
 10
454.4732785212006
 20
756.5254172160835
 30
0.0
 40
8.434019155180905
100
AcDbArc
 50
0.0
 51
90.0
  0
LINE
  5
527D
330
18
100
AcDbEntity
  8
V25
100
AcDbLine
 10
346.0656111333275
 20
731.619295572505
 30
0.0
 11
377.2714711933947
 21
731.6192955725052
 31
0.0
  0
LINE
  5
527F
330
18
100
AcDbEntity
  8
ISO10TES
100
AcDbLine
 10
394.906078779001
 20
756.5254189356749
 30
0.0
 11
386.4720596238198
 21
705.9213022849969
 31
0.0
  0
LINE
  5
5280
330
18
100
AcDbEntity
  8
ISO10TES
100
AcDbLine
 10
411.7741170893628
 20
756.5254189356749
 30
0.0
 11
403.3400979341815
 21
705.9213022849969
 31
0.0
  0
ARC
  5
5281
330
18
100
AcDbEntity
  8
ISO10TES
100
AcDbCircle
 10
394.9060787790009
 20
705.9213022849969
 30
0.0
 40
8.434019155181067
100
AcDbArc
 50
180.0
 51
270.0
  0
ARC
  5
5282
330
18
100
AcDbEntity
  8
ISO10TES
100
AcDbCircle
 10
394.9060787790009
 20
705.9213022849969
 30
0.0
 40
8.434019155181067
100
AcDbArc
 50
270.0
 51
0.0
  0
LWPOLYLINE
  5
5283
330
18
100
AcDbEntity
  8
ISO10TES
100
AcDbPolyline
 90
        2
 70
     0
 43
0.0
 10
394.9060787790008
 20
756.5254172160835
 42
-0.4142135623730951
 10
403.3400979341818
 20
764.9594363712644
 42
-0.4142135623730951
  0
ARC
  5
5284
330
18
100
AcDbEntity
  8
ISO10TES
100
AcDbCircle
 10
403.3400979341815
 20
756.5254172160835
 30
0.0
 40
8.434019155180905
100
AcDbArc
 50
0.0
 51
90.0
  0
LWPOLYLINE
  5
5285
330
18
100
AcDbEntity
  8
ISO10TES
100
AcDbPolyline
 90
        2
 70
     0
 43
0.0
 10
386.2961083337267
 20
705.9213022849969
 10
377.8620891785458
 20
756.5254189356749
  0
LINE
  5
5286
330
18
100
AcDbEntity
  8
ISO10TES
100
AcDbLine
 10
377.8620891785458
 20
756.5254189356749
 30
0.0
 11
369.4280700233646
 21
705.9213022849969
 31
0.0
  0
ARC
  5
5288
330
18
100
AcDbEntity
  8
ISO10TES
100
AcDbCircle
 10
377.8620891785457
 20
705.9213022849969
 30
0.0
 40
8.434019155181067
100
AcDbArc
 50
180.0
 51
270.0
  0
ARC
  5
5289
330
18
100
AcDbEntity
  8
ISO10TES
100
AcDbCircle
 10
377.8620891785457
 20
705.9213022849969
 30
0.0
 40
8.434019155181067
100
AcDbArc
 50
270.0
 51
0.0
  0
LWPOLYLINE
  5
528A
330
18
100
AcDbEntity
  8
ISO10TES
100
AcDbPolyline
 90
        2
 70
     0
 43
0.0
 10
377.8620891785455
 20
756.5254172160835
 42
-0.4142135623730951
 10
386.2961083337266
 20
764.9594363712644
 42
-0.4142135623730951
  0
ARC
  5
528B
330
18
100
AcDbEntity
  8
ISO10TES
100
AcDbCircle
 10
386.2961083337264
 20
756.5254172160835
 30
0.0
 40
8.434019155180905
100
AcDbArc
 50
0.0
 51
90.0
  0
LINE
  5
528C
330
18
100
AcDbEntity
  8
ISO10TES
100
AcDbLine
 10
403.3400979341819
 20
705.9213022849969
 30
0.0
 11
394.906078779001
 21
756.5254189356749
 31
0.0
  0
LINE
  5
5290
330
18
100
AcDbEntity
  8
V25
100
AcDbLine
 10
503.8336742059503
 20
1006.821965318399
 30
0.0
 11
533.3912364354981
 21
1006.821965318399
 31
0.0
  0
LWPOLYLINE
  5
5292
330
18
100
AcDbEntity
  8
V25
 48
15.0
100
AcDbPolyline
 90
       12
 70
     0
 43
0.0
 10
511.7962345222034
 20
772.9594363712647
 10
521.7323567078259
 20
761.663919105649
 10
530.1630069708484
 20
756.5417379805073
 10
541.3035057574928
 20
745.3934415933488
 10
548.8308700557821
 20
744.188223471943
 10
564.7888799318056
 20
737.5595073675501
 10
574.1228114742729
 20
737.5595073675501
 10
584.0589336598953
 20
737.5595073675501
 10
596.1027137259856
 20
746.5986597147546
 10
605.73774059003
 20
755.0352112195866
 10
607.5443078342081
 20
764.375672206306
 10
613.5662002098964
 20
782.9594363712645
  0
LWPOLYLINE
  5
5294
330
18
100
AcDbEntity
  8
ISO10TES
100
AcDbPolyline
 90
        2
 70
     0
 43
0.0
 10
521.945431762646
 20
705.9213022849969
 10
513.511412607465
 20
756.5254189356749
  0
LINE
  5
5295
330
18
100
AcDbEntity
  8
ISO10TES
100
AcDbLine
 10
513.511412607465
 20
756.5254189356749
 30
0.0
 11
505.0773934522839
 21
705.9213022849969
 31
0.0
  0
LINE
  5
5296
330
18
100
AcDbEntity
  8
ISO10TES
100
AcDbLine
 10
530.3794509178269
 20
756.5254189356749
 30
0.0
 11
521.9454317626457
 21
705.9213022849969
 31
0.0
  0
ARC
  5
5297
330
18
100
AcDbEntity
  8
ISO10TES
100
AcDbCircle
 10
513.5114126074649
 20
705.9213022849969
 30
0.0
 40
8.434019155181067
100
AcDbArc
 50
180.0
 51
270.0
  0
ARC
  5
5298
330
18
100
AcDbEntity
  8
ISO10TES
100
AcDbCircle
 10
513.5114126074649
 20
705.9213022849969
 30
0.0
 40
8.434019155181067
100
AcDbArc
 50
270.0
 51
0.0
  0
LWPOLYLINE
  5
5299
330
18
100
AcDbEntity
  8
ISO10TES
100
AcDbPolyline
 90
        2
 70
     0
 43
0.0
 10
513.5114126074649
 20
756.5254172160835
 42
-0.3211132921270099
 10
519.2288384861175
 20
764.5099522732976
 42
-0.3211132921270099
  0
LWPOLYLINE
  5
529B
330
18
100
AcDbEntity
  8
ISO10TES
100
AcDbPolyline
 90
        2
 70
     0
 43
0.0
 10
538.8134700730082
 20
705.9213022849969
 10
530.3794509178272
 20
756.5254189356749
  0
LINE
  5
529C
330
18
100
AcDbEntity
  8
ISO10TES
100
AcDbLine
 10
530.3794509178272
 20
756.5254189356749
 30
0.0
 11
521.945431762646
 21
705.9213022849969
 31
0.0
  0
LINE
  5
529D
330
18
100
AcDbEntity
  8
ISO10TES
100
AcDbLine
 10
545.285888803651
 20
744.7558159885006
 30
0.0
 11
538.8134700730079
 21
705.9213022849969
 31
0.0
  0
ARC
  5
529E
330
18
100
AcDbEntity
  8
ISO10TES
100
AcDbCircle
 10
530.379450917827
 20
705.9213022849969
 30
0.0
 40
8.434019155181067
100
AcDbArc
 50
180.0
 51
270.0
  0
ARC
  5
529F
330
18
100
AcDbEntity
  8
ISO10TES
100
AcDbCircle
 10
530.379450917827
 20
705.9213022849969
 30
0.0
 40
8.434019155181067
100
AcDbArc
 50
270.0
 51
0.0
  0
LWPOLYLINE
  5
52A2
330
18
100
AcDbEntity
  8
ISO10TES
100
AcDbPolyline
 90
        2
 70
     0
 43
0.0
 10
555.68150838337
 20
705.9213022849969
 10
549.3388567323176
 20
743.9772134844993
  0
LINE
  5
52A3
330
18
100
AcDbEntity
  8
ISO10TES
100
AcDbLine
 10
545.2858888036509
 20
744.7558159885006
 30
0.0
 11
538.8134700730078
 21
705.9213022849969
 31
0.0
  0
LINE
  5
52A4
330
18
100
AcDbEntity
  8
ISO10TES
100
AcDbLine
 10
561.2028089875732
 20
739.0491070359425
 30
0.0
 11
555.6815083833696
 21
705.9213022849969
 31
0.0
  0
ARC
  5
52A5
330
18
100
AcDbEntity
  8
ISO10TES
100
AcDbCircle
 10
547.2474892281887
 20
705.9213022849969
 30
0.0
 40
8.434019155181067
100
AcDbArc
 50
180.0
 51
270.0
  0
ARC
  5
52A6
330
18
100
AcDbEntity
  8
ISO10TES
100
AcDbCircle
 10
547.2474892281887
 20
705.9213022849969
 30
0.0
 40
8.434019155181067
100
AcDbArc
 50
270.0
 51
0.0
  0
LWPOLYLINE
  5
52A9
330
18
100
AcDbEntity
  8
ISO10TES
100
AcDbPolyline
 90
        2
 70
     0
 43
0.0
 10
589.4175850040938
 20
705.9213022849969
 10
584.1350320515934
 20
737.6166210770468
  0
LINE
  5
52AA
330
18
100
AcDbEntity
  8
ISO10TES
100
AcDbLine
 10
577.822580694973
 20
737.5595073675501
 30
0.0
 11
572.5495466937316
 21
705.9213022849969
 31
0.0
  0
LINE
  5
52AB
330
18
100
AcDbEntity
  8
ISO10TES
100
AcDbLine
 10
596.2132798630266
 20
746.6954728241521
 30
0.0
 11
589.4175850040936
 21
705.9213022849969
 31
0.0
  0
ARC
  5
52AC
330
18
100
AcDbEntity
  8
ISO10TES
100
AcDbCircle
 10
580.9835658489126
 20
705.9213022849969
 30
0.0
 40
8.434019155181067
100
AcDbArc
 50
180.0
 51
270.0
  0
ARC
  5
52AD
330
18
100
AcDbEntity
  8
ISO10TES
100
AcDbCircle
 10
580.9835658489126
 20
705.9213022849969
 30
0.0
 40
8.434019155181067
100
AcDbArc
 50
270.0
 51
0.0
  0
LWPOLYLINE
  5
52B0
330
18
100
AcDbEntity
  8
ISO10TES
100
AcDbPolyline
 90
        2
 70
     0
 43
0.0
 10
572.5495466937322
 20
705.9213022849969
 10
567.2765126924909
 20
737.5595073675501
  0
LINE
  5
52B1
330
18
100
AcDbEntity
  8
ISO10TES
100
AcDbLine
 10
561.2028089875735
 20
739.0491070359423
 30
0.0
 11
555.68150838337
 21
705.9213022849969
 31
0.0
  0
LINE
  5
52B2
330
18
100
AcDbEntity
  8
ISO10TES
100
AcDbLine
 10
577.822580694973
 20
737.5595073675501
 30
0.0
 11
572.5495466937318
 21
705.9213022849969
 31
0.0
  0
ARC
  5
52B3
330
18
100
AcDbEntity
  8
ISO10TES
100
AcDbCircle
 10
564.1155275385509
 20
705.9213022849969
 30
0.0
 40
8.434019155181067
100
AcDbArc
 50
180.0
 51
270.0
  0
ARC
  5
52B4
330
18
100
AcDbEntity
  8
ISO10TES
100
AcDbCircle
 10
564.1155275385509
 20
705.9213022849969
 30
0.0
 40
8.434019155181067
100
AcDbArc
 50
270.0
 51
0.0
  0
LWPOLYLINE
  5
52B7
330
18
100
AcDbEntity
  8
ISO10TES
100
AcDbPolyline
 90
        2
 70
     0
 43
0.0
 10
606.285623314456
 20
705.9213022849969
 10
599.0726456550341
 20
749.1991697121648
  0
LINE
  5
52B8
330
18
100
AcDbEntity
  8
ISO10TES
100
AcDbLine
 10
596.2132798630269
 20
746.6954728241524
 30
0.0
 11
589.4175850040938
 21
705.9213022849969
 31
0.0
  0
LINE
  5
52B9
330
18
100
AcDbEntity
  8
ISO10TES
100
AcDbLine
 10
614.7196424696369
 20
756.5254189356749
 30
0.0
 11
606.2856233144557
 21
705.9213022849969
 31
0.0
  0
ARC
  5
52BA
330
18
100
AcDbEntity
  8
ISO10TES
100
AcDbCircle
 10
597.8516041592748
 20
705.9213022849969
 30
0.0
 40
8.434019155181067
100
AcDbArc
 50
180.0
 51
270.0
  0
ARC
  5
52BB
330
18
100
AcDbEntity
  8
ISO10TES
100
AcDbCircle
 10
597.8516041592748
 20
705.9213022849969
 30
0.0
 40
8.434019155181067
100
AcDbArc
 50
270.0
 51
0.0
  0
ARC
  5
52BD
330
18
100
AcDbEntity
  8
ISO10TES
100
AcDbCircle
 10
606.2856233144556
 20
756.5254172160835
 30
0.0
 40
8.434019155180905
100
AcDbArc
 50
0.0
 51
80.38011329502813
  0
LINE
  5
52BE
330
18
100
AcDbEntity
  8
V25
 48
5.0
100
AcDbLine
 10
829.1808365373238
 20
775.2404951603909
 30
0.0
 11
826.8992975122102
 21
772.9589561352775
 31
0.0
  0
LINE
  5
52BF
330
18
100
AcDbEntity
  8
V25
 48
5.0
100
AcDbLine
 10
829.1808365373238
 20
780.8531552360589
 30
0.0
 11
821.2854557917008
 21
772.9577744904361
 31
0.0
  0
LINE
  5
52C0
330
18
100
AcDbEntity
  8
V25
 48
5.0
100
AcDbLine
 10
825.6744575968607
 20
782.9594363712642
 30
0.0
 11
815.671614071191
 21
772.9565928455947
 31
0.0
  0
LINE
  5
52C1
330
18
100
AcDbEntity
  8
V25
 48
5.0
100
AcDbLine
 10
820.0617975211924
 20
782.9594363712642
 30
0.0
 11
810.0577723506814
 21
772.9554112007534
 31
0.0
  0
LINE
  5
52C2
330
18
100
AcDbEntity
  8
V25
 48
5.0
100
AcDbLine
 10
814.4491374455244
 20
782.9594363712642
 30
0.0
 11
804.4439306301718
 21
772.9542295559117
 31
0.0
  0
LINE
  5
52C3
330
18
100
AcDbEntity
  8
V25
 48
5.0
100
AcDbLine
 10
808.8364773698561
 20
782.9594363712642
 30
0.0
 11
798.8300889096621
 21
772.9530479110703
 31
0.0
  0
LINE
  5
52C4
330
18
100
AcDbEntity
  8
V25
 48
5.0
100
AcDbLine
 10
803.2238172941879
 20
782.9594363712642
 30
0.0
 11
793.2162471891525
 21
772.9518662662292
 31
0.0
  0
LINE
  5
52C5
330
18
100
AcDbEntity
  8
V25
 48
5.0
100
AcDbLine
 10
797.6111572185197
 20
782.9594363712642
 30
0.0
 11
787.6024054686429
 21
772.9506846213873
 31
0.0
  0
LINE
  5
52C6
330
18
100
AcDbEntity
  8
V25
 48
5.0
100
AcDbLine
 10
791.9984971428513
 20
782.9594363712642
 30
0.0
 11
781.9885637481332
 21
772.9495029765462
 31
0.0
  0
LINE
  5
52C7
330
18
100
AcDbEntity
  8
V25
 48
5.0
100
AcDbLine
 10
786.3858370671831
 20
782.9594363712642
 30
0.0
 11
776.3747220276237
 21
772.9483213317051
 31
0.0
  0
LINE
  5
52C8
330
18
100
AcDbEntity
  8
V25
 48
5.0
100
AcDbLine
 10
780.773176991515
 20
782.9594363712642
 30
0.0
 11
770.7608803071141
 21
772.9471396868632
 31
0.0
  0
LINE
  5
52C9
330
18
100
AcDbEntity
  8
V25
 48
5.0
100
AcDbLine
 10
775.1605169158469
 20
782.9594363712642
 30
0.0
 11
765.1470385866046
 21
772.9459580420218
 31
0.0
  0
LINE
  5
52CA
330
18
100
AcDbEntity
  8
V25
 48
5.0
100
AcDbLine
 10
769.5478568401784
 20
782.9594363712642
 30
0.0
 11
759.5331968660948
 21
772.9447763971807
 31
0.0
  0
LINE
  5
52CB
330
18
100
AcDbEntity
  8
V25
 48
5.0
100
AcDbLine
 10
763.9351967645104
 20
782.9594363712642
 30
0.0
 11
753.9193551455853
 21
772.943594752339
 31
0.0
  0
LINE
  5
52CC
330
18
100
AcDbEntity
  8
V25
 48
5.0
100
AcDbLine
 10
758.3225366888422
 20
782.9594363712642
 30
0.0
 11
748.3055134250756
 21
772.9424131074977
 31
0.0
  0
LINE
  5
52CD
330
18
100
AcDbEntity
  8
V25
 48
5.0
100
AcDbLine
 10
752.7098766131738
 20
782.9594363712642
 30
0.0
 11
742.691671704566
 21
772.9412314626563
 31
0.0
  0
LINE
  5
52CE
330
18
100
AcDbEntity
  8
V25
 48
5.0
100
AcDbLine
 10
747.0972165375057
 20
782.9594363712642
 30
0.0
 11
737.0778299840564
 21
772.9400498178149
 31
0.0
  0
LINE
  5
52CF
330
18
100
AcDbEntity
  8
V25
 48
5.0
100
AcDbLine
 10
741.4845564618375
 20
782.9594363712642
 30
0.0
 11
731.4639882635468
 21
772.9388681729735
 31
0.0
  0
LINE
  5
52D0
330
18
100
AcDbEntity
  8
V25
 48
5.0
100
AcDbLine
 10
735.8718963861691
 20
782.9594363712642
 30
0.0
 11
725.8501465430372
 21
772.9376865281324
 31
0.0
  0
LINE
  5
52D1
330
18
100
AcDbEntity
  8
V25
 48
5.0
100
AcDbLine
 10
730.259236310501
 20
782.9594363712642
 30
0.0
 11
720.2363048225276
 21
772.9365048832907
 31
0.0
  0
LINE
  5
52D2
330
18
100
AcDbEntity
  8
V25
 48
5.0
100
AcDbLine
 10
724.6465762348328
 20
782.9594363712642
 30
0.0
 11
714.6224631020181
 21
772.9353232384494
 31
0.0
  0
LINE
  5
52D3
330
18
100
AcDbEntity
  8
V25
 48
5.0
100
AcDbLine
 10
719.0339161591643
 20
782.9594363712642
 30
0.0
 11
709.0086213815083
 21
772.934141593608
 31
0.0
  0
LINE
  5
52D4
330
18
100
AcDbEntity
  8
V25
 48
5.0
100
AcDbLine
 10
713.4212560834964
 20
782.9594363712642
 30
0.0
 11
703.3947796609988
 21
772.9329599487666
 31
0.0
  0
LINE
  5
52D5
330
18
100
AcDbEntity
  8
V25
 48
5.0
100
AcDbLine
 10
707.8085960078283
 20
782.9594363712642
 30
0.0
 11
697.7809379404891
 21
772.9317783039252
 31
0.0
  0
LINE
  5
52D6
330
18
100
AcDbEntity
  8
V25
 48
5.0
100
AcDbLine
 10
702.19593593216
 20
782.9594363712646
 30
0.0
 11
692.1670962199794
 21
772.9305966590839
 31
0.0
  0
LINE
  5
52D7
330
18
100
AcDbEntity
  8
V25
 48
5.0
100
AcDbLine
 10
696.5832758564918
 20
782.9594363712642
 30
0.0
 11
686.5532544994699
 21
772.9294150142425
 31
0.0
  0
LINE
  5
52D8
330
18
100
AcDbEntity
  8
V25
 48
5.0
100
AcDbLine
 10
690.9706157808236
 20
782.9594363712642
 30
0.0
 11
680.9394127789602
 21
772.9282333694011
 31
0.0
  0
LINE
  5
52D9
330
18
100
AcDbEntity
  8
V25
 48
5.0
100
AcDbLine
 10
685.3579557051554
 20
782.9594363712646
 30
0.0
 11
675.3255710584507
 21
772.9270517245597
 31
0.0
  0
LINE
  5
52DA
330
18
100
AcDbEntity
  8
V25
 48
5.0
100
AcDbLine
 10
679.7452956294871
 20
782.9594363712642
 30
0.0
 11
669.7117293379409
 21
772.9258700797181
 31
0.0
  0
LINE
  5
52DB
330
18
100
AcDbEntity
  8
V25
 48
5.0
100
AcDbLine
 10
674.1326355538189
 20
782.9594363712642
 30
0.0
 11
664.0978876174313
 21
772.9246884348768
 31
0.0
  0
LINE
  5
52DC
330
18
100
AcDbEntity
  8
V25
 48
5.0
100
AcDbLine
 10
668.5199754781506
 20
782.9594363712645
 30
0.0
 11
658.4840458969217
 21
772.9235067900356
 31
0.0
  0
LINE
  5
52DD
330
18
100
AcDbEntity
  8
V25
 48
5.0
100
AcDbLine
 10
662.9073154024824
 20
782.9594363712642
 30
0.0
 11
652.870204176412
 21
772.9223251451937
 31
0.0
  0
LINE
  5
52DE
330
18
100
AcDbEntity
  8
V25
 48
5.0
100
AcDbLine
 10
657.2946553268142
 20
782.9594363712645
 30
0.0
 11
647.2563624559025
 21
772.9211435003526
 31
0.0
  0
LINE
  5
52DF
330
18
100
AcDbEntity
  8
V25
 48
5.0
100
AcDbLine
 10
651.681995251146
 20
782.9594363712645
 30
0.0
 11
641.6425207353928
 21
772.9199618555112
 31
0.0
  0
LINE
  5
52E0
330
18
100
AcDbEntity
  8
V25
 48
5.0
100
AcDbLine
 10
646.0693351754778
 20
782.9594363712642
 30
0.0
 11
636.0286790148832
 21
772.9187802106696
 31
0.0
  0
LINE
  5
52E1
330
18
100
AcDbEntity
  8
V25
 48
5.0
100
AcDbLine
 10
640.4566750998095
 20
782.9594363712645
 30
0.0
 11
630.4148372943735
 21
772.9175985658282
 31
0.0
  0
LINE
  5
52E2
330
18
100
AcDbEntity
  8
V25
 48
5.0
100
AcDbLine
 10
634.8440150241414
 20
782.9594363712645
 30
0.0
 11
624.8009955738641
 21
772.9164169209873
 31
0.0
  0
LINE
  5
52E3
330
18
100
AcDbEntity
  8
V25
 48
5.0
100
AcDbLine
 10
629.2313549484731
 20
782.9594363712642
 30
0.0
 11
619.1871538533545
 21
772.9152352761457
 31
0.0
  0
LINE
  5
52E4
330
18
100
AcDbEntity
  8
V25
 48
5.0
100
AcDbLine
 10
623.6186948728049
 20
782.9594363712645
 30
0.0
 11
613.5733121328448
 21
772.9140536313043
 31
0.0
  0
LINE
  5
52E5
330
18
100
AcDbEntity
  8
V25
 48
5.0
100
AcDbLine
 10
618.0060347971367
 20
782.9594363712645
 30
0.0
 11
611.4378385693121
 21
776.3912401434399
 31
0.0
  0
LINE
  5
52F5
330
18
100
AcDbEntity
  8
V25
 48
5.0
100
AcDbLine
 10
827.1033416113041
 20
782.9594363712642
 30
0.0
 11
829.1808365373238
 21
780.8819414452443
 31
0.0
  0
LINE
  5
52F6
330
18
100
AcDbEntity
  8
V25
 48
5.0
100
AcDbLine
 10
821.4906815356359
 20
782.9594363712642
 30
0.0
 11
829.1808365373238
 21
775.2692813695764
 31
0.0
  0
LINE
  5
52F7
330
18
100
AcDbEntity
  8
V25
 48
5.0
100
AcDbLine
 10
815.8780214599676
 20
782.9594363712642
 30
0.0
 11
825.8787165157393
 21
772.9587413154927
 31
0.0
  0
LINE
  5
52F8
330
18
100
AcDbEntity
  8
V25
 48
5.0
100
AcDbLine
 10
810.2653613842996
 20
782.9594363712642
 30
0.0
 11
820.2672375875737
 21
772.9575601679901
 31
0.0
  0
LINE
  5
52F9
330
18
100
AcDbEntity
  8
V25
 48
5.0
100
AcDbLine
 10
804.6527013086313
 20
782.9594363712642
 30
0.0
 11
814.6557586594081
 21
772.9563790204877
 31
0.0
  0
LINE
  5
52FA
330
18
100
AcDbEntity
  8
V25
 48
5.0
100
AcDbLine
 10
799.0400412329631
 20
782.9594363712642
 30
0.0
 11
809.0442797312423
 21
772.9551978729849
 31
0.0
  0
LINE
  5
52FB
330
18
100
AcDbEntity
  8
V25
 48
5.0
100
AcDbLine
 10
793.4273811572949
 20
782.9594363712642
 30
0.0
 11
803.4328008030767
 21
772.9540167254825
 31
0.0
  0
LINE
  5
52FC
330
18
100
AcDbEntity
  8
V25
 48
5.0
100
AcDbLine
 10
787.8147210816266
 20
782.9594363712642
 30
0.0
 11
797.8213218749112
 21
772.9528355779796
 31
0.0
  0
LINE
  5
52FD
330
18
100
AcDbEntity
  8
V25
 48
5.0
100
AcDbLine
 10
782.2020610059584
 20
782.9594363712642
 30
0.0
 11
792.2098429467454
 21
772.9516544304772
 31
0.0
  0
LINE
  5
52FE
330
18
100
AcDbEntity
  8
V25
 48
5.0
100
AcDbLine
 10
776.5894009302902
 20
782.9594363712642
 30
0.0
 11
786.59836401858
 21
772.9504732829743
 31
0.0
  0
LINE
  5
52FF
330
18
100
AcDbEntity
  8
V25
 48
5.0
100
AcDbLine
 10
770.976740854622
 20
782.9594363712642
 30
0.0
 11
780.9868850904141
 21
772.9492921354721
 31
0.0
  0
LINE
  5
5300
330
18
100
AcDbEntity
  8
V25
 48
5.0
100
AcDbLine
 10
765.3640807789537
 20
782.9594363712642
 30
0.0
 11
775.3754061622486
 21
772.9481109879696
 31
0.0
  0
LINE
  5
5301
330
18
100
AcDbEntity
  8
V25
 48
5.0
100
AcDbLine
 10
759.7514207032855
 20
782.9594363712642
 30
0.0
 11
769.763927234083
 21
772.9469298404667
 31
0.0
  0
LINE
  5
5302
330
18
100
AcDbEntity
  8
V25
 48
5.0
100
AcDbLine
 10
754.1387606276172
 20
782.9594363712642
 30
0.0
 11
764.1524483059172
 21
772.9457486929643
 31
0.0
  0
LINE
  5
5303
330
18
100
AcDbEntity
  8
V25
 48
5.0
100
AcDbLine
 10
748.5261005519491
 20
782.9594363712642
 30
0.0
 11
758.5409693777518
 21
772.9445675454615
 31
0.0
  0
LINE
  5
5304
330
18
100
AcDbEntity
  8
V25
 48
5.0
100
AcDbLine
 10
742.9134404762808
 20
782.9594363712642
 30
0.0
 11
752.9294904495859
 21
772.9433863979591
 31
0.0
  0
LINE
  5
5305
330
18
100
AcDbEntity
  8
V25
 48
5.0
100
AcDbLine
 10
737.3007804006125
 20
782.9594363712642
 30
0.0
 11
747.3180115214204
 21
772.9422052504564
 31
0.0
  0
LINE
  5
5306
330
18
100
AcDbEntity
  8
V25
 48
5.0
100
AcDbLine
 10
731.6881203249444
 20
782.9594363712642
 30
0.0
 11
741.7065325932546
 21
772.9410241029539
 31
0.0
  0
LINE
  5
5307
330
18
100
AcDbEntity
  8
V25
 48
5.0
100
AcDbLine
 10
726.0754602492761
 20
782.9594363712642
 30
0.0
 11
736.0950536650891
 21
772.9398429554515
 31
0.0
  0
LINE
  5
5308
330
18
100
AcDbEntity
  8
V25
 48
5.0
100
AcDbLine
 10
720.4628001736079
 20
782.9594363712642
 30
0.0
 11
730.4835747369233
 21
772.9386618079488
 31
0.0
  0
LINE
  5
5309
330
18
100
AcDbEntity
  8
V25
 48
5.0
100
AcDbLine
 10
714.8501400979398
 20
782.9594363712642
 30
0.0
 11
724.872095808758
 21
772.9374806604462
 31
0.0
  0
LINE
  5
530A
330
18
100
AcDbEntity
  8
V25
 48
5.0
100
AcDbLine
 10
709.2374800222716
 20
782.9594363712642
 30
0.0
 11
719.2606168805921
 21
772.9362995129438
 31
0.0
  0
LINE
  5
530B
330
18
100
AcDbEntity
  8
V25
 48
5.0
100
AcDbLine
 10
703.624819946603
 20
782.9594363712642
 30
0.0
 11
713.6491379524265
 21
772.935118365441
 31
0.0
  0
LINE
  5
530C
330
18
100
AcDbEntity
  8
V25
 48
5.0
100
AcDbLine
 10
698.0121598709348
 20
782.9594363712646
 30
0.0
 11
708.0376590242608
 21
772.9339372179386
 31
0.0
  0
LINE
  5
530D
330
18
100
AcDbEntity
  8
V25
 48
5.0
100
AcDbLine
 10
692.3994997952668
 20
782.9594363712645
 30
0.0
 11
702.4261800960953
 21
772.9327560704359
 31
0.0
  0
LINE
  5
530E
330
18
100
AcDbEntity
  8
V25
 48
5.0
100
AcDbLine
 10
686.7868397195985
 20
782.9594363712645
 30
0.0
 11
696.8147011679298
 21
772.9315749229331
 31
0.0
  0
LINE
  5
530F
330
18
100
AcDbEntity
  8
V25
 48
5.0
100
AcDbLine
 10
681.1741796439303
 20
782.9594363712646
 30
0.0
 11
691.2032222397639
 21
772.9303937754309
 31
0.0
  0
LINE
  5
5310
330
18
100
AcDbEntity
  8
V25
 48
5.0
100
AcDbLine
 10
675.5615195682621
 20
782.9594363712645
 30
0.0
 11
685.5917433115985
 21
772.9292126279281
 31
0.0
  0
LINE
  5
5311
330
18
100
AcDbEntity
  8
V25
 48
5.0
100
AcDbLine
 10
669.9488594925939
 20
782.9594363712645
 30
0.0
 11
679.9802643834326
 21
772.9280314804257
 31
0.0
  0
LINE
  5
5312
330
18
100
AcDbEntity
  8
V25
 48
5.0
100
AcDbLine
 10
664.3361994169256
 20
782.9594363712646
 30
0.0
 11
674.3687854552672
 21
772.9268503329229
 31
0.0
  0
LINE
  5
5313
330
18
100
AcDbEntity
  8
V25
 48
5.0
100
AcDbLine
 10
658.7235393412575
 20
782.9594363712645
 30
0.0
 11
668.7573065271016
 21
772.9256691854204
 31
0.0
  0
LINE
  5
5314
330
18
100
AcDbEntity
  8
V25
 48
5.0
100
AcDbLine
 10
653.1108792655892
 20
782.9594363712645
 30
0.0
 11
663.1458275989358
 21
772.9244880379176
 31
0.0
  0
LINE
  5
5315
330
18
100
AcDbEntity
  8
V25
 48
5.0
100
AcDbLine
 10
647.498219189921
 20
782.9594363712646
 30
0.0
 11
657.5343486707701
 21
772.9233068904152
 31
0.0
  0
LINE
  5
5316
330
18
100
AcDbEntity
  8
V25
 48
5.0
100
AcDbLine
 10
641.8855591142528
 20
782.9594363712645
 30
0.0
 11
651.9228697426046
 21
772.9221257429125
 31
0.0
  0
LINE
  5
5317
330
18
100
AcDbEntity
  8
V25
 48
5.0
100
AcDbLine
 10
636.2728990385845
 20
782.9594363712645
 30
0.0
 11
646.3113908144389
 21
772.92094459541
 31
0.0
  0
LINE
  5
5318
330
18
100
AcDbEntity
  8
V25
 48
5.0
100
AcDbLine
 10
630.6602389629164
 20
782.9594363712642
 30
0.0
 11
640.6999118862734
 21
772.9197634479076
 31
0.0
  0
LINE
  5
5319
330
18
100
AcDbEntity
  8
V25
 48
5.0
100
AcDbLine
 10
625.0475788872481
 20
782.9594363712645
 30
0.0
 11
635.0884329581076
 21
772.9185823004049
 31
0.0
  0
LINE
  5
531A
330
18
100
AcDbEntity
  8
V25
 48
5.0
100
AcDbLine
 10
619.4349188115799
 20
782.9594363712645
 30
0.0
 11
629.4769540299419
 21
772.9174011529023
 31
0.0
  0
LINE
  5
531B
330
18
100
AcDbEntity
  8
V25
 48
5.0
100
AcDbLine
 10
613.8222587359117
 20
782.9594363712642
 30
0.0
 11
623.8654751017763
 21
772.9162200053997
 31
0.0
  0
LINE
  5
531C
330
18
100
AcDbEntity
  8
V25
 48
5.0
100
AcDbLine
 10
612.255246446961
 20
778.9137885845469
 30
0.0
 11
618.2539961736107
 21
772.9150388578971
 31
0.0
  0
LINE
  5
531D
330
18
100
AcDbEntity
  8
V25
 48
5.0
100
AcDbLine
 10
610.881625919455
 20
774.6747490363848
 30
0.0
 11
612.642517245445
 21
772.9138577103947
 31
0.0
  0
LINE
  5
532C
330
18
100
AcDbEntity
  8
V5
100
AcDbLine
 10
511.7962345222035
 20
772.9594363712644
 30
0.0
 11
360.4299056910144
 21
772.9594363712647
 31
0.0
  0
LINE
  5
532D
330
18
100
AcDbEntity
  8
V5
100
AcDbLine
 10
518.8334489866484
 20
764.9594363712647
 30
0.0
 11
368.4299056910144
 21
764.9594363712649
 31
0.0
  0
LINE
  5
532F
330
18
100
AcDbEntity
  8
V25
 48
15.0
100
AcDbLine
 10
900.5063439737282
 20
984.1469542039265
 30
0.0
 11
545.1867939281932
 21
984.1469542039265
 31
0.0
  0
LINE
  5
5330
330
18
100
AcDbEntity
  8
V25
 48
15.0
100
AcDbLine
 10
545.1867939281932
 20
984.1469542039265
 30
0.0
 11
545.1867939281932
 21
782.9594363712645
 31
0.0
  0
LINE
  5
5331
330
18
100
AcDbEntity
  8
V25
 48
15.0
100
AcDbLine
 10
600.789975975264
 20
782.9594363712646
 30
0.0
 11
546.8981187560047
 21
836.851293590524
 31
0.0
  0
LINE
  5
5332
330
18
100
AcDbEntity
  8
V25
 48
15.0
100
AcDbLine
 10
681.6122810648863
 20
782.9594363712645
 30
0.0
 11
546.8981187560051
 21
917.6735986801457
 31
0.0
  0
LINE
  5
5333
330
18
100
AcDbEntity
  8
V25
 48
15.0
100
AcDbLine
 10
762.4345861545089
 20
782.9594363712642
 30
0.0
 11
562.4345861545087
 21
982.9594363712644
 31
0.0
  0
LINE
  5
5334
330
18
100
AcDbEntity
  8
V25
 48
15.0
100
AcDbLine
 10
843.2568912441311
 20
782.9594363712645
 30
0.0
 11
643.2568912441311
 21
982.9594363712647
 31
0.0
  0
LINE
  5
5335
330
18
100
AcDbEntity
  8
V25
 48
15.0
100
AcDbLine
 10
900.5063439737282
 20
806.5322887312898
 30
0.0
 11
724.0791963337535
 21
982.9594363712647
 31
0.0
  0
LINE
  5
5336
330
18
100
AcDbEntity
  8
V25
 48
15.0
100
AcDbLine
 10
900.5063439737282
 20
887.3545938209117
 30
0.0
 11
804.9015014233761
 21
982.9594363712642
 31
0.0
  0
LINE
  5
5337
330
18
100
AcDbEntity
  8
V25
 48
15.0
100
AcDbLine
 10
900.5063439737282
 20
968.1768989105345
 30
0.0
 11
885.7238065129982
 21
982.9594363712644
 31
0.0
  0
LINE
  5
5338
330
18
100
AcDbEntity
  8
V25
 48
15.0
100
AcDbLine
 10
560.3788408856417
 20
782.9594363712646
 30
0.0
 11
550.6841253021625
 21
792.6541519547438
 31
0.0
  0
LINE
  5
5339
330
18
100
AcDbEntity
  8
V25
 48
15.0
100
AcDbLine
 10
641.2011459752642
 20
782.9594363712645
 30
0.0
 11
621.4036422555819
 21
802.7569400909467
 31
0.0
  0
LINE
  5
533A
330
18
100
AcDbEntity
  8
V25
 48
15.0
100
AcDbLine
 10
611.3008541193792
 20
812.8597282271496
 30
0.0
 11
591.0952778469736
 21
833.0653044995552
 31
0.0
  0
LINE
  5
533B
330
18
100
AcDbEntity
  8
V25
 48
15.0
100
AcDbLine
 10
580.9924897107708
 20
843.168092635758
 30
0.0
 11
560.7869134383652
 21
863.3736689081636
 31
0.0
  0
LINE
  5
533C
330
18
100
AcDbEntity
  8
V25
 48
15.0
100
AcDbLine
 10
550.6841253021624
 20
873.4764570443665
 30
0.0
 11
546.8981187560049
 21
877.2624635905239
 31
0.0
  0
LINE
  5
533D
330
18
100
AcDbEntity
  8
V25
 48
15.0
100
AcDbLine
 10
712.328735481407
 20
792.6541519547438
 30
0.0
 11
692.1231592090015
 21
812.8597282271494
 31
0.0
  0
LINE
  5
533E
330
18
100
AcDbEntity
  8
V25
 48
15.0
100
AcDbLine
 10
682.0203710727987
 20
822.9625163633523
 30
0.0
 11
661.8147948003931
 21
843.1680926357579
 31
0.0
  0
LINE
  5
533F
330
18
100
AcDbEntity
  8
V25
 48
15.0
100
AcDbLine
 10
651.7120066641902
 20
853.2708807719608
 30
0.0
 11
631.5064303917847
 21
873.4764570443662
 31
0.0
  0
LINE
  5
5340
330
18
100
AcDbEntity
  8
V25
 48
15.0
100
AcDbLine
 10
621.4036422555819
 20
883.5792451805691
 30
0.0
 11
601.1980659831764
 21
903.7848214529747
 31
0.0
  0
LINE
  5
5341
330
18
100
AcDbEntity
  8
V25
 48
15.0
100
AcDbLine
 10
591.0952778469735
 20
913.8876095891776
 30
0.0
 11
570.8897015745679
 21
934.0931858615832
 31
0.0
  0
LINE
  5
5342
330
18
100
AcDbEntity
  8
V25
 48
15.0
100
AcDbLine
 10
560.7869134383652
 20
944.195973997786
 30
0.0
 11
546.8981187560049
 21
958.0847686801462
 31
0.0
  0
LINE
  5
5343
330
18
100
AcDbEntity
  8
V25
 48
15.0
100
AcDbLine
 10
802.845756154509
 20
782.9594363712642
 30
0.0
 11
793.1510405710296
 21
792.6541519547436
 31
0.0
  0
LINE
  5
5344
330
18
100
AcDbEntity
  8
V25
 48
15.0
100
AcDbLine
 10
783.0482524348267
 20
802.7569400909465
 30
0.0
 11
762.8426761624211
 21
822.9625163633521
 31
0.0
  0
LINE
  5
5345
330
18
100
AcDbEntity
  8
V25
 48
15.0
100
AcDbLine
 10
752.7398880262183
 20
833.065304499555
 30
0.0
 11
732.5343117538127
 21
853.2708807719604
 31
0.0
  0
LINE
  5
5346
330
18
100
AcDbEntity
  8
V25
 48
15.0
100
AcDbLine
 10
722.4315236176099
 20
863.3736689081633
 30
0.0
 11
702.2259473452044
 21
883.5792451805689
 31
0.0
  0
LINE
  5
5347
330
18
100
AcDbEntity
  8
V25
 48
15.0
100
AcDbLine
 10
692.1231592090016
 20
893.6820333167718
 30
0.0
 11
671.917582936596
 21
913.8876095891774
 31
0.0
  0
LINE
  5
5348
330
18
100
AcDbEntity
  8
V25
 48
15.0
100
AcDbLine
 10
661.8147948003931
 20
923.9903977253803
 30
0.0
 11
641.6092185279876
 21
944.1959739977859
 31
0.0
  0
LINE
  5
5349
330
18
100
AcDbEntity
  8
V25
 48
15.0
100
AcDbLine
 10
631.5064303917848
 20
954.2987621339888
 30
0.0
 11
611.3008541193792
 21
974.5043384063942
 31
0.0
  0
LINE
  5
534A
330
18
100
AcDbEntity
  8
V25
 48
15.0
100
AcDbLine
 10
883.6680612441314
 20
782.9594363712642
 30
0.0
 11
863.8705575244491
 21
802.7569400909463
 31
0.0
  0
LINE
  5
534B
330
18
100
AcDbEntity
  8
V25
 48
15.0
100
AcDbLine
 10
853.7677693882464
 20
812.8597282271492
 30
0.0
 11
833.5621931158408
 21
833.0653044995546
 31
0.0
  0
LINE
  5
534C
330
18
100
AcDbEntity
  8
V25
 48
15.0
100
AcDbLine
 10
823.4594049796381
 20
843.1680926357575
 30
0.0
 11
803.2538287072325
 21
863.3736689081631
 31
0.0
  0
LINE
  5
534D
330
18
100
AcDbEntity
  8
V25
 48
15.0
100
AcDbLine
 10
793.1510405710296
 20
873.476457044366
 30
0.0
 11
772.945464298624
 21
893.6820333167716
 31
0.0
  0
LINE
  5
534E
330
18
100
AcDbEntity
  8
V25
 48
15.0
100
AcDbLine
 10
762.8426761624212
 20
903.7848214529745
 30
0.0
 11
742.6370998900157
 21
923.9903977253801
 31
0.0
  0
LINE
  5
534F
330
18
100
AcDbEntity
  8
V25
 48
15.0
100
AcDbLine
 10
732.5343117538129
 20
934.093185861583
 30
0.0
 11
712.3287354814073
 21
954.2987621339884
 31
0.0
  0
LINE
  5
5350
330
18
100
AcDbEntity
  8
V25
 48
15.0
100
AcDbLine
 10
702.2259473452045
 20
964.4015502701913
 30
0.0
 11
683.6680612441311
 21
982.9594363712649
 31
0.0
  0
LINE
  5
5352
330
18
100
AcDbEntity
  8
V25
 48
15.0
100
AcDbLine
 10
894.1789219330576
 20
853.2708807719608
 30
0.0
 11
873.9733456606519
 21
873.4764570443662
 31
0.0
  0
LINE
  5
5353
330
18
100
AcDbEntity
  8
V25
 48
15.0
100
AcDbLine
 10
863.8705575244491
 20
883.5792451805691
 30
0.0
 11
843.6649812520435
 21
903.7848214529747
 31
0.0
  0
LINE
  5
5354
330
18
100
AcDbEntity
  8
V25
 48
15.0
100
AcDbLine
 10
833.5621931158408
 20
913.8876095891776
 30
0.0
 11
813.3566168434352
 21
934.0931858615832
 31
0.0
  0
LINE
  5
5355
330
18
100
AcDbEntity
  8
V25
 48
15.0
100
AcDbLine
 10
803.2538287072323
 20
944.195973997786
 30
0.0
 11
783.0482524348268
 21
964.4015502701916
 31
0.0
  0
LINE
  5
5356
330
18
100
AcDbEntity
  8
V25
 48
15.0
100
AcDbLine
 10
772.945464298624
 20
974.5043384063945
 30
0.0
 11
764.4903663337536
 21
982.9594363712649
 31
0.0
  0
LINE
  5
5358
330
18
100
AcDbEntity
  8
V25
 48
15.0
100
AcDbLine
 10
900.5063439737282
 20
927.7657638209122
 30
0.0
 11
884.0761337968547
 21
944.1959739977855
 31
0.0
  0
LINE
  5
5359
330
18
100
AcDbEntity
  8
V25
 48
15.0
100
AcDbLine
 10
873.973345660652
 20
954.2987621339884
 30
0.0
 11
853.7677693882464
 21
974.504338406394
 31
0.0
  0
LINE
  5
535B
330
18
100
AcDbEntity
  8
V25
 48
5.0
100
AcDbLine
 10
577.7807787972419
 20
753.870856340003
 30
0.0
 11
577.7807787972419
 21
800.0494101533647
 31
0.0
  0
LWPOLYLINE
  5
535C
330
18
100
AcDbEntity
  8
SV35
  6
AUSGEZOGEN
 48
5.0
100
AcDbPolyline
 90
        4
 70
     1
 43
0.0
 10
562.7807787972418
 20
775.9487706344246
 10
592.7807787972418
 20
775.9487706344246
 10
592.7807787972418
 20
780.9487706344246
 10
562.7807787972418
 20
780.9487706344246
  0
HATCH
  5
535D
330
18
100
AcDbEntity
  8
V25
 48
5.0
100
AcDbHatch
 10
0.0
 20
0.0
 30
0.0
210
0.0
220
0.0
230
1.0
  2
ANSI37
 70
     0
 71
     0
 91
        1
 92
        7
 72
     0
 73
     1
 93
        4
 10
562.7807787972418
 20
780.9487706344246
 10
562.7807787972418
 20
775.9487706344246
 10
592.7807787972418
 20
775.9487706344246
 10
592.7807787972418
 20
780.9487706344246
 97
        0
 75
     0
 76
     1
 52
-0.0000000000000382
 41
1.0
 77
     0
 78
     2
 53
44.99999999999989
 43
78.46475482924711
 44
123.7660056475617
 45
-2.245064030267286
 46
2.245064030267289
 79
     0
 53
134.9999999999999
 43
78.46475482924711
 44
123.7660056475617
 45
-2.245064030267289
 46
-2.245064030267286
 79
     0
 47
0.1149827854136383
 98
        1
 10
581.0565424516028
 20
779.2792826168099
  0
LWPOLYLINE
  5
535F
330
18
100
AcDbEntity
  8
V35
100
AcDbPolyline
 90
        2
 70
     1
 43
2.9
 10
588.6727289479007
 20
767.0817075580423
 42
1.0
 10
588.6727289479007
 20
770.1817075580418
 42
1.0
  0
LINE
  5
5360
330
18
100
AcDbEntity
  8
SV35
  6
AUSGEZOGEN
 48
5.0
100
AcDbLine
 10
581.1279749953086
 20
765.442929591247
 30
0.0
 11
581.1279749953086
 21
771.4429295912471
 31
0.0
  0
LINE
  5
5361
330
18
100
AcDbEntity
  8
SV35
  6
AUSGEZOGEN
 48
5.0
100
AcDbLine
 10
574.433582599175
 20
765.442929591247
 30
0.0
 11
574.433582599175
 21
771.4429295912471
 31
0.0
  0
LWPOLYLINE
  5
5362
330
18
100
AcDbEntity
  8
V5
  6
AUSGEZOGEN
 48
5.0
100
AcDbPolyline
 90
        4
 70
     1
 43
0.0
 10
559.7807787972418
 20
765.442929591247
 10
595.7807787972418
 20
765.442929591247
 10
595.7807787972418
 20
771.4429295912471
 10
559.7807787972418
 20
771.4429295912471
  0
LINE
  5
5367
330
18
100
AcDbEntity
  8
V25
  6
Continuous
100
AcDbLine
 10
518.4995050929106
 20
1256.384791702114
 30
0.0
 11
518.4995050929104
 21
989.5652171105863
 31
0.0
  0
LINE
  5
5368
330
18
100
AcDbEntity
  8
V25
  6
Continuous
100
AcDbLine
 10
514.4995050929106
 20
1256.384791702114
 30
0.0
 11
514.4995050929104
 21
989.5652171105863
 31
0.0
  0
LINE
  5
536C
330
18
100
AcDbEntity
  8
V25
  6
Continuous
100
AcDbLine
 10
538.6301038216356
 20
977.9419998587853
 30
0.0
 11
538.6301038216355
 21
779.9487706344246
 31
0.0
  0
ARC
  5
536D
330
18
100
AcDbEntity
  8
V25
  6
Continuous
100
AcDbCircle
 10
546.6301038216354
 20
779.9487706344246
 30
0.0
 40
8.0
100
AcDbArc
 50
180.0
 51
270.0
  0
LINE
  5
536E
330
18
100
AcDbEntity
  8
V25
  6
Continuous
100
AcDbLine
 10
546.6301038216355
 20
771.9487706344246
 30
0.0
 11
601.3259051745929
 21
771.9487706344246
 31
0.0
  0
LINE
  5
536F
330
18
100
AcDbEntity
  8
V25
  6
Continuous
100
AcDbLine
 10
542.6301038216356
 20
977.9419998587853
 30
0.0
 11
542.6301038216355
 21
779.9487706344246
 31
0.0
  0
ARC
  5
5370
330
18
100
AcDbEntity
  8
V25
  6
Continuous
100
AcDbCircle
 10
546.6301038216354
 20
779.9487706344246
 30
0.0
 40
4.0
100
AcDbArc
 50
180.0
 51
270.0
  0
LINE
  5
5371
330
18
100
AcDbEntity
  8
V25
  6
Continuous
100
AcDbLine
 10
546.6301038216355
 20
775.9487706344246
 30
0.0
 11
601.3259051745929
 21
775.9487706344246
 31
0.0
  0
ARC
  5
5372
330
18
100
AcDbEntity
  8
V25
  6
Continuous
100
AcDbCircle
 10
534.6301038216357
 20
977.9419998587853
 30
0.0
 40
4.0
100
AcDbArc
 50
0.0
 51
90.0
  0
ARC
  5
5373
330
18
100
AcDbEntity
  8
V25
  6
Continuous
100
AcDbCircle
 10
534.6301038216357
 20
977.9419998587853
 30
0.0
 40
8.0
100
AcDbArc
 50
0.0
 51
90.0
  0
ARC
  5
5376
330
18
100
AcDbEntity
  8
V25
  6
Continuous
100
AcDbCircle
 10
522.4995050929104
 20
989.5652171105863
 30
0.0
 40
4.0
100
AcDbArc
 50
180.0
 51
270.0000000000001
  0
ARC
  5
5377
330
18
100
AcDbEntity
  8
V25
  6
Continuous
100
AcDbCircle
 10
522.4995050929104
 20
989.5652171105863
 30
0.0
 40
8.0
100
AcDbArc
 50
180.0
 51
270.0000000000001
  0
LINE
  5
5379
330
18
100
AcDbEntity
  8
V25
 48
15.0
100
AcDbLine
 10
522.4995050929104
 20
981.5652171105865
 30
0.0
 11
534.6301038216356
 21
981.9419998587852
 31
0.0
  0
LINE
  5
537A
330
18
100
AcDbEntity
  8
V25
 48
15.0
100
AcDbLine
 10
522.4995050929104
 20
985.5652171105864
 30
0.0
 11
534.6301038216356
 21
985.9419998587853
 31
0.0
  0
LWPOLYLINE
  5
5380
330
18
100
AcDbEntity
  8
V5
  6
GESTRICHELT
 48
5.0
100
AcDbPolyline
 90
        8
 70
     0
 43
4.0
 10
516.4995050929106
 20
1256.384791702114
 10
516.4995050929109
 20
989.5652171105862
 42
0.4142135623730841
 10
522.4995050929104
 20
983.5652171105865
 10
534.6301038216356
 20
983.9419998587848
 42
-0.414213562373106
 10
540.6301038216359
 20
977.9419998587851
 10
540.6301038216359
 20
779.9487706344246
 42
0.4142135623730951
 10
546.6301038216355
 20
773.9487706344245
 10
601.3259051745929
 20
773.9487706344245
  0
ELLIPSE
  5
5381
330
18
100
AcDbEntity
  8
INSULATION
100
AcDbEllipse
 10
507.6518308560149
 20
782.4409120616826
 30
0.0
 11
-0.0000000000119338
 21
-27.41326569200578
 31
0.0
210
0.0
220
0.0
230
1.0
 40
0.9928371866099702
 41
1.570796326795328
 42
3.504561302195874
  0
ELLIPSE
  5
5383
330
18
100
AcDbEntity
  8
INSULATION
100
AcDbEllipse
 10
367.8387337915425
 20
809.8541777536881
 30
0.0
 11
-0.0000000000222966
 21
27.41326569200577
 31
0.0
210
0.0
220
0.0
230
1.0
 40
0.9928371866099659
 41
-0.3629686486064583
 42
3.504561302194611
  0
ELLIPSE
  5
5385
330
18
100
AcDbEntity
  8
INSULATION
100
AcDbEllipse
 10
507.6518308560149
 20
837.2674434456936
 30
0.0
 11
-0.0000000000119731
 21
27.41326569200578
 31
0.0
210
0.0
220
0.0
230
1.0
 40
0.9928371866099702
 41
2.77862400498371
 42
4.712388980384255
  0
ELLIPSE
  5
5386
330
18
100
AcDbEntity
  8
INSULATION
100
AcDbEllipse
 10
507.6518308560149
 20
837.2674434456936
 30
0.0
 11
-0.0000000000119338
 21
-27.41326569200578
 31
0.0
210
0.0
220
0.0
230
1.0
 40
0.9928371866099702
 41
1.570796326795328
 42
3.504561302195874
  0
ELLIPSE
  5
5388
330
18
100
AcDbEntity
  8
INSULATION
100
AcDbEllipse
 10
367.8387337915425
 20
864.6807091376988
 30
0.0
 11
-0.0000000000222999
 21
-27.41326569200578
 31
0.0
210
0.0
220
0.0
230
1.0
 40
0.9928371866099659
 41
2.778624004984974
 42
6.646153955786044
  0
ELLIPSE
  5
538A
330
18
100
AcDbEntity
  8
INSULATION
100
AcDbEllipse
 10
507.6518308560149
 20
892.0939748297044
 30
0.0
 11
-0.0000000000119731
 21
27.41326569200578
 31
0.0
210
0.0
220
0.0
230
1.0
 40
0.9928371866099702
 41
2.77862400498371
 42
4.712388980384255
  0
ELLIPSE
  5
538B
330
18
100
AcDbEntity
  8
INSULATION
100
AcDbEllipse
 10
507.6518308560149
 20
892.0939748297044
 30
0.0
 11
-0.0000000000119338
 21
-27.41326569200578
 31
0.0
210
0.0
220
0.0
230
1.0
 40
0.9928371866099702
 41
1.570796326795328
 42
3.504561302195874
  0
ELLIPSE
  5
538D
330
18
100
AcDbEntity
  8
INSULATION
100
AcDbEllipse
 10
367.8387337915425
 20
919.50724052171
 30
0.0
 11
-0.0000000000222966
 21
27.41326569200577
 31
0.0
210
0.0
220
0.0
230
1.0
 40
0.9928371866099659
 41
-0.3629686486064583
 42
3.504561302194611
  0
ELLIPSE
  5
538F
330
18
100
AcDbEntity
  8
INSULATION
100
AcDbEllipse
 10
507.6518308560149
 20
946.9205062137152
 30
0.0
 11
-0.0000000000119731
 21
27.41326569200578
 31
0.0
210
0.0
220
0.0
230
1.0
 40
0.9928371866099702
 41
2.77862400498371
 42
4.712388980384255
  0
ELLIPSE
  5
5390
330
18
100
AcDbEntity
  8
INSULATION
100
AcDbEllipse
 10
507.6518308560149
 20
946.9205062137152
 30
0.0
 11
-0.0000000000119338
 21
-27.41326569200578
 31
0.0
210
0.0
220
0.0
230
1.0
 40
0.9928371866099702
 41
1.570796326795328
 42
3.504561302195874
  0
ELLIPSE
  5
5392
330
18
100
AcDbEntity
  8
INSULATION
100
AcDbEllipse
 10
367.8387337915425
 20
974.3337719057207
 30
0.0
 11
-0.0000000000222999
 21
-27.41326569200578
 31
0.0
210
0.0
220
0.0
230
1.0
 40
0.9928371866099659
 41
2.778624004984974
 42
6.646153955786044
  0
LINE
  5
5393
330
18
100
AcDbEntity
  8
INSULATION
100
AcDbLine
 10
377.502125456828
 20
999.9609789827493
 30
0.0
 11
439.8260708825821
 21
976.1198305206976
 31
0.0
  0
ELLIPSE
  5
5394
330
18
100
AcDbEntity
  8
INSULATION
100
AcDbEllipse
 10
449.4894625478679
 20
1001.747037597726
 30
0.0
 11
-0.0000000000119731
 21
27.41326569200578
 31
0.0
210
0.0
220
0.0
230
1.0
 40
0.9928371866099702
 41
2.77862400498371
 42
4.712388980384255
  0
LINE
  5
5395
330
18
100
AcDbEntity
  8
V25
 48
15.0
100
AcDbLine
 10
377.502125456828
 20
784.2269706766594
 30
0.0
 11
497.9884391907291
 21
808.068119138711
 31
0.0
  0
LINE
  5
5396
330
18
100
AcDbEntity
  8
V25
 48
15.0
100
AcDbLine
 10
497.9884391907291
 20
811.6402363686649
 30
0.0
 11
377.502125456828
 21
835.4813848307166
 31
0.0
  0
LINE
  5
5397
330
18
100
AcDbEntity
  8
V25
 48
15.0
100
AcDbLine
 10
377.502125456828
 20
839.0535020606703
 30
0.0
 11
497.9884391907291
 21
862.894650522722
 31
0.0
  0
LINE
  5
5398
330
18
100
AcDbEntity
  8
V25
 48
15.0
100
AcDbLine
 10
497.9884391907291
 20
866.4667677526759
 30
0.0
 11
377.502125456828
 21
890.3079162147276
 31
0.0
  0
LINE
  5
5399
330
18
100
AcDbEntity
  8
V25
 48
15.0
100
AcDbLine
 10
377.502125456828
 20
893.8800334446812
 30
0.0
 11
497.9884391907291
 21
917.7211819067329
 31
0.0
  0
LINE
  5
539A
330
18
100
AcDbEntity
  8
V25
 48
15.0
100
AcDbLine
 10
497.9884391907291
 20
921.2932991366868
 30
0.0
 11
377.502125456828
 21
945.1344475987385
 31
0.0
  0
LINE
  5
539B
330
18
100
AcDbEntity
  8
V25
 48
15.0
100
AcDbLine
 10
377.502125456828
 20
948.706564828692
 30
0.0
 11
497.9884391907291
 21
972.5477132907437
 31
0.0
  0
ELLIPSE
  5
539C
330
18
100
AcDbEntity
  8
INSULATION
100
AcDbEllipse
 10
449.4894625478679
 20
1056.573568981737
 30
0.0
 11
-0.0000000000119731
 21
27.41326569200578
 31
0.0
210
0.0
220
0.0
230
1.0
 40
0.9928371866099702
 41
2.77862400498371
 42
3.579514300052646
  0
ELLIPSE
  5
539D
330
18
100
AcDbEntity
  8
INSULATION
  6
VERDECKT
 48
2.0
100
AcDbEllipse
 10
449.4894625478679
 20
1001.747037597726
 30
0.0
 11
-0.0000000000119338
 21
-27.41326569200578
 31
0.0
210
0.0
220
0.0
230
1.0
 40
0.9928371866099702
 41
1.570796326795328
 42
3.504561302195874
  0
ELLIPSE
  5
539E
330
18
100
AcDbEntity
  8
INSULATION
100
AcDbEllipse
 10
449.4894625478679
 20
1221.05316313377
 30
0.0
 11
-0.0000000000119338
 21
-27.41326569200578
 31
0.0
210
0.0
220
0.0
230
1.0
 40
0.9928371866099702
 41
1.570796326795328
 42
3.504561302195874
  0
LINE
  5
539F
330
18
100
AcDbEntity
  8
INSULATION
100
AcDbLine
 10
439.8260708825822
 20
1246.680370210798
 30
0.0
 11
377.5021254568281
 21
1222.839221748747
 31
0.0
  0
ELLIPSE
  5
53A0
330
18
100
AcDbEntity
  8
INSULATION
100
AcDbEllipse
 10
367.8387337915425
 20
1248.466428825775
 30
0.0
 11
-0.0000000000222999
 21
-27.41326569200578
 31
0.0
210
0.0
220
0.0
230
1.0
 40
0.9928371866099659
 41
4.419361997356523
 42
6.646153955786044
  0
LINE
  5
53A1
330
18
100
AcDbEntity
  8
INSULATION
100
AcDbLine
 10
423.7954087386182
 20
1256.384791702114
 30
0.0
 11
439.8260708825822
 21
1250.252487440752
 31
0.0
  0
ELLIPSE
  5
53A2
330
18
100
AcDbEntity
  8
INSULATION
100
AcDbEllipse
 10
449.4894625478679
 20
1275.879694517781
 30
0.0
 11
-0.0000000000119731
 21
27.41326569200578
 31
0.0
210
0.0
220
0.0
230
1.0
 40
0.9928371866099702
 41
2.77862400498371
 42
3.921258500353863
  0
MTEXT
  5
53A4
102
{ACAD_XDICTIONARY
360
553D
102
}
330
18
100
AcDbEntity
  8
TXT-D
  6
VERDECKTX2
 62
     7
 48
5.0
100
AcDbMText
 10
773.0187948006926
 20
345.8527023565764
 30
0.0
 40
13.99999999999999
 41
204.6511
 71
     1
 72
     5
  1
terpeln\U+00E1 izolace
  7
ROMANS
 11
0.0000000000000001
 21
1.0
 31
0.0
 73
     1
 44
1.0
  0
MTEXT
  5
53A5
102
{ACAD_XDICTIONARY
360
553F
102
}
330
18
100
AcDbEntity
  8
TXT-D
  6
VERDECKTX2
 62
     7
 48
5.0
100
AcDbMText
 10
714.9551319813561
 20
345.8527023565765
 30
0.0
 40
13.99999999999999
 41
204.6511
 71
     1
 72
     5
  1
parot\U+011Bsn\U+00E1 vrstva
  7
ROMANS
 11
0.0000000000000001
 21
1.0
 31
0.0
 73
     1
 44
1.0
1001
ACAD
1000
ACAD_MTEXT_DEFINED_HEIGHT_BEGIN
1070
    46
1040
8.496198229670881
1000
ACAD_MTEXT_DEFINED_HEIGHT_END
  0
MTEXT
  5
53A6
102
{ACAD_XDICTIONARY
360
5541
102
}
330
18
100
AcDbEntity
  8
TXT-D
  6
VERDECKTX2
 62
     7
 48
5.0
100
AcDbMText
 10
832.177923029654
 20
345.8527023565764
 30
0.0
 40
13.99999999999999
 41
204.6511
 71
     1
 72
     5
  1
trap\U+00E9zov\U+00FD plech
  7
ROMANS
 11
0.0000000000000001
 21
1.0
 31
0.0
 73
     1
 44
1.0
  0
MTEXT
  5
53A7
330
18
100
AcDbEntity
  8
TXT-D
  6
VERDECKTX2
 62
     7
 48
5.0
100
AcDbMText
 10
675.8099353956697
 20
318.0187161855379
 30
0.0
 40
13.99999999999999
 41
204.6511
 71
     1
 72
     5
  1
konzola z ocel. plechu
  7
ROMANS
 11
0.0000000000000001
 21
1.0
 31
0.0
 73
     1
 44
1.0
  0
LINE
  5
53A8
330
18
100
AcDbEntity
  8
TXT-D
 62
     1
 48
15.0
100
AcDbLine
 10
722.6617825041504
 20
602.4766775631137
 30
0.0
 11
621.0151200786777
 21
602.4766775631137
 31
0.0
  0
LINE
  5
53A9
330
18
100
AcDbEntity
  8
TXT-D
 62
     1
100
AcDbLine
 10
722.6617825041505
 20
520.6907938664212
 30
0.0
 11
722.6617825041504
 21
602.4766775631137
 31
0.0
  0
LINE
  5
53AB
330
18
100
AcDbEntity
  8
TXT-D
 62
     1
 48
15.0
100
AcDbLine
 10
590.319700737988
 20
769.1321376382818
 30
0.0
 11
621.0151200786777
 21
602.4766775631137
 31
0.0
  0
TEXT
  5
53AC
330
18
100
AcDbEntity
  8
TXT-D
  6
VERDECKTX2
 62
     7
 48
5.0
100
AcDbText
 10
854.827786134154
 20
1061.053965656809
 30
0.0
 40
14.0
  1
vnitřní uzavírací
 50
90.0
  7
ROMANS
100
AcDbText
  0
LWPOLYLINE
  5
53AF
330
18
100
AcDbEntity
  8
V35
100
AcDbPolyline
 90
        2
 70
     1
 43
2.9
 10
522.2304196485703
 20
1034.206522353124
 42
1.0
 10
522.2304196485703
 20
1037.306522353124
 42
1.0
  0
LINE
  5
53B0
330
18
100
AcDbEntity
  8
TXT-D
 62
     1
100
AcDbLine
 10
522.2304196485703
 20
1035.756522353124
 30
0.0
 11
849.4976316451156
 21
1035.756522353123
 31
0.0
  0
LINE
  5
53B1
330
18
100
AcDbEntity
  8
TXT-D
 62
     1
100
AcDbLine
 10
849.4976316451156
 20
1053.426885316453
 30
0.0
 11
849.4976316451156
 21
1035.756522353123
 31
0.0
  0
LWPOLYLINE
  5
53B2
330
18
100
AcDbEntity
  8
V35
100
AcDbPolyline
 90
        2
 70
     1
 43
2.9
 10
410.4364896117336
 20
824.6487125496804
 42
1.0
 10
410.4364896117336
 20
827.7487125496802
 42
1.0
  0
LINE
  5
53B3
330
18
100
AcDbEntity
  8
TXT-D
 62
     1
100
AcDbLine
 10
410.4364896117336
 20
826.1987125496803
 30
0.0
 11
118.0980210366154
 21
826.1987125496805
 31
0.0
  0
LINE
  5
53B4
330
18
100
AcDbEntity
  8
TXT-D
 62
     1
100
AcDbLine
 10
496.0176383638012
 20
981.3780426168429
 30
0.0
 11
447.3865258091943
 21
943.3307626296903
 31
0.0
  0
ELLIPSE
  5
53B8
330
18
100
AcDbEntity
  8
INSULATION
100
AcDbEllipse
 10
449.4894625478679
 20
1056.573568981737
 30
0.0
 11
-0.0000000000119731
 21
27.41326569200578
 31
0.0
210
0.0
220
0.0
230
1.0
 40
0.9928371866099702
 41
3.956588981290876
 42
4.712388980384255
  0
LINE
  5
53CF
330
18
100
AcDbEntity
  8
TXT-D
 62
     1
100
AcDbLine
 10
281.5506745107092
 20
1015.860156352534
 30
0.0
 11
258.4720729090533
 21
981.0618084769329
 31
0.0
  0
TEXT
  5
5435
330
18
100
AcDbEntity
  8
TXT-D
  6
VERDECKTX2
 62
     7
 48
5.0
100
AcDbText
 10
877.5956957271572
 20
1061.053965656809
 30
0.0
 40
14.0
  1
oplechování
 50
90.0
  7
ROMANS
100
AcDbText
  0
VIEWPORT
  5
2CEF
330
2CEE
100
AcDbEntity
 67
     1
  8
0
100
AcDbViewport
 10
287.429288902127
 20
142.5975783110548
 30
0.0
 40
954.131217072406
 41
370.6007738898998
 68
     1
 69
     1
 12
287.429288902127
 22
142.5975783110548
 13
0.0
 23
0.0
 14
10.0
 24
10.0
 15
10.0
 25
10.0
 16
0.0
 26
0.0
 36
1.0
 17
0.0
 27
0.0
 37
0.0
 42
50.0
 43
0.0
 44
0.0
 45
370.6007738898998
 50
0.0
 51
0.0
 72
   100
 90
    32800
  1

281
     0
 71
     1
 74
     0
110
0.0
120
0.0
130
0.0
111
1.0
121
0.0
131
0.0
112
0.0
122
1.0
132
0.0
 79
     0
146
0.0
170
     0
  0
LINE
  5
2CF0
330
2CEE
100
AcDbEntity
 67
     1
  8
V5
 62
     1
100
AcDbLine
 10
7.378457057812568
 20
270.0663649349316
 30
0.0
 11
196.0315659403611
 21
270.0663649349316
 31
0.0
  0
LINE
  5
2CF1
330
2CEE
100
AcDbEntity
 67
     1
  8
V5
 62
     1
100
AcDbLine
 10
7.378457057812568
 20
20.03769334085069
 30
0.0
 11
196.031565940361
 21
20.03769334085069
 31
0.0
  0
TEXT
  5
2CF3
330
2CEE
100
AcDbEntity
 67
     1
  8
0
 62
     7
100
AcDbText
 10
7.378457057812568
 20
273.0276699878348
 30
0.0
 40
2.585627078393893
  1
Konzolový štít s ocelovou deskou
  7
Stil1
100
AcDbText
  0
TEXT
  5
2CF4
330
2CEE
100
AcDbEntity
 67
     1
  8
0
 62
     7
100
AcDbText
 10
7.378457057812568
 20
277.6427615215756
 30
0.0
 40
2.456345724474199
  1
Detail - Vaznicová střecha
  7
Stil1
100
AcDbText
  0
LWPOLYLINE
  5
2CF5
102
{ACAD_REACTORS
330
2CF6
102
}
330
2CEE
100
AcDbEntity
 67
     1
  8
0
 62
     1
100
AcDbPolyline
 90
        7
 70
     1
 43
0.0
 10
171.1422090408042
 20
12.63776080342012
 10
170.2050257024468
 20
12.63776080342012
 10
170.2050257024468
 20
6.734358271736043
 42
0.3265321329225733
 10
171.3488330778545
 20
5.70730316541911
 10
172.0238877247735
 20
5.707308068730622
 10
172.0238877247735
 20
6.444913155378106
 42
-0.4142135623730951
 10
171.1422090408042
 20
7.326591839347472
  0
HATCH
  5
2CF6
330
2CEE
100
AcDbEntity
 67
     1
  8
0
 62
     1
100
AcDbHatch
 10
0.0
 20
0.0
 30
0.0
210
0.0
220
0.0
230
1.0
  2
SOLID
 70
     1
 71
     1
 91
        5
 92
        7
 72
     1
 73
     1
 93
       12
 10
171.8796336498064
 20
2.642657989685744
 42
0.0
 10
171.8796336498064
 20
3.097657989685743
 42
0.0
 10
157.5146336498063
 20
3.097657989685743
 42
-0.4142135623730816
 10
156.9946336498063
 20
3.617657989685748
 42
0.0
 10
156.9946336498063
 20
14.05618615838461
 42
-0.2659775848638894
 10
157.2513254801551
 20
14.50459312509557
 42
-0.2516648824931138
 10
171.7804130818904
 20
15.05508074642154
 42
0.0
 10
171.9804581211609
 20
15.46374562411875
 42
0.2516648824931142
 10
157.0209308317102
 20
14.89694922096762
 42
0.2659775848638745
 10
156.5396336498063
 20
14.0561861583846
 42
0.0
 10
156.5396336498064
 20
3.617657989685739
 42
0.4142135623731021
 10
157.5146336498064
 20
2.642657989685744
 42
0.0
 97
        1
330
2CF7
 92
       23
 72
     0
 73
     1
 93
       12
 10
160.709003277192
 20
12.41897150711669
 10
159.6804467456753
 20
12.41897150711669
 10
159.6804467456753
 20
5.707406646944892
 10
160.7090032771921
 20
5.707406646944893
 10
160.709003277192
 20
7.607080171612842
 10
161.5130431441546
 20
8.678332632823781
 10
163.4601919451483
 20
5.707406646944897
 10
164.5976752693911
 20
5.707406646944889
 10
162.1455188436231
 20
9.521003721101157
 10
164.3206192214516
 20
12.41897150711669
 10
163.1711954901292
 20
12.41897150711669
 10
160.709003277192
 20
8.991742055666072
 97
        1
330
2CF8
 92
       23
 72
     1
 73
     1
 93
       18
 10
165.1445005508302
 20
10.23961706042952
 42
0.0
 10
165.5281195918805
 20
9.541100142545243
 42
-0.125089082906134
 10
166.8508947376822
 20
9.896315450135563
 42
-0.2678367822511334
 10
167.6514983513533
 20
9.489295003113456
 42
-0.1602289575784415
 10
167.7751725929877
 20
8.957038322130811
 42
-0.4569276421982519
 10
167.6737361473992
 20
8.87707596321626
 42
0.0541248642832566
 10
166.8545842281447
 20
8.87465310032838
 42
0.1876748474912706
 10
165.2217741497835
 20
8.053594607004125
 42
0.1827818212654542
 10
164.9299426038108
 20
6.861926575029807
 42
0.3920539506815877
 10
166.0924338422075
 20
5.710316639618223
 42
0.0
 10
166.8156929190153
 20
5.710316639618223
 42
0.1547524270167677
 10
167.769549789679
 20
6.015676490084731
 42
-0.4453775332544872
 10
168.0864651616882
 20
6.01770787569677
 42
0.2086188919813744
 10
169.1484662592782
 20
5.700801680734331
 42
0.6162695522450458
 10
169.236042116871
 20
5.988683940491176
 42
-0.2171983840452063
 10
168.78703703196
 20
7.007375237320971
 42
0.0
 10
168.78703703196
 20
9.072944898722395
 42
0.2771818233459465
 10
167.7954665706382
 20
10.60509243797142
 42
0.2393084470231861
 97
        1
330
2CFA
 92
       22
 72
     1
 73
     1
 93
        8
 10
166.878374397114
 20
8.181566853410675
 42
0.0
 10
167.6403751356195
 20
8.181566853410675
 42
-0.4387538430829223
 10
167.8564356003741
 20
7.951713556446768
 42
0.0
 10
167.8564356003743
 20
7.203942434941795
 42
-0.2315738025864622
 10
167.598567576182
 20
6.646133798496991
 42
-0.2231591289144174
 10
166.4019447442666
 20
6.32785133319538
 42
-0.245125819360461
 10
165.8679663364297
 20
6.72949961092434
 42
-0.1420187448230589
 10
165.8819046685782
 20
7.550617961830791
 42
-0.2899718709828802
 97
        1
330
2CF9
 92
        7
 72
     1
 73
     1
 93
        7
 10
171.1422090408042
 20
12.63776080342012
 42
0.0
 10
170.2050257024468
 20
12.63776080342012
 42
0.0
 10
170.2050257024468
 20
6.734358271736073
 42
0.3265321329225785
 10
171.3488330778545
 20
5.70730316541911
 42
0.0
 10
172.0238877247735
 20
5.707308068730623
 42
0.0
 10
172.0238877247735
 20
6.444913155378106
 42
-0.4142135623730958
 10
171.1422090408042
 20
7.326591839347473
 42
0.0
 97
        1
330
2CF5
 75
     0
 76
     1
 47
0.2105755737740495
 98
        5
 10
169.2860972871858
 20
16.30532310860333
 10
160.2456532181561
 20
11.21360576732915
 10
166.8205216882655
 20
10.33761137006547
 10
166.8205216882655
 20
10.33761137006547
 10
170.7928380169379
 20
8.339249177091296
450
        0
451
        0
460
0.0
461
0.0
452
        0
462
0.0
453
        0
470

  0
LWPOLYLINE
  5
2CF7
102
{ACAD_REACTORS
330
2CF6
102
}
330
2CEE
100
AcDbEntity
 67
     1
  8
0
 62
     1
100
AcDbPolyline
 90
       12
 70
     1
 43
0.0
 10
157.5146336498064
 20
2.642657989685744
 42
-0.4142135623730951
 10
156.5396336498064
 20
3.617657989685744
 10
156.5396336498063
 20
14.05618615838464
 42
-0.2659775848638765
 10
157.0209308317103
 20
14.89694922096765
 42
-0.2516648824931137
 10
171.9804581211609
 20
15.46374562411874
 10
171.7804130818904
 20
15.05508074642154
 42
0.2516648824931138
 10
157.2513254801551
 20
14.50459312509557
 42
0.2659775848638775
 10
156.9946336498063
 20
14.05618615838464
 10
156.9946336498063
 20
3.617657989685744
 42
0.4142135623730951
 10
157.5146336498064
 20
3.097657989685743
 10
171.8796336498064
 20
3.097657989685743
 10
171.8796336498064
 20
2.642657989685744
  0
LWPOLYLINE
  5
2CF8
102
{ACAD_REACTORS
330
2CF6
102
}
330
2CEE
100
AcDbEntity
 67
     1
  8
0
 62
     1
100
AcDbPolyline
 90
       13
 70
     0
 43
0.0
 10
160.709003277192
 20
8.991742055666069
 10
160.709003277192
 20
12.41897150711669
 10
159.6804467456753
 20
12.41897150711669
 10
159.6804467456753
 20
5.707406646944892
 10
160.709003277192
 20
5.707406646944892
 10
160.709003277192
 20
7.6070801716128
 10
161.5130431441546
 20
8.678332632823778
 10
163.4601919451483
 20
5.707406646944896
 10
164.5976752693911
 20
5.707406646944889
 10
162.1455188436231
 20
9.521003721101163
 10
164.3206192214516
 20
12.41897150711669
 10
163.1711954901292
 20
12.41897150711668
 10
160.6977260448776
 20
8.976044799165943
  0
LWPOLYLINE
  5
2CF9
102
{ACAD_REACTORS
330
2CF6
102
}
330
2CEE
100
AcDbEntity
 67
     1
  8
0
 62
     1
100
AcDbPolyline
 90
        8
 70
     1
 43
0.0
 10
166.401944744267
 20
6.327851333195315
 42
-0.2451258193606399
 10
165.8679663364297
 20
6.729499610924428
 42
-0.1420187448230164
 10
165.8819046685781
 20
7.550617961830644
 42
-0.2899718709829171
 10
166.878374397114
 20
8.181566853410675
 10
167.6449213242718
 20
8.181566853410675
 42
-0.3900918559591556
 10
167.8564356003741
 20
7.982744937864822
 10
167.8564356003743
 20
7.173048935136726
 42
-0.2034436104283782
 10
167.6319582523418
 20
6.675082406628096
 42
-0.2311376311759479
  0
LWPOLYLINE
  5
2CFA
102
{ACAD_REACTORS
330
2CF6
102
}
330
2CEE
100
AcDbEntity
 67
     1
  8
0
 62
     1
100
AcDbPolyline
 90
       18
 70
     1
 43
0.0
 10
167.7751725929877
 20
8.957038322131019
 42
0.1602289575782981
 10
167.6514983513534
 20
9.48929500311322
 42
0.2678367822512051
 10
166.8508947376822
 20
9.896315450135563
 42
0.1250890829061368
 10
165.5281195918805
 20
9.541100142545236
 10
165.1445005508302
 20
10.23961706042952
 42
-0.2393084470231862
 10
167.7954665706382
 20
10.60509243797143
 42
-0.2771818233458632
 10
168.78703703196
 20
9.072944898722962
 10
168.78703703196
 20
6.97355132321682
 42
0.2106080285028759
 10
169.2360421168713
 20
5.988683940490972
 42
-0.655875337136226
 10
169.1296033642075
 20
5.698632480071225
 42
-0.2140955845208337
 10
168.0503005494262
 20
6.049341431860447
 42
0.3793030021024653
 10
167.769549789679
 20
6.015676490084718
 42
-0.1547524270167758
 10
166.8156929190153
 20
5.710316639618223
 10
166.0924338422075
 20
5.710316639618223
 42
-0.3920539506815679
 10
164.9299426038108
 20
6.86192657502975
 42
-0.1827818212654531
 10
165.2217741497834
 20
8.053594607004075
 42
-0.1876748474912757
 10
166.8545842281447
 20
8.874653100328377
 42
-0.0541248642832585
 10
167.6737361473992
 20
8.87707596321626
 42
0.4569276421989473
  0
HATCH
  5
2CFB
330
2CEE
100
AcDbEntity
 67
     1
  8
0
 62
     1
100
AcDbHatch
 10
0.0
 20
0.0
 30
0.0
210
0.0
220
0.0
230
1.0
  2
SOLID
 70
     1
 71
     1
 91
        9
 92
       23
 72
     1
 73
     1
 93
       12
 10
172.5653492253768
 20
10.77490737173337
 42
0.0
 10
172.5653492253769
 20
9.815300931198191
 42
0.0
 10
175.0872837779416
 20
9.815300931198191
 42
-0.7299518516212804
 10
175.1617893235822
 20
9.676068307280827
 42
0.0
 10
172.4914556324585
 20
6.020268981102183
 42
0.50718022741599
 10
172.644211845655
 20
5.707312574502982
 42
0.0
 10
176.8000291350547
 20
5.707342760602259
 42
0.0
 10
176.8000291350547
 20
6.670566757922292
 42
0.0
 10
174.218227789512
 20
6.670566757922292
 42
-0.6989832493953289
 10
174.1827769958388
 20
6.747219420546859
 42
0.0
 10
176.7537482928729
 20
10.30088496212113
 42
0.0
 10
176.753748292873
 20
10.77490737173337
 42
0.0
 97
        1
330
2CFD
 92
       23
 72
     0
 73
     1
 93
        6
 10
178.9666074401292
 20
10.76669905952824
 10
177.2426526430076
 20
10.76669905952825
 10
177.2426526430076
 20
9.838115706771706
 10
177.8903677725763
 20
9.838115706771713
 10
177.8903677725763
 20
5.707350680361073
 10
178.9666074401292
 20
5.707358497710934
 97
        1
330
2CFE
 92
       23
 72
     1
 73
     1
 93
       11
 10
180.1922008356549
 20
3.799755387185153
 42
0.0
 10
181.349217316878
 20
3.799755387185154
 42
0.0
 10
181.3492173168779
 20
5.717742550126925
 42
-0.5640200146066899
 10
181.4641258853013
 20
5.804282531762956
 42
0.1631429899295819
 10
183.1864652238147
 20
5.705950674351199
 42
0.2143211476369445
 10
184.5317686669931
 20
7.118160369269403
 42
0.1454787830754844
 10
184.5671690122602
 20
9.452852759694209
 42
0.2090289610022575
 10
183.4179929142678
 20
10.71591071200417
 42
0.2509780114725508
 10
181.3269206730922
 20
10.56621036557223
 42
0.0
 10
181.3269206730922
 20
10.77826047763267
 42
0.0
 10
180.1922008356549
 20
10.77826047763267
 42
0.0
 97
        1
330
2D01
 92
       22
 72
     1
 73
     1
 93
        7
 10
181.3269206730922
 20
9.649303832430231
 42
-0.2989352106795097
 10
183.0383857367719
 20
9.813694992411338
 42
-0.1898212309736138
 10
183.6122246189639
 20
8.933127238281548
 42
-0.0659282931228529
 10
183.6127328290073
 20
7.566155516116743
 42
-0.1241286129051029
 10
183.2657642838722
 20
6.9662939946905
 42
-0.0600684322457551
 10
182.8753349192135
 20
6.666462805026003
 42
-0.2741033349168765
 10
181.3269206730922
 20
6.737411717605815
 42
0.0
 97
        1
330
2D00
 92
        7
 72
     1
 73
     1
 93
       14
 10
184.0996336498053
 20
13.30265798968572
 42
-0.0829624126767283
 10
172.6060630259369
 20
15.15561449868119
 42
0.0
 10
172.4606106007267
 20
14.72448970004339
 42
0.0829624126767251
 10
184.1022290769075
 20
12.84766539220951
 42
0.0
 10
186.7646336498064
 20
12.84766539220951
 42
-0.414213562373081
 10
187.2846336498064
 20
12.32766539220951
 42
0.0
 10
187.2846336498064
 20
3.617657989685748
 42
-0.4142135623730816
 10
186.7646336498064
 20
3.097657989685743
 42
0.0
 10
172.5296336498063
 20
3.097657989685743
 42
0.0
 10
172.5296336498063
 20
2.642657989685744
 42
0.0
 10
186.7646336498063
 20
2.642657989685744
 42
0.4142135623730996
 10
187.7396336498064
 20
3.617657989685759
 42
0.0
 10
187.7396336498063
 20
12.32766539220952
 42
0.4130726898721487
 10
186.7684329742931
 20
13.30265798968574
 42
0.0
 97
        1
330
2CFC
 92
        7
 72
     1
 73
     1
 93
        2
 10
189.230709588015
 20
14.48202895398631
 42
1.0
 10
187.5667493853671
 20
14.48202895398631
 42
1.0
 97
        1
330
2D02
 92
       22
 72
     1
 73
     1
 93
        2
 10
189.0917517292717
 20
14.48202895398631
 42
1.0
 10
187.7057072441104
 20
14.48202895398631
 42
1.0
 97
        1
330
2D03
 92
        6
 72
     1
 73
     1
 93
       17
 10
188.0891795167577
 20
14.04344269414814
 42
0.0
 10
188.0891795167577
 20
14.87685082043882
 42
-0.430292598095628
 10
188.1602238038721
 20
14.95062377538656
 42
0.0
 10
188.4261557316127
 20
14.95062377538655
 42
-0.1568897140508004
 10
188.7006785950414
 20
14.8834518751411
 42
-0.315341775502797
 10
188.7752715668388
 20
14.73776382093931
 42
0.0
 10
188.7752715668388
 20
14.6714272046255
 42
-0.214053362091937
 10
188.7212103793381
 20
14.42411548719076
 42
-0.1964805591713776
 10
188.7752715668388
 20
14.11867514764511
 42
0.0
 10
188.7752715668388
 20
14.043442694148
 42
0.0
 10
188.5773064487483
 20
14.04344269414801
 42
0.1689517444768469
 10
188.6343570292176
 20
14.13848483333379
 42
0.0
 10
188.6343570292176
 20
14.20746020516914
 42
0.3344300509710908
 10
188.4816798184333
 20
14.34121969975355
 42
0.0
 10
188.3510013364867
 20
14.34121969975355
 42
0.33200365023858
 10
188.2485746924039
 20
14.2209106453635
 42
0.0
 10
188.2485746924039
 20
14.04344269414801
 42
0.0
 97
        1
330
2D06
 92
        6
 72
     1
 73
     1
 93
        2
 10
188.5931590162751
 20
14.66258826751255
 42
0.0283389187032986
 10
188.5931590162751
 20
14.67490823679968
 42
0.0
 97
        1
330
2D04
 75
     0
 76
     1
 47
0.2105755736759934
 98
        9
 10
175.6453618172754
 20
10.2800670495476
 10
178.4944714567078
 20
9.705195731500037
 10
180.7682801127427
 20
9.842069878418275
 10
180.7682801127427
 20
9.842069878418275
 10
187.4253344155173
 20
12.79855093480507
 10
188.0554259540249
 20
13.78404458359732
 10
188.0554259540249
 20
13.78404458359732
 10
188.0554259540249
 20
13.78404458359732
 10
188.0554259540249
 20
13.78404458359732
450
        0
451
        0
460
0.0
461
0.0
452
        0
462
0.0
453
        0
470

  0
LWPOLYLINE
  5
2CFC
102
{ACAD_REACTORS
330
2CFB
102
}
330
2CEE
100
AcDbEntity
 67
     1
  8
0
 62
     1
100
AcDbPolyline
 90
       15
 70
     0
 43
0.0
 10
186.7646336498063
 20
13.30266539220951
 42
-0.4142135623730951
 10
187.7396336498063
 20
12.32766539220951
 10
187.7396336498064
 20
3.617657989685744
 42
-0.4142135623730951
 10
186.7646336498063
 20
2.642657989685744
 10
172.5296336498063
 20
2.642657989685744
 10
172.5296336498063
 20
3.097657989685743
 10
186.7646336498063
 20
3.097657989685743
 42
0.4142135623730951
 10
187.2846336498064
 20
3.617657989685744
 10
187.2846336498064
 20
12.32766539220951
 42
0.4142135623730951
 10
186.7646336498063
 20
12.84766539220951
 10
184.1022290769089
 20
12.84766539220951
 42
-0.0829624126767354
 10
172.4606106007267
 20
14.72448970004339
 10
172.6060630259369
 20
15.15561449868119
 42
0.0829624126767356
 10
184.0996336498063
 20
13.30265798968572
 10
186.768432974293
 20
13.30265798968574
  0
LWPOLYLINE
  5
2CFD
102
{ACAD_REACTORS
330
2CFB
102
}
330
2CEE
100
AcDbEntity
 67
     1
  8
0
 62
     1
100
AcDbPolyline
 90
       13
 70
     0
 43
0.0
 10
174.2108190769815
 20
6.670566757922292
 10
176.8000291350547
 20
6.670566757922292
 10
176.8000291350547
 20
5.707342760602259
 10
172.644211845655
 20
5.707312574502982
 42
-0.5071802274160878
 10
172.4914556324586
 20
6.020268981102255
 10
175.1753283020242
 20
9.694603739174606
 42
0.5083225216873333
 10
175.1172347781356
 20
9.815300931198191
 10
172.5653492253769
 20
9.815300931198191
 10
172.5653492253769
 20
10.77490737173337
 10
176.753748292873
 20
10.77490737173337
 10
176.753748292873
 20
10.30088496212111
 10
174.1743482512912
 20
6.735568983573102
 42
0.5855768765223777
 10
174.218227789512
 20
6.670566757922292
  0
LWPOLYLINE
  5
2CFE
102
{ACAD_REACTORS
330
2CFB
102
}
330
2CEE
100
AcDbEntity
 67
     1
  8
0
 62
     1
100
AcDbPolyline
 90
        6
 70
     1
 43
0.0
 10
177.2426526430076
 20
9.838115706771706
 10
177.2426526430076
 20
10.76669905952824
 10
178.9666074401292
 20
10.76669905952824
 10
178.9666074401292
 20
5.707358497710934
 10
177.8903677725763
 20
5.707350680361074
 10
177.8903677725763
 20
9.838115706771713
  0
LWPOLYLINE
  5
2CFF
330
2CEE
100
AcDbEntity
 67
     1
  8
0
 62
     1
100
AcDbPolyline
 90
        2
 70
     1
 43
0.5199938194713205
 10
178.1684970925114
 20
12.09962512678654
 42
1.0
 10
178.6884909119828
 20
12.09962512678654
 42
1.0
  0
LWPOLYLINE
  5
2D00
102
{ACAD_REACTORS
330
2CFB
102
}
330
2CEE
100
AcDbEntity
 67
     1
  8
0
 62
     1
100
AcDbPolyline
 90
        7
 70
     1
 43
0.0
 10
183.6122246189638
 20
8.933127238281983
 42
0.1898212309735227
 10
183.038385736772
 20
9.813694992411306
 42
0.2989352106795207
 10
181.3269206730922
 20
9.649303832430234
 10
181.3269206730922
 20
6.737411717605818
 42
0.2741033349168594
 10
182.8753349192135
 20
6.666462805025961
 42
0.0600684322456349
 10
183.2657642838714
 20
6.96629399468974
 42
0.1241286129052769
 10
183.6127328290073
 20
7.566155516116644
 42
0.0659282931228788
  0
LWPOLYLINE
  5
2D01
102
{ACAD_REACTORS
330
2CFB
102
}
330
2CEE
100
AcDbEntity
 67
     1
  8
0
 62
     1
100
AcDbPolyline
 90
       12
 70
     1
 43
0.0
 10
181.3269206730922
 20
10.64075346765235
 10
181.3269206730922
 20
10.77826047763267
 10
180.1922008356549
 20
10.77826047763267
 10
180.1922008356549
 20
3.799755387185154
 10
181.3492173168779
 20
3.799755387185154
 10
181.3492173168779
 20
5.734822214632103
 42
-0.4980732597277929
 10
181.4639555954105
 20
5.80435064655672
 42
0.1631603344019285
 10
183.1864652238147
 20
5.70595067435121
 42
0.2143211476370474
 10
184.5317686669934
 20
7.118160369270324
 42
0.1454787830754339
 10
184.5671690122602
 20
9.452852759694359
 42
0.209028960994081
 10
183.4179929143287
 20
10.71591071197696
 42
0.2333951007146881
 10
181.4541309634565
 20
10.64075346765236
  0
CIRCLE
  5
2D02
102
{ACAD_REACTORS
330
2CFB
102
}
330
2CEE
100
AcDbEntity
 67
     1
  8
0
 62
     1
100
AcDbCircle
 10
188.398729486691
 20
14.48202895398631
 30
0.0
 40
0.8319801013239141
  0
CIRCLE
  5
2D03
102
{ACAD_REACTORS
330
2CFB
102
}
330
2CEE
100
AcDbEntity
 67
     1
  8
0
 62
     1
100
AcDbCircle
 10
188.398729486691
 20
14.48202895398631
 30
0.0
 40
0.6930222425806165
  0
LWPOLYLINE
  5
2D04
102
{ACAD_REACTORS
330
2CFB
102
}
330
2CEE
100
AcDbEntity
 67
     1
  8
0
 62
     1
100
AcDbPolyline
 90
       10
 70
     1
 43
0.0
 10
188.5749871489375
 20
14.72920109052687
 42
0.2024912017590097
 10
188.4928765106515
 20
14.78863575978702
 10
188.3412479398487
 20
14.78863575978702
 42
0.3605152320615398
 10
188.2730582352929
 20
14.72412753393324
 10
188.2730582352929
 20
14.5952765909802
 42
0.3656960469701174
 10
188.3460633056111
 20
14.51927846821619
 10
188.4969397317304
 20
14.51927846821619
 42
0.143350963341212
 10
188.5775063805282
 20
14.54442567510559
 42
0.2365834905846161
 10
188.5931590162751
 20
14.57619629999332
 10
188.5931590162751
 20
14.67490823679983
 42
0.133951748517549
  0
HATCH
  5
2D05
330
2CEE
100
AcDbEntity
 67
     1
  8
0
 62
     1
100
AcDbHatch
 10
0.0
 20
0.0
 30
0.0
210
0.0
220
0.0
230
1.0
  2
SOLID
 70
     1
 71
     0
 91
        2
 92
        7
 72
     1
 73
     1
 93
       16
 10
188.6343570292176
 20
14.20746020516914
 42
0.0
 10
188.6343570292176
 20
14.04344269414801
 42
0.0
 10
188.7752715668388
 20
14.043442694148
 42
0.0
 10
188.7752715668388
 20
14.29185258888377
 42
0.0878146924641936
 10
188.7212103793381
 20
14.42411548719076
 42
0.1080222927165532
 10
188.7752715668388
 20
14.54460919492257
 42
0.0
 10
188.7752715668388
 20
14.77693979931692
 42
0.192215680109946
 10
188.7229380317306
 20
14.86886648353821
 42
0.171699417140815
 10
188.4261557316127
 20
14.95062377538655
 42
0.0
 10
188.1590317123538
 20
14.95062377538656
 42
0.3983152836439984
 10
188.0891795167577
 20
14.88335522903354
 42
0.0
 10
188.0891795167577
 20
14.043442694148
 42
0.0
 10
188.2485746924039
 20
14.043442694148
 42
0.0
 10
188.2485746924039
 20
14.20396741150131
 42
-0.3680258038893664
 10
188.3510013364867
 20
14.34121969975355
 42
0.0
 10
188.4567423536045
 20
14.34121969975355
 42
-0.3760883100637826
 97
        0
 92
       22
 72
     1
 73
     1
 93
       10
 10
188.4915967925483
 20
14.51927846821619
 42
0.0
 10
188.3630709943212
 20
14.51927846821619
 42
-0.4644547038390189
 10
188.2730582352929
 20
14.60574623298982
 42
0.0
 10
188.2730582352929
 20
14.70635490265327
 42
-0.4700313181861818
 10
188.3508968496409
 20
14.78863575978702
 42
0.0
 10
188.4928765106515
 20
14.78863575978702
 42
-0.2024912017596684
 10
188.5749871489377
 20
14.72920109052658
 42
-0.1629090778538176
 10
188.5931590162751
 20
14.66258826751202
 42
0.0
 10
188.5931590162751
 20
14.57619629999126
 42
-0.2807969913979313
 10
188.5719823350275
 20
14.54091967679401
 42
-0.1413133624004751
 97
        0
 75
     0
 76
     1
 47
0.025620434889365
 98
        2
 10
188.5750173726398
 20
14.44298061465923
 10
188.5750173726398
 20
14.44298061465923
450
        0
451
        0
460
0.0
461
0.0
452
        0
462
0.0
453
        0
470

  0
LWPOLYLINE
  5
2D06
102
{ACAD_REACTORS
330
2CFB
102
}
330
2CEE
100
AcDbEntity
 67
     1
  8
0
 62
     1
100
AcDbPolyline
 90
       17
 70
     0
 43
0.0
 10
188.0891795167577
 20
14.88335522903302
 10
188.0891795167577
 20
14.043442694148
 10
188.2485746924039
 20
14.04344269414801
 10
188.2485746924039
 20
14.22091064536369
 42
-0.3320036502381971
 10
188.3510013364867
 20
14.34121969975355
 10
188.4816798184333
 20
14.34121969975355
 42
-0.3344300509710546
 10
188.6343570292176
 20
14.20746020516917
 10
188.6343570292176
 20
14.04344269414801
 10
188.7752715668388
 20
14.043442694148
 10
188.7752715668388
 20
14.29185258888386
 42
0.0878146924641325
 10
188.7212103793381
 20
14.42411548719077
 42
0.1080222927165679
 10
188.7752715668388
 20
14.54460919492261
 10
188.7752715668388
 20
14.77693979931685
 42
0.2411188226969047
 10
188.7006785950415
 20
14.88345187514104
 42
0.1568897140508559
 10
188.4261557316127
 20
14.95062377538655
 10
188.1590317123538
 20
14.95062377538656
 42
0.4252932903388871
 10
188.0891795167577
 20
14.87685082043922
  0
TEXT
  5
2D07
330
2CEE
100
AcDbEntity
 67
     1
  8
0
 62
     7
100
AcDbText
 10
109.8439966605646
 20
277.6427615215756
 30
0.0
 40
2.872918975993215
  1
01.02.04
  7
Stil1
100
AcDbText
  0
TEXT
  5
2D08
330
2CEE
100
AcDbEntity
 67
     1
  8
0
 62
     7
100
AcDbText
 10
109.8439966605646
 20
273.0276699878348
 30
0.0
 40
2.872918975993215
  1
M 1:5
  7
Stil1
100
AcDbText
  0
TEXT
  5
2D09
330
2CEE
100
AcDbEntity
 67
     1
  8
0
 62
     7
100
AcDbText
 10
179.9147784445747
 20
277.6427615215756
 30
0.0
 40
2.872918975993215
  1
střecha
  7
Stil1
100
AcDbText
  0
TEXT
  5
2D0A
330
2CEE
100
AcDbEntity
 67
     1
  8
0
 62
     7
100
AcDbText
 10
185.5805356958195
 20
273.0276699878348
 30
0.0
 40
2.872918975993215
  1
166
  7
Stil1
100
AcDbText
  0
VIEWPORT
  5
2D0B
330
2CEE
100
AcDbEntity
 67
     1
  8
Mansfen
100
AcDbViewport
 10
101.7050114990868
 20
144.0520291378911
 30
0.0
 40
188.6531088825485
 41
248.0286715940809
 68
     2
 69
     2
 12
485.6702732064321
 22
657.4117827109843
 13
0.0
 23
0.0
 14
10.0
 24
10.0
 15
10.0
 25
10.0
 16
0.0
 26
0.0
 36
1.0
 17
0.0
 27
0.0
 37
0.0
 42
50.0
 43
0.0
 44
0.0
 45
1240.143358893441
 50
0.0
 51
0.0
 72
 20000
 90
    32768
  1

281
     0
 71
     1
 74
     0
110
0.0
120
0.0
130
0.0
111
1.0
121
0.0
131
0.0
112
0.0
122
1.0
132
0.0
 79
     0
146
0.0
170
     0
  0
MTEXT
  5
54B1
102
{ACAD_XDICTIONARY
360
557A
102
}
330
2CEE
100
AcDbEntity
 67
     1
  8
TXT-D
100
AcDbMText
 10
6.403653501616656
 20
16.89789800177374
 30
0.0
 40
2.8
 41
106.1716
 71
     1
 72
     5
  1
{\C7;* Poplastovan\U+00E9 klipsy nejsou vyr\U+00E1b\U+011Bny ve v\U+0161ech rozm\U+011Brech}
  7
ROMANS
 73
     1
 44
1.0
  0
ENDSEC
  0
SECTION
  2
OBJECTS
  0
DICTIONARY
  5
C
330
0
100
AcDbDictionary
281
     1
  3
ACAD_CIP_PREVIOUS_PRODUCT_INFO
350
548E
  3
ACAD_COLOR
350
546F
  3
ACAD_DETAILVIEWSTYLE
350
5488
  3
ACAD_GROUP
350
D
  3
ACAD_IMAGE_DICT
350
6C4
  3
ACAD_IMAGE_VARS
350
6C5
  3
ACAD_LAYOUT
350
5E9
  3
ACAD_MATERIAL
350
543D
  3
ACAD_MLEADERSTYLE
350
5484
  3
ACAD_MLINESTYLE
350
1B
  3
ACAD_PLOTSETTINGS
350
5EA
  3
ACAD_PLOTSTYLENAME
350
5E7
  3
ACAD_SCALELIST
350
5472
  3
ACAD_SECTIONVIEWSTYLE
350
5486
  3
ACAD_TABLESTYLE
350
5470
  3
ACAD_VISUALSTYLE
350
5456
  3
ACDB_RECOMPOSE_DATA
350
5534
  3
AcDbVariableDictionary
350
7F0
  3
AcDsDecomposeData
350
553A
  0
DICTIONARY
  5
5493
330
2
100
AcDbDictionary
280
     1
281
     1
  3
ACAD_LAYERSTATES
360
5494
  0
DICTIONARY
  5
54B2
330
E
100
AcDbDictionary
280
     1
281
     1
  3
ADSK_XREC_LAYER_RECONCILED
360
54B3
  0
DICTIONARY
  5
54B4
330
B7
100
AcDbDictionary
280
     1
281
     1
  3
ADSK_XREC_LAYER_RECONCILED
360
54B5
  0
DICTIONARY
  5
54B6
330
8F4
100
AcDbDictionary
280
     1
281
     1
  3
ADSK_XREC_LAYER_RECONCILED
360
54B7
  0
DICTIONARY
  5
54B8
330
11FF
100
AcDbDictionary
280
     1
281
     1
  3
ADSK_XREC_LAYER_RECONCILED
360
54B9
  0
DICTIONARY
  5
54BA
330
1200
100
AcDbDictionary
280
     1
281
     1
  3
ADSK_XREC_LAYER_RECONCILED
360
54BB
  0
DICTIONARY
  5
54BC
330
1201
100
AcDbDictionary
280
     1
281
     1
  3
ADSK_XREC_LAYER_RECONCILED
360
54BD
  0
DICTIONARY
  5
54BE
330
1202
100
AcDbDictionary
280
     1
281
     1
  3
ADSK_XREC_LAYER_RECONCILED
360
54BF
  0
DICTIONARY
  5
54C0
330
1207
100
AcDbDictionary
280
     1
281
     1
  3
ADSK_XREC_LAYER_RECONCILED
360
54C1
  0
DICTIONARY
  5
54C2
330
27E3
100
AcDbDictionary
280
     1
281
     1
  3
ADSK_XREC_LAYER_RECONCILED
360
54C3
  0
DICTIONARY
  5
54C4
330
27E4
100
AcDbDictionary
280
     1
281
     1
  3
ADSK_XREC_LAYER_RECONCILED
360
54C5
  0
DICTIONARY
  5
54C6
330
28F8
100
AcDbDictionary
280
     1
281
     1
  3
ADSK_XREC_LAYER_RECONCILED
360
54C7
  0
DICTIONARY
  5
54C8
330
2ADA
100
AcDbDictionary
280
     1
281
     1
  3
ADSK_XREC_LAYER_RECONCILED
360
54C9
  0
DICTIONARY
  5
81C
330
18
100
AcDbDictionary
280
     1
281
     1
  3
ACAD_LAYOUTSELFREF
360
2461
  0
DICTIONARY
  5
553D
330
53A4
100
AcDbDictionary
280
     1
281
     1
  3
ACAD_MTEXT_2008_RT
360
553E
  0
DICTIONARY
  5
553F
330
53A5
100
AcDbDictionary
280
     1
281
     1
  3
ACAD_MTEXT_2008_RT
360
5540
  0
DICTIONARY
  5
5541
330
53A6
100
AcDbDictionary
280
     1
281
     1
  3
ACAD_MTEXT_2008_RT
360
5542
  0
DICTIONARY
  5
557A
330
54B1
100
AcDbDictionary
280
     1
281
     1
  3
ACAD_MTEXT_2008_RT
360
557B
  0
XRECORD
  5
548E
102
{ACAD_REACTORS
330
C
102
}
330
C
100
AcDbXrecord
280
     1
300
ACD
300
2013
300
ACD_F_S
  0
DICTIONARY
  5
546F
102
{ACAD_REACTORS
330
C
102
}
330
C
100
AcDbDictionary
281
     1
  0
DICTIONARY
  5
5488
102
{ACAD_REACTORS
330
C
102
}
330
C
100
AcDbDictionary
281
     1
  3
Metric50
350
5489
  0
DICTIONARY
  5
D
102
{ACAD_REACTORS
330
C
102
}
330
C
100
AcDbDictionary
281
     1
  0
DICTIONARY
  5
6C4
102
{ACAD_REACTORS
330
C
102
}
330
C
100
AcDbDictionary
281
     1
  3
Kalzip
350
6C6
  0
RASTERVARIABLES
  5
6C5
102
{ACAD_REACTORS
330
C
102
}
330
C
100
AcDbRasterVariables
 90
        0
 70
     1
 71
     1
 72
     0
  0
DICTIONARY
  5
5E9
102
{ACAD_REACTORS
330
C
102
}
330
C
100
AcDbDictionary
281
     1
  3
A4
350
2CED
  3
Model
350
5EB
  0
DICTIONARY
  5
543D
102
{ACAD_REACTORS
330
C
102
}
330
C
100
AcDbDictionary
281
     1
  3
ByBlock
350
5446
  3
ByLayer
350
543E
  3
Global
350
544E
  0
DICTIONARY
  5
5484
102
{ACAD_REACTORS
330
C
102
}
330
C
100
AcDbDictionary
281
     1
  3
Standard
350
5485
  0
DICTIONARY
  5
1B
102
{ACAD_REACTORS
330
C
102
}
330
C
100
AcDbDictionary
281
     1
  3
STANDARD
350
1C
  0
DICTIONARY
  5
5EA
102
{ACAD_REACTORS
330
C
102
}
330
C
100
AcDbDictionary
281
     1
  3
kzform
350
2C80
  0
ACDBDICTIONARYWDFLT
  5
5E7
102
{ACAD_REACTORS
330
C
102
}
330
C
100
AcDbDictionary
281
     1
  3
Normal
350
5E8
100
AcDbDictionaryWithDefault
340
5E8
  0
DICTIONARY
  5
5472
102
{ACAD_REACTORS
330
C
102
}
330
C
100
AcDbDictionary
281
     1
  3
A0
350
5473
  3
A1
350
5474
  3
A2
350
5475
  3
A3
350
5476
  3
A4
350
5477
  3
A5
350
5478
  3
A6
350
5479
  3
A7
350
547A
  3
A8
350
547B
  3
A9
350
547C
  3
B0
350
547D
  3
B1
350
547E
  3
B2
350
547F
  3
B3
350
5480
  3
B4
350
5481
  3
B5
350
5482
  3
B6
350
5483
  0
DICTIONARY
  5
5486
102
{ACAD_REACTORS
330
C
102
}
330
C
100
AcDbDictionary
281
     1
  3
Metric50
350
5487
  0
DICTIONARY
  5
5470
102
{ACAD_REACTORS
330
C
102
}
330
C
100
AcDbDictionary
281
     1
  3
Standard
350
5471
  0
DICTIONARY
  5
5456
102
{ACAD_REACTORS
330
C
102
}
330
C
100
AcDbDictionary
281
     1
  3
2dWireframe
350
545C
  3
Basic
350
545B
  3
Brighten
350
5462
  3
ColorChange
350
5466
  3
Conceptual
350
545F
  3
Dim
350
5461
  3
EdgeColorOff
350
546E
  3
Facepattern
350
5465
  3
Flat
350
5457
  3
FlatWithEdges
350
5458
  3
Gouraud
350
5459
  3
GouraudWithEdges
350
545A
  3
Hidden
350
545E
  3
JitterOff
350
546C
  3
Linepattern
350
5464
  3
OverhangOff
350
546D
  3
Realistic
350
5460
  3
Shaded
350
546B
  3
Shaded with edges
350
546A
  3
Shades of Gray
350
5467
  3
Sketchy
350
5468
  3
Thicken
350
5463
  3
Wireframe
350
545D
  3
X-Ray
350
5469
  0
XRECORD
  5
5534
102
{ACAD_REACTORS
330
C
102
}
330
C
100
AcDbXrecord
280
     1
 90
        1
330
5471
  0
DICTIONARY
  5
7F0
102
{ACAD_REACTORS
330
C
102
}
330
C
100
AcDbDictionary
281
     1
  3
CANNOSCALE
350
54CF
  3
CMLEADERSTYLE
350
54CB
  3
CTABLESTYLE
350
54CA
  3
CVIEWDETAILSTYLE
350
54CC
  3
CVIEWSECTIONSTYLE
350
54CD
  3
DIMASSOC
350
2AD6
  3
LAYEREVAL
350
54D1
  3
LAYERNOTIFY
350
54D2
  3
LIGHTINGUNITS
350
54D0
  3
MSLTSCALE
350
54CE
  3
SORTENTS
350
7F1
  3
XCLIPFRAME
350
5531
  0
DICTIONARY
  5
553A
102
{ACAD_REACTORS
330
C
102
}
330
C
100
AcDbDictionary
281
     1
  3
AcDsRecords
350
553C
  3
AcDsSchemas
350
553B
1001
ACAD
1070
     2
  0
DICTIONARY
  5
5494
102
{ACAD_REACTORS
330
5493
102
}
330
5493
100
AcDbDictionary
281
     1
  0
XRECORD
  5
54B3
102
{ACAD_REACTORS
330
54B2
102
}
330
54B2
100
AcDbXrecord
280
     1
290
     1
  0
XRECORD
  5
54B5
102
{ACAD_REACTORS
330
54B4
102
}
330
54B4
100
AcDbXrecord
280
     1
290
     1
  0
XRECORD
  5
54B7
102
{ACAD_REACTORS
330
54B6
102
}
330
54B6
100
AcDbXrecord
280
     1
290
     1
  0
XRECORD
  5
54B9
102
{ACAD_REACTORS
330
54B8
102
}
330
54B8
100
AcDbXrecord
280
     1
290
     1
  0
XRECORD
  5
54BB
102
{ACAD_REACTORS
330
54BA
102
}
330
54BA
100
AcDbXrecord
280
     1
290
     1
  0
XRECORD
  5
54BD
102
{ACAD_REACTORS
330
54BC
102
}
330
54BC
100
AcDbXrecord
280
     1
290
     1
  0
XRECORD
  5
54BF
102
{ACAD_REACTORS
330
54BE
102
}
330
54BE
100
AcDbXrecord
280
     1
290
     1
  0
XRECORD
  5
54C1
102
{ACAD_REACTORS
330
54C0
102
}
330
54C0
100
AcDbXrecord
280
     1
290
     1
  0
XRECORD
  5
54C3
102
{ACAD_REACTORS
330
54C2
102
}
330
54C2
100
AcDbXrecord
280
     1
290
     1
  0
XRECORD
  5
54C5
102
{ACAD_REACTORS
330
54C4
102
}
330
54C4
100
AcDbXrecord
280
     1
290
     1
  0
XRECORD
  5
54C7
102
{ACAD_REACTORS
330
54C6
102
}
330
54C6
100
AcDbXrecord
280
     1
290
     1
  0
XRECORD
  5
54C9
102
{ACAD_REACTORS
330
54C8
102
}
330
54C8
100
AcDbXrecord
280
     1
290
     1
  0
XRECORD
  5
2461
102
{ACAD_REACTORS
330
81C
102
}
330
81C
100
AcDbXrecord
280
     1
340
18
  0
XRECORD
  5
553E
102
{ACAD_REACTORS
330
553D
102
}
330
553D
100
AcDbXrecord
280
     1
 40
22174.0
  1
terpelná izolace
  0
XRECORD
  5
5540
102
{ACAD_REACTORS
330
553F
102
}
330
553F
100
AcDbXrecord
280
     1
 40
34054.0
  1
parotěsná vrstva
  0
XRECORD
  5
5542
102
{ACAD_REACTORS
330
5541
102
}
330
5541
100
AcDbXrecord
280
     1
 40
30900.0
  1
trapézový plech
  0
XRECORD
  5
557B
102
{ACAD_REACTORS
330
557A
102
}
330
557A
100
AcDbXrecord
280
     1
 40
350889.0
  1
{\C7;* Poplastované klipsy nejsou vyráběny ve všech rozměrech}
  0
ACDBDETAILVIEWSTYLE
  5
5489
102
{ACAD_REACTORS
330
5488
102
}
330
5488
100
AcDbModelDocViewStyle
 70
     0
  3
Metric50
290
     0
100
AcDbDetailViewStyle
 70
     0
 71
     0
 90
        3
 71
     1
340
F
 62
   256
 40
5.0
340
0
 62
   256
 40
5.0
300

 40
0.0
280
     1
 71
     2
340
14
 90
       25
 62
   256
 71
     3
340
F
 62
   256
 40
5.0
 90
        0
 40
15.0
 90
        1
300
%<\AcVar ViewDetailId>% (%<\AcVar ViewScale \f "%sn">%)
 71
     4
340
14
 90
       25
 62
   256
340
14
 90
       25
 62
   256
280
     0
  0
IMAGEDEF
  5
6C6
102
{ACAD_REACTORS
330
6C4
102
}
330
6C4
100
AcDbRasterImageDef
 90
        0
  1
C:\Kalzip.pcx
 10
944.0
 20
1927.0
 11
0.0010593220338983
 21
0.0010593220338983
280
     1
281
     0
  0
LAYOUT
  5
2CED
102
{ACAD_REACTORS
330
5E9
102
}
330
5E9
100
AcDbPlotSettings
  1

  2
Brother HL-760
  4
A4
  6

 40
6.043083
 41
6.762742
 42
7.736419999999999
 43
5.027069
 44
209.973328
 45
296.968323
 46
0.0
 47
0.0
 48
0.0
 49
0.0
140
210.0
141
297.0
142
1.0
143
1.0
 70
   688
 72
     1
 73
     0
 74
     5
  7
CORUS_Mono.ctb
 75
    16
147
1.0
 76
     0
 77
     2
 78
   300
148
0.0
149
0.0
100
AcDbLayout
  1
A4
 70
     0
 71
     1
 10
-6.043083
 20
-6.762742
 11
203.930245
 21
290.205581
 12
0.0
 22
0.0
 32
0.0
 14
6.281416120989097
 24
2.642657989685733
 34
0.0
 15
196.0315659403611
 25
281.2760437736162
 35
0.0
146
0.0
 13
0.0
 23
0.0
 33
0.0
 16
1.0
 26
0.0
 36
0.0
 17
0.0
 27
1.0
 37
0.0
 76
     0
330
2CEE
331
2CEF
  0
LAYOUT
  5
5EB
102
{ACAD_REACTORS
330
5E9
102
}
330
5E9
100
AcDbPlotSettings
  1

  2
Brother HL-760
  4
A4
  6

 40
6.043083
 41
6.762742
 42
7.736419999999999
 43
5.027069
 44
209.973328
 45
296.968323
 46
0.0
 47
0.0
 48
-700.6503376600335
 49
1018.750009851962
140
278.8888686253531
141
1710.422455908591
142
1.0
143
4.992711703772463
 70
 11952
 72
     1
 73
     0
 74
     4
  7
CORUS_Mono.ctb
 75
     0
147
0.2002919574235392
 76
     0
 77
     2
 78
   300
148
700.6503376600335
149
-1018.750009851962
100
AcDbLayout
  1
Model
 70
     1
 71
     0
 10
0.0
 20
0.0
 11
12.0
 21
9.0
 12
0.0
 22
0.0
 32
0.0
 14
0.0
 24
0.0
 34
0.0
 15
0.0
 25
0.0
 35
0.0
146
0.0
 13
0.0
 23
0.0
 33
0.0
 16
1.0
 26
0.0
 36
0.0
 17
0.0
 27
1.0
 37
0.0
 76
     0
330
18
331
543B
  0
MATERIAL
  5
5446
102
{ACAD_XDICTIONARY
360
5447
102
}
102
{ACAD_REACTORS
330
543D
102
}
330
543D
100
AcDbMaterial
  1
ByBlock
 72
     0
 43
0.0208333333333333
 43
0.0
 43
0.0
 43
0.0
 43
0.0
 43
0.0208333333333333
 43
0.0
 43
0.0
 43
0.0
 43
0.0
 43
1.0
 43
0.0
 43
0.0
 43
0.0
 43
0.0
 43
1.0
 77
     0
 47
0.0208333333333333
 47
0.0
 47
0.0
 47
0.0
 47
0.0
 47
0.0208333333333333
 47
0.0
 47
0.0
 47
0.0
 47
0.0
 47
1.0
 47
0.0
 47
0.0
 47
0.0
 47
0.0
 47
1.0
171
     0
 49
0.0208333333333333
 49
0.0
 49
0.0
 49
0.0
 49
0.0
 49
0.0208333333333333
 49
0.0
 49
0.0
 49
0.0
 49
0.0
 49
1.0
 49
0.0
 49
0.0
 49
0.0
 49
0.0
 49
1.0
175
     0
142
0.0208333333333333
142
0.0
142
0.0
142
0.0
142
0.0
142
0.0208333333333333
142
0.0
142
0.0
142
0.0
142
0.0
142
1.0
142
0.0
142
0.0
142
0.0
142
0.0
142
1.0
179
     0
144
0.0208333333333333
144
0.0
144
0.0
144
0.0
144
0.0
144
0.0208333333333333
144
0.0
144
0.0
144
0.0
144
0.0
144
1.0
144
0.0
144
0.0
144
0.0
144
0.0
144
1.0
147
0.0208333333333333
147
0.0
147
0.0
147
0.0
147
0.0
147
0.0208333333333333
147
0.0
147
0.0
147
0.0
147
0.0
147
1.0
147
0.0
147
0.0
147
0.0
147
0.0
147
1.0
  0
MATERIAL
  5
543E
102
{ACAD_XDICTIONARY
360
543F
102
}
102
{ACAD_REACTORS
330
543D
102
}
330
543D
100
AcDbMaterial
  1
ByLayer
 72
     0
 43
0.0208333333333333
 43
0.0
 43
0.0
 43
0.0
 43
0.0
 43
0.0208333333333333
 43
0.0
 43
0.0
 43
0.0
 43
0.0
 43
1.0
 43
0.0
 43
0.0
 43
0.0
 43
0.0
 43
1.0
 77
     0
 47
0.0208333333333333
 47
0.0
 47
0.0
 47
0.0
 47
0.0
 47
0.0208333333333333
 47
0.0
 47
0.0
 47
0.0
 47
0.0
 47
1.0
 47
0.0
 47
0.0
 47
0.0
 47
0.0
 47
1.0
171
     0
 49
0.0208333333333333
 49
0.0
 49
0.0
 49
0.0
 49
0.0
 49
0.0208333333333333
 49
0.0
 49
0.0
 49
0.0
 49
0.0
 49
1.0
 49
0.0
 49
0.0
 49
0.0
 49
0.0
 49
1.0
175
     0
142
0.0208333333333333
142
0.0
142
0.0
142
0.0
142
0.0
142
0.0208333333333333
142
0.0
142
0.0
142
0.0
142
0.0
142
1.0
142
0.0
142
0.0
142
0.0
142
0.0
142
1.0
179
     0
144
0.0208333333333333
144
0.0
144
0.0
144
0.0
144
0.0
144
0.0208333333333333
144
0.0
144
0.0
144
0.0
144
0.0
144
1.0
144
0.0
144
0.0
144
0.0
144
0.0
144
1.0
147
0.0208333333333333
147
0.0
147
0.0
147
0.0
147
0.0
147
0.0208333333333333
147
0.0
147
0.0
147
0.0
147
0.0
147
1.0
147
0.0
147
0.0
147
0.0
147
0.0
147
1.0
  0
MATERIAL
  5
544E
102
{ACAD_XDICTIONARY
360
544F
102
}
102
{ACAD_REACTORS
330
543D
102
}
330
543D
100
AcDbMaterial
  1
Global
 72
     0
 43
0.0208333333333333
 43
0.0
 43
0.0
 43
0.0
 43
0.0
 43
0.0208333333333333
 43
0.0
 43
0.0
 43
0.0
 43
0.0
 43
1.0
 43
0.0
 43
0.0
 43
0.0
 43
0.0
 43
1.0
 77
     0
 47
0.0208333333333333
 47
0.0
 47
0.0
 47
0.0
 47
0.0
 47
0.0208333333333333
 47
0.0
 47
0.0
 47
0.0
 47
0.0
 47
1.0
 47
0.0
 47
0.0
 47
0.0
 47
0.0
 47
1.0
171
     0
 49
0.0208333333333333
 49
0.0
 49
0.0
 49
0.0
 49
0.0
 49
0.0208333333333333
 49
0.0
 49
0.0
 49
0.0
 49
0.0
 49
1.0
 49
0.0
 49
0.0
 49
0.0
 49
0.0
 49
1.0
175
     0
142
0.0208333333333333
142
0.0
142
0.0
142
0.0
142
0.0
142
0.0208333333333333
142
0.0
142
0.0
142
0.0
142
0.0
142
1.0
142
0.0
142
0.0
142
0.0
142
0.0
142
1.0
179
     0
144
0.0208333333333333
144
0.0
144
0.0
144
0.0
144
0.0
144
0.0208333333333333
144
0.0
144
0.0
144
0.0
144
0.0
144
1.0
144
0.0
144
0.0
144
0.0
144
0.0
144
1.0
147
0.0208333333333333
147
0.0
147
0.0
147
0.0
147
0.0
147
0.0208333333333333
147
0.0
147
0.0
147
0.0
147
0.0
147
1.0
147
0.0
147
0.0
147
0.0
147
0.0
147
1.0
  0
MLEADERSTYLE
  5
5485
102
{ACAD_XDICTIONARY
360
5578
102
}
102
{ACAD_REACTORS
330
5484
102
}
330
5484
100
AcDbMLeaderStyle
170
     2
171
     1
172
     0
 90
        2
 40
0.0
 41
0.0
173
     1
 91
-1056964608
340
12
 92
       -2
290
     1
 42
2.0
291
     1
 43
0.36
  3
Standard
 44
4.0
300

342
F
174
     1
178
     6
175
     1
176
     0
 93
-1056964608
 45
4.0
292
     0
297
     0
 46
4.0
 94
-1056964608
 47
1.0
 49
1.0
140
1.0
293
     1
141
0.0
294
     1
177
     0
142
1.0
295
     0
296
     0
143
0.125
1001
ACAD_MLEADERVER
1070
     2
  0
MLINESTYLE
  5
1C
102
{ACAD_REACTORS
330
1B
102
}
330
1B
100
AcDbMlineStyle
  2
STANDARD
 70
     0
  3

 62
   256
 51
90.0
 52
90.0
 71
     2
 49
0.5
 62
   256
  6
BYLAYER
 49
-0.5
 62
   256
  6
BYLAYER
  0
PLOTSETTINGS
  5
2C80
102
{ACAD_REACTORS
330
5EA
102
}
330
5EA
100
AcDbPlotSettings
  1
kzform
  2
Brother HL-1250 series
  4
A4
  6

 40
6.720416545867919
 41
5.027085304260253
 42
6.889755249023437
 43
5.027069091796875
 44
209.9733276367187
 45
296.9259948730469
 46
0.0
 47
0.0
 48
0.0
 49
22.0
140
199.0
141
309.0
142
1.0
143
1.013428405888407
 70
  1712
 72
     1
 73
     0
 74
     4
  7
CORUS_Mono.ctb
 75
     0
147
0.9867495268433536
 76
     0
 77
     2
 78
   300
148
0.0
149
-22.0
  0
ACDBPLACEHOLDER
  5
5E8
102
{ACAD_REACTORS
330
5E7
102
}
330
5E7
  0
SCALE
  5
5473
102
{ACAD_REACTORS
330
5472
102
}
330
5472
100
AcDbScale
 70
     0
300
1:1
140
1.0
141
1.0
290
     1
  0
SCALE
  5
5474
102
{ACAD_REACTORS
330
5472
102
}
330
5472
100
AcDbScale
 70
     0
300
1:2
140
1.0
141
2.0
290
     0
  0
SCALE
  5
5475
102
{ACAD_REACTORS
330
5472
102
}
330
5472
100
AcDbScale
 70
     0
300
1:4
140
1.0
141
4.0
290
     0
  0
SCALE
  5
5476
102
{ACAD_REACTORS
330
5472
102
}
330
5472
100
AcDbScale
 70
     0
300
1:5
140
1.0
141
5.0
290
     0
  0
SCALE
  5
5477
102
{ACAD_REACTORS
330
5472
102
}
330
5472
100
AcDbScale
 70
     0
300
1:8
140
1.0
141
8.0
290
     0
  0
SCALE
  5
5478
102
{ACAD_REACTORS
330
5472
102
}
330
5472
100
AcDbScale
 70
     0
300
1:10
140
1.0
141
10.0
290
     0
  0
SCALE
  5
5479
102
{ACAD_REACTORS
330
5472
102
}
330
5472
100
AcDbScale
 70
     0
300
1:16
140
1.0
141
16.0
290
     0
  0
SCALE
  5
547A
102
{ACAD_REACTORS
330
5472
102
}
330
5472
100
AcDbScale
 70
     0
300
1:20
140
1.0
141
20.0
290
     0
  0
SCALE
  5
547B
102
{ACAD_REACTORS
330
5472
102
}
330
5472
100
AcDbScale
 70
     0
300
1:30
140
1.0
141
30.0
290
     0
  0
SCALE
  5
547C
102
{ACAD_REACTORS
330
5472
102
}
330
5472
100
AcDbScale
 70
     0
300
1:40
140
1.0
141
40.0
290
     0
  0
SCALE
  5
547D
102
{ACAD_REACTORS
330
5472
102
}
330
5472
100
AcDbScale
 70
     0
300
1:50
140
1.0
141
50.0
290
     0
  0
SCALE
  5
547E
102
{ACAD_REACTORS
330
5472
102
}
330
5472
100
AcDbScale
 70
     0
300
1:100
140
1.0
141
100.0
290
     0
  0
SCALE
  5
547F
102
{ACAD_REACTORS
330
5472
102
}
330
5472
100
AcDbScale
 70
     0
300
2:1
140
2.0
141
1.0
290
     0
  0
SCALE
  5
5480
102
{ACAD_REACTORS
330
5472
102
}
330
5472
100
AcDbScale
 70
     0
300
4:1
140
4.0
141
1.0
290
     0
  0
SCALE
  5
5481
102
{ACAD_REACTORS
330
5472
102
}
330
5472
100
AcDbScale
 70
     0
300
8:1
140
8.0
141
1.0
290
     0
  0
SCALE
  5
5482
102
{ACAD_REACTORS
330
5472
102
}
330
5472
100
AcDbScale
 70
     0
300
10:1
140
10.0
141
1.0
290
     0
  0
SCALE
  5
5483
102
{ACAD_REACTORS
330
5472
102
}
330
5472
100
AcDbScale
 70
     0
300
100:1
140
100.0
141
1.0
290
     0
  0
ACDBSECTIONVIEWSTYLE
  5
5487
102
{ACAD_REACTORS
330
5486
102
}
330
5486
100
AcDbModelDocViewStyle
 70
     0
  3
Metric50
290
     0
100
AcDbSectionViewStyle
 70
     0
 71
     0
 90
      102
 71
     1
340
F
 62
   256
 40
5.0
340
0
340
0
 62
   256
 40
5.0
300
I, O, Q, S, X, Z
 40
10.0
 90
        0
 40
2.5
 90
        0
 71
     2
340
14
 90
       25
 62
   256
340
14
 90
       50
 62
   256
 40
5.0
 40
2.5
 40
5.0
 71
     3
340
F
 62
   256
 40
5.0
 90
        0
 40
15.0
 90
        1
300
%<\AcVar ViewSectionStartId>%-%<\AcVar ViewSectionEndId>% (%<\AcVar ViewScale \f "%sn">%)
 71
     4
 62
   256
 62
   257
300
ANSI31
 40
1.0
 90
        0
290
     0
290
     0
 90
        6
 40
0.0
 40
1.570796326794896
 40
0.2617993877991494
 40
1.308996938995747
 40
-0.2617993877991494
 40
1.832595714594046
  0
TABLESTYLE
  5
5471
102
{ACAD_XDICTIONARY
360
5532
102
}
102
{ACAD_REACTORS
330
5470
102
}
330
5470
100
AcDbTableStyle
  3
Standard
 70
     0
 71
     0
 40
1.5
 41
1.5
280
     0
281
     0
  7
STANDARD
140
4.5
170
     2
 62
     0
 63
     7
283
     0
274
    -2
284
     1
 64
     0
275
    -2
285
     1
 65
     0
276
    -2
286
     1
 66
     0
277
    -2
287
     1
 67
     0
278
    -2
288
     1
 68
     0
279
    -2
289
     1
 69
     0
  7
STANDARD
140
6.0
170
     5
 62
     0
 63
     7
283
     0
274
    -2
284
     1
 64
     0
275
    -2
285
     1
 65
     0
276
    -2
286
     1
 66
     0
277
    -2
287
     1
 67
     0
278
    -2
288
     1
 68
     0
279
    -2
289
     1
 69
     0
  7
STANDARD
140
4.5
170
     5
 62
     0
 63
     7
283
     0
274
    -2
284
     1
 64
     0
275
    -2
285
     1
 65
     0
276
    -2
286
     1
 66
     0
277
    -2
287
     1
 67
     0
278
    -2
288
     1
 68
     0
279
    -2
289
     1
 69
     0
  0
VISUALSTYLE
  5
545C
102
{ACAD_XDICTIONARY
360
5550
102
}
102
{ACAD_REACTORS
330
5456
102
}
330
5456
100
AcDbVisualStyle
  2
2dWireframe
 70
     4
 71
     0
 72
     2
 73
     0
 90
        0
 40
-0.6
 41
-30.0
 62
     5
 63
     7
421
 16777215
 74
     1
 91
        4
 64
     7
 65
   257
 75
     1
175
     1
 42
1.0
 92
        0
 66
   257
 43
1.0
 76
     1
 77
     6
 78
     2
 67
     7
 79
     5
170
     0
171
     0
290
     0
174
     0
 93
        1
 44
0.0
173
     0
291
     0
 45
0.0
1001
ACAD
1000
AcDbSavedByObjectVersion
1070
     0
  0
VISUALSTYLE
  5
545B
102
{ACAD_XDICTIONARY
360
554E
102
}
102
{ACAD_REACTORS
330
5456
102
}
330
5456
100
AcDbVisualStyle
  2
Basic
 70
     7
 71
     1
 72
     0
 73
     1
 90
        0
 40
-0.6
 41
-30.0
 62
     5
 63
     7
421
 16777215
 74
     0
 91
        4
 64
     7
 65
   257
 75
     1
175
     1
 42
1.0
 92
        8
 66
     7
 43
1.0
 76
     1
 77
     6
 78
     2
 67
     7
 79
     5
170
     0
171
     0
290
     0
174
     0
 93
        1
 44
0.0
173
     0
291
     1
 45
0.0
1001
ACAD
1000
AcDbSavedByObjectVersion
1070
     0
  0
VISUALSTYLE
  5
5462
102
{ACAD_XDICTIONARY
360
555C
102
}
102
{ACAD_REACTORS
330
5456
102
}
330
5456
100
AcDbVisualStyle
  2
Brighten
 70
    12
 71
     2
 72
     2
 73
     0
 90
        0
 40
-0.6
 41
-30.0
 62
     5
 63
     7
421
 16777215
 74
     1
 91
        4
 64
     7
 65
   257
 75
     1
175
     1
 42
1.0
 92
        8
 66
     7
 43
1.0
 76
     1
 77
     6
 78
     2
 67
     7
 79
     5
170
     0
171
     0
290
     0
174
     0
 93
        1
 44
50.0
173
     0
291
     1
 45
0.0
1001
ACAD
1000
AcDbSavedByObjectVersion
1070
     0
  0
VISUALSTYLE
  5
5466
102
{ACAD_XDICTIONARY
360
5564
102
}
102
{ACAD_REACTORS
330
5456
102
}
330
5456
100
AcDbVisualStyle
  2
ColorChange
 70
    16
 71
     2
 72
     2
 73
     3
 90
        0
 40
-0.6
 41
-30.0
 62
     5
 63
     8
421
  8421504
 74
     1
 91
        4
 64
     7
 65
   257
 75
     1
175
     1
 42
1.0
 92
        8
 66
     8
424
  8421504
 43
1.0
 76
     1
 77
     6
 78
     2
 67
     7
 79
     5
170
     0
171
     0
290
     0
174
     0
 93
        1
 44
0.0
173
     0
291
     1
 45
0.0
1001
ACAD
1000
AcDbSavedByObjectVersion
1070
     0
  0
VISUALSTYLE
  5
545F
102
{ACAD_XDICTIONARY
360
5556
102
}
102
{ACAD_REACTORS
330
5456
102
}
330
5456
100
AcDbVisualStyle
  2
Conceptual
 70
     9
 71
     3
 72
     2
 73
     0
 90
        0
 40
-0.6
 41
-30.0
 62
     5
 63
     7
421
 16777215
 74
     2
 91
        2
 64
     7
 65
   257
 75
     1
175
     1
 42
179.0
 92
        8
 66
     7
 43
1.0
 76
     1
 77
     6
 78
     2
 67
     7
 79
     3
170
     0
171
     0
290
     0
174
     0
 93
        1
 44
0.0
173
     0
291
     0
 45
0.0
1001
ACAD
1000
AcDbSavedByObjectVersion
1070
     0
  0
VISUALSTYLE
  5
5461
102
{ACAD_XDICTIONARY
360
555A
102
}
102
{ACAD_REACTORS
330
5456
102
}
330
5456
100
AcDbVisualStyle
  2
Dim
 70
    11
 71
     2
 72
     2
 73
     0
 90
        0
 40
-0.6
 41
-30.0
 62
     5
 63
     7
421
 16777215
 74
     1
 91
        4
 64
     7
 65
   257
 75
     1
175
     1
 42
1.0
 92
        8
 66
     7
 43
1.0
 76
     1
 77
     6
 78
     2
 67
     7
 79
     5
170
     0
171
     0
290
     0
174
     0
 93
        1
 44
-50.0
173
     0
291
     1
 45
0.0
1001
ACAD
1000
AcDbSavedByObjectVersion
1070
     0
  0
VISUALSTYLE
  5
546E
102
{ACAD_XDICTIONARY
360
5574
102
}
102
{ACAD_REACTORS
330
5456
102
}
330
5456
100
AcDbVisualStyle
  2
EdgeColorOff
 70
    22
 71
     2
 72
     2
 73
     0
 90
        0
 40
-0.6
 41
-30.0
 62
     5
 63
     7
421
 16777215
 74
     1
 91
        4
 64
     7
 65
   257
 75
     1
175
     1
 42
1.0
 92
        8
 66
     7
 43
1.0
 76
     1
 77
     6
 78
     2
 67
     7
 79
     5
170
     0
171
     0
290
     0
174
     0
 93
        1
 44
0.0
173
     0
291
     1
 45
0.0
1001
ACAD
1000
AcDbSavedByObjectVersion
1070
     0
  0
VISUALSTYLE
  5
5465
102
{ACAD_XDICTIONARY
360
5562
102
}
102
{ACAD_REACTORS
330
5456
102
}
330
5456
100
AcDbVisualStyle
  2
Facepattern
 70
    15
 71
     2
 72
     2
 73
     0
 90
        0
 40
-0.6
 41
-30.0
 62
     5
 63
     7
421
 16777215
 74
     1
 91
        4
 64
     7
 65
   257
 75
     1
175
     1
 42
1.0
 92
        8
 66
     7
 43
1.0
 76
     1
 77
     6
 78
     2
 67
     7
 79
     5
170
     0
171
     0
290
     0
174
     0
 93
        1
 44
0.0
173
     0
291
     1
 45
0.0
1001
ACAD
1000
AcDbSavedByObjectVersion
1070
     0
  0
VISUALSTYLE
  5
5457
102
{ACAD_XDICTIONARY
360
5546
102
}
102
{ACAD_REACTORS
330
5456
102
}
330
5456
100
AcDbVisualStyle
  2
Flat
 70
     0
 71
     2
 72
     1
 73
     1
 90
        2
 40
-0.6
 41
30.0
 62
     5
 63
     7
421
 16777215
 74
     0
 91
        0
 64
     7
 65
   257
 75
     1
175
     1
 42
1.0
 92
        8
 66
     7
 43
1.0
 76
     1
 77
     6
 78
     2
 67
     7
 79
     5
170
     0
171
     0
290
     0
174
     0
 93
       13
 44
0.0
173
     0
291
     1
 45
0.0
1001
ACAD
1000
AcDbSavedByObjectVersion
1070
     0
  0
VISUALSTYLE
  5
5458
102
{ACAD_XDICTIONARY
360
5548
102
}
102
{ACAD_REACTORS
330
5456
102
}
330
5456
100
AcDbVisualStyle
  2
FlatWithEdges
 70
     1
 71
     2
 72
     1
 73
     1
 90
        2
 40
-0.6
 41
30.0
 62
     5
 63
     7
421
 16777215
 74
     1
 91
        0
 64
     7
 65
   257
 75
     1
175
     1
 42
1.0
 92
        0
 66
   257
 43
1.0
 76
     1
 77
     6
 78
     2
 67
     7
 79
     5
170
     0
171
     0
290
     0
174
     0
 93
       13
 44
0.0
173
     0
291
     1
 45
0.0
1001
ACAD
1000
AcDbSavedByObjectVersion
1070
     0
  0
VISUALSTYLE
  5
5459
102
{ACAD_XDICTIONARY
360
554A
102
}
102
{ACAD_REACTORS
330
5456
102
}
330
5456
100
AcDbVisualStyle
  2
Gouraud
 70
     2
 71
     2
 72
     2
 73
     1
 90
        2
 40
-0.6
 41
30.0
 62
     5
 63
     7
421
 16777215
 74
     0
 91
        0
 64
     7
 65
   257
 75
     1
175
     1
 42
1.0
 92
        0
 66
     7
 43
1.0
 76
     1
 77
     6
 78
     2
 67
     7
 79
     5
170
     0
171
     0
290
     0
174
     0
 93
       13
 44
0.0
173
     0
291
     1
 45
0.0
1001
ACAD
1000
AcDbSavedByObjectVersion
1070
     0
  0
VISUALSTYLE
  5
545A
102
{ACAD_XDICTIONARY
360
554C
102
}
102
{ACAD_REACTORS
330
5456
102
}
330
5456
100
AcDbVisualStyle
  2
GouraudWithEdges
 70
     3
 71
     2
 72
     2
 73
     1
 90
        2
 40
-0.6
 41
30.0
 62
     5
 63
     7
421
 16777215
 74
     1
 91
        0
 64
     7
 65
   257
 75
     1
175
     1
 42
1.0
 92
        0
 66
   257
 43
1.0
 76
     1
 77
     6
 78
     2
 67
     7
 79
     5
170
     0
171
     0
290
     0
174
     0
 93
       13
 44
0.0
173
     0
291
     1
 45
0.0
1001
ACAD
1000
AcDbSavedByObjectVersion
1070
     0
  0
VISUALSTYLE
  5
545E
102
{ACAD_XDICTIONARY
360
5554
102
}
102
{ACAD_REACTORS
330
5456
102
}
330
5456
100
AcDbVisualStyle
  2
Hidden
 70
     6
 71
     1
 72
     2
 73
     2
 90
        0
 40
-0.6
 41
-30.0
 62
     5
 63
     7
421
 16777215
 74
     2
 91
        2
 64
     7
 65
   257
 75
     2
175
     1
 42
40.0
 92
        0
 66
   257
 43
1.0
 76
     1
 77
     6
 78
     2
 67
     7
 79
     3
170
     0
171
     0
290
     0
174
     0
 93
        1
 44
0.0
173
     0
291
     0
 45
0.0
1001
ACAD
1000
AcDbSavedByObjectVersion
1070
     0
  0
VISUALSTYLE
  5
546C
102
{ACAD_XDICTIONARY
360
5570
102
}
102
{ACAD_REACTORS
330
5456
102
}
330
5456
100
AcDbVisualStyle
  2
JitterOff
 70
    20
 71
     2
 72
     2
 73
     0
 90
        0
 40
-0.6
 41
-30.0
 62
     5
 63
     7
421
 16777215
 74
     1
 91
        4
 64
     7
 65
   257
 75
     1
175
     1
 42
1.0
 92
       10
 66
     7
 43
1.0
 76
     1
 77
     6
 78
     2
 67
     7
 79
     5
170
     0
171
     0
290
     0
174
     0
 93
        1
 44
0.0
173
     0
291
     1
 45
0.0
1001
ACAD
1000
AcDbSavedByObjectVersion
1070
     0
  0
VISUALSTYLE
  5
5464
102
{ACAD_XDICTIONARY
360
5560
102
}
102
{ACAD_REACTORS
330
5456
102
}
330
5456
100
AcDbVisualStyle
  2
Linepattern
 70
    14
 71
     2
 72
     2
 73
     0
 90
        0
 40
-0.6
 41
-30.0
 62
     5
 63
     7
421
 16777215
 74
     1
 91
        4
 64
     7
 65
   257
 75
     7
175
     7
 42
1.0
 92
        8
 66
     7
 43
1.0
 76
     1
 77
     6
 78
     2
 67
     7
 79
     5
170
     0
171
     0
290
     0
174
     0
 93
        1
 44
0.0
173
     0
291
     1
 45
0.0
1001
ACAD
1000
AcDbSavedByObjectVersion
1070
     0
  0
VISUALSTYLE
  5
546D
102
{ACAD_XDICTIONARY
360
5572
102
}
102
{ACAD_REACTORS
330
5456
102
}
330
5456
100
AcDbVisualStyle
  2
OverhangOff
 70
    21
 71
     2
 72
     2
 73
     0
 90
        0
 40
-0.6
 41
-30.0
 62
     5
 63
     7
421
 16777215
 74
     1
 91
        4
 64
     7
 65
   257
 75
     1
175
     1
 42
1.0
 92
        9
 66
     7
 43
1.0
 76
     1
 77
     6
 78
     2
 67
     7
 79
     5
170
     0
171
     0
290
     0
174
     0
 93
        1
 44
0.0
173
     0
291
     1
 45
0.0
1001
ACAD
1000
AcDbSavedByObjectVersion
1070
     0
  0
VISUALSTYLE
  5
5460
102
{ACAD_XDICTIONARY
360
5558
102
}
102
{ACAD_REACTORS
330
5456
102
}
330
5456
100
AcDbVisualStyle
  2
Realistic
 70
     8
 71
     2
 72
     3
 73
     0
 90
        2
 40
-0.6
 41
30.0
 62
     5
 63
     7
421
 16777215
 74
     0
 91
        0
 64
     7
 65
   257
 75
     1
175
     1
 42
1.0
 92
        8
 66
   257
 43
1.0
 76
     1
 77
     6
 78
     2
 67
     7
 79
     3
170
     0
171
     0
290
     0
174
     0
 93
       13
 44
0.0
173
     0
291
     0
 45
0.0
1001
ACAD
1000
AcDbSavedByObjectVersion
1070
     0
  0
VISUALSTYLE
  5
546B
102
{ACAD_XDICTIONARY
360
556E
102
}
102
{ACAD_REACTORS
330
5456
102
}
330
5456
100
AcDbVisualStyle
  2
Shaded
 70
    27
 71
     2
 72
     2
 73
     1
 90
        2
 40
-0.6
 41
30.0
 62
     5
 63
     7
421
 16777215
 74
     0
 91
        4
 64
     7
 65
   257
 75
     1
175
     1
 42
1.0
 92
        8
 66
   257
 43
1.0
 76
     1
 77
     6
 78
     2
 67
     8
425
  7895160
 79
     3
170
     0
171
     0
290
     0
174
     0
 93
        5
 44
0.0
173
     0
291
     0
 45
0.0
1001
ACAD
1000
AcDbSavedByObjectVersion
1070
     0
  0
VISUALSTYLE
  5
546A
102
{ACAD_XDICTIONARY
360
556C
102
}
102
{ACAD_REACTORS
330
5456
102
}
330
5456
100
AcDbVisualStyle
  2
Shaded with edges
 70
    26
 71
     2
 72
     2
 73
     1
 90
        2
 40
-0.6
 41
30.0
 62
     5
 63
     7
421
 16777215
 74
     1
 91
       10
 64
     7
 65
   257
 75
     2
175
     1
 42
1.0
 92
        8
 66
   257
 43
1.0
 76
     1
 77
     6
 78
     2
 67
     7
 79
     3
170
     0
171
     0
290
     0
174
     0
 93
        5
 44
0.0
173
     0
291
     0
 45
0.0
1001
ACAD
1000
AcDbSavedByObjectVersion
1070
     0
  0
VISUALSTYLE
  5
5467
102
{ACAD_XDICTIONARY
360
5566
102
}
102
{ACAD_REACTORS
330
5456
102
}
330
5456
100
AcDbVisualStyle
  2
Shades of Gray
 70
    23
 71
     2
 72
     2
 73
     3
 90
        0
 40
-0.6
 41
-30.0
 62
     5
 63
     7
421
 16777215
 74
     2
 91
        2
 64
     7
 65
     7
 75
     1
175
     1
 42
40.0
 92
        8
 66
     7
 43
1.0
 76
     1
 77
     6
 78
     2
 67
     7
 79
     3
170
     0
171
     0
290
     0
174
     0
 93
        1
 44
0.0
173
     0
291
     0
 45
0.0
1001
ACAD
1000
AcDbSavedByObjectVersion
1070
     0
  0
VISUALSTYLE
  5
5468
102
{ACAD_XDICTIONARY
360
5568
102
}
102
{ACAD_REACTORS
330
5456
102
}
330
5456
100
AcDbVisualStyle
  2
Sketchy
 70
    24
 71
     1
 72
     2
 73
     2
 90
        0
 40
-0.6
 41
-30.0
 62
     5
 63
     7
421
 16777215
 74
     2
 91
        2
 64
     7
 65
     7
 75
     1
175
     1
 42
40.0
 92
       11
 66
     7
 43
1.0
 76
     1
 77
     6
 78
     2
 67
     7
 79
     6
170
     0
171
     0
290
     0
174
     0
 93
        1
 44
0.0
173
     0
291
     0
 45
0.0
1001
ACAD
1000
AcDbSavedByObjectVersion
1070
     0
  0
VISUALSTYLE
  5
5463
102
{ACAD_XDICTIONARY
360
555E
102
}
102
{ACAD_REACTORS
330
5456
102
}
330
5456
100
AcDbVisualStyle
  2
Thicken
 70
    13
 71
     2
 72
     2
 73
     0
 90
        0
 40
-0.6
 41
-30.0
 62
     5
 63
     7
421
 16777215
 74
     1
 91
        4
 64
     7
 65
   257
 75
     1
175
     1
 42
1.0
 92
       12
 66
     7
 43
1.0
 76
     1
 77
     6
 78
     2
 67
     7
 79
     5
170
     0
171
     0
290
     0
174
     0
 93
        1
 44
0.0
173
     0
291
     1
 45
0.0
1001
ACAD
1000
AcDbSavedByObjectVersion
1070
     0
  0
VISUALSTYLE
  5
545D
102
{ACAD_XDICTIONARY
360
5552
102
}
102
{ACAD_REACTORS
330
5456
102
}
330
5456
100
AcDbVisualStyle
  2
Wireframe
 70
     5
 71
     0
 72
     2
 73
     0
 90
        0
 40
-0.6
 41
-30.0
 62
     5
 63
     7
421
 16777215
 74
     1
 91
        4
 64
     7
 65
   257
 75
     1
175
     1
 42
1.0
 92
        0
 66
   257
 43
1.0
 76
     1
 77
     6
 78
     2
 67
     7
 79
     3
170
     0
171
     0
290
     0
174
     0
 93
        1
 44
0.0
173
     0
291
     0
 45
0.0
1001
ACAD
1000
AcDbSavedByObjectVersion
1070
     0
  0
VISUALSTYLE
  5
5469
102
{ACAD_XDICTIONARY
360
556A
102
}
102
{ACAD_REACTORS
330
5456
102
}
330
5456
100
AcDbVisualStyle
  2
X-Ray
 70
    25
 71
     2
 72
     2
 73
     1
 90
        1
 40
0.5
 41
-30.0
 62
     5
 63
     7
421
 16777215
 74
     1
 91
        0
 64
     7
 65
   257
 75
     1
175
     1
 42
1.0
 92
        8
 66
     7
 43
1.0
 76
     1
 77
     6
 78
     2
 67
     7
 79
     3
170
     0
171
     0
290
     0
174
     0
 93
       13
 44
0.0
173
     0
291
     0
 45
0.0
1001
ACAD
1000
AcDbSavedByObjectVersion
1070
     0
  0
DICTIONARYVAR
  5
54CF
102
{ACAD_REACTORS
330
7F0
102
}
330
7F0
100
DictionaryVariables
280
     0
  1
1:1
  0
DICTIONARYVAR
  5
54CB
102
{ACAD_REACTORS
330
7F0
102
}
330
7F0
100
DictionaryVariables
280
     0
  1
STANDARD
  0
DICTIONARYVAR
  5
54CA
102
{ACAD_REACTORS
330
7F0
102
}
330
7F0
100
DictionaryVariables
280
     0
  1
STANDARD
  0
DICTIONARYVAR
  5
54CC
102
{ACAD_REACTORS
330
7F0
102
}
330
7F0
100
DictionaryVariables
280
     0
  1
Metric50
  0
DICTIONARYVAR
  5
54CD
102
{ACAD_REACTORS
330
7F0
102
}
330
7F0
100
DictionaryVariables
280
     0
  1
Metric50
  0
DICTIONARYVAR
  5
2AD6
102
{ACAD_REACTORS
330
7F0
102
}
330
7F0
100
DictionaryVariables
280
     0
  1
1
  0
DICTIONARYVAR
  5
54D1
102
{ACAD_REACTORS
330
7F0
102
}
330
7F0
100
DictionaryVariables
280
     0
  1
1
  0
DICTIONARYVAR
  5
54D2
102
{ACAD_REACTORS
330
7F0
102
}
330
7F0
100
DictionaryVariables
280
     0
  1
15
  0
DICTIONARYVAR
  5
54D0
102
{ACAD_REACTORS
330
7F0
102
}
330
7F0
100
DictionaryVariables
280
     0
  1
0
  0
DICTIONARYVAR
  5
54CE
102
{ACAD_REACTORS
330
7F0
102
}
330
7F0
100
DictionaryVariables
280
     0
  1
0
  0
DICTIONARYVAR
  5
7F1
102
{ACAD_REACTORS
330
7F0
102
}
330
7F0
100
DictionaryVariables
280
     0
  1
96
  0
DICTIONARYVAR
  5
5531
102
{ACAD_REACTORS
330
7F0
102
}
330
7F0
100
DictionaryVariables
280
     0
  1
2
  0
DICTIONARY
  5
553C
102
{ACAD_REACTORS
330
553A
102
}
330
553A
100
AcDbDictionary
281
     1
  0
DICTIONARY
  5
553B
102
{ACAD_REACTORS
330
553A
102
}
330
553A
100
AcDbDictionary
281
     1
  3
140695674237136
350
5535
  3
140695674237152
350
5536
  3
140695674237168
350
5537
  3
140695674237184
350
5538
  3
140695674237200
350
5539
  0
DICTIONARY
  5
5447
330
5446
100
AcDbDictionary
280
     1
281
     1
  3
ACAD_XREC_ROUNDTRIP
360
5544
  3
BUMPTILE
360
5449
  3
DIFFUSETILE
360
5448
  3
OPACITYTILE
360
544C
  3
REFLECTIONTILE
360
544B
  3
REFRACTIONTILE
360
544D
  3
SPECULARTILE
360
544A
  0
DICTIONARY
  5
543F
330
543E
100
AcDbDictionary
280
     1
281
     1
  3
ACAD_XREC_ROUNDTRIP
360
5543
  3
BUMPTILE
360
5441
  3
DIFFUSETILE
360
5440
  3
OPACITYTILE
360
5444
  3
REFLECTIONTILE
360
5443
  3
REFRACTIONTILE
360
5445
  3
SPECULARTILE
360
5442
  0
DICTIONARY
  5
544F
330
544E
100
AcDbDictionary
280
     1
281
     1
  3
ACAD_XREC_ROUNDTRIP
360
5545
  3
BUMPTILE
360
5451
  3
DIFFUSETILE
360
5450
  3
OPACITYTILE
360
5454
  3
REFLECTIONTILE
360
5453
  3
REFRACTIONTILE
360
5455
  3
SPECULARTILE
360
5452
  0
DICTIONARY
  5
5578
330
5485
100
AcDbDictionary
280
     1
281
     1
  3
ACAD_XREC_ROUNDTRIP
360
5579
  0
DICTIONARY
  5
5532
330
5471
100
AcDbDictionary
280
     1
281
     1
  3
ACAD_ROUNDTRIP_2008_TABLESTYLE_CELLSTYLEMAP
360
5533
  3
ACAD_XREC_ROUNDTRIP
360
5576
  0
DICTIONARY
  5
5550
330
545C
100
AcDbDictionary
280
     1
281
     1
  3
ACAD_XREC_ROUNDTRIP
360
5551
  0
DICTIONARY
  5
554E
330
545B
100
AcDbDictionary
280
     1
281
     1
  3
ACAD_XREC_ROUNDTRIP
360
554F
  0
DICTIONARY
  5
555C
330
5462
100
AcDbDictionary
280
     1
281
     1
  3
ACAD_XREC_ROUNDTRIP
360
555D
  0
DICTIONARY
  5
5564
330
5466
100
AcDbDictionary
280
     1
281
     1
  3
ACAD_XREC_ROUNDTRIP
360
5565
  0
DICTIONARY
  5
5556
330
545F
100
AcDbDictionary
280
     1
281
     1
  3
ACAD_XREC_ROUNDTRIP
360
5557
  0
DICTIONARY
  5
555A
330
5461
100
AcDbDictionary
280
     1
281
     1
  3
ACAD_XREC_ROUNDTRIP
360
555B
  0
DICTIONARY
  5
5574
330
546E
100
AcDbDictionary
280
     1
281
     1
  3
ACAD_XREC_ROUNDTRIP
360
5575
  0
DICTIONARY
  5
5562
330
5465
100
AcDbDictionary
280
     1
281
     1
  3
ACAD_XREC_ROUNDTRIP
360
5563
  0
DICTIONARY
  5
5546
330
5457
100
AcDbDictionary
280
     1
281
     1
  3
ACAD_XREC_ROUNDTRIP
360
5547
  0
DICTIONARY
  5
5548
330
5458
100
AcDbDictionary
280
     1
281
     1
  3
ACAD_XREC_ROUNDTRIP
360
5549
  0
DICTIONARY
  5
554A
330
5459
100
AcDbDictionary
280
     1
281
     1
  3
ACAD_XREC_ROUNDTRIP
360
554B
  0
DICTIONARY
  5
554C
330
545A
100
AcDbDictionary
280
     1
281
     1
  3
ACAD_XREC_ROUNDTRIP
360
554D
  0
DICTIONARY
  5
5554
330
545E
100
AcDbDictionary
280
     1
281
     1
  3
ACAD_XREC_ROUNDTRIP
360
5555
  0
DICTIONARY
  5
5570
330
546C
100
AcDbDictionary
280
     1
281
     1
  3
ACAD_XREC_ROUNDTRIP
360
5571
  0
DICTIONARY
  5
5560
330
5464
100
AcDbDictionary
280
     1
281
     1
  3
ACAD_XREC_ROUNDTRIP
360
5561
  0
DICTIONARY
  5
5572
330
546D
100
AcDbDictionary
280
     1
281
     1
  3
ACAD_XREC_ROUNDTRIP
360
5573
  0
DICTIONARY
  5
5558
330
5460
100
AcDbDictionary
280
     1
281
     1
  3
ACAD_XREC_ROUNDTRIP
360
5559
  0
DICTIONARY
  5
556E
330
546B
100
AcDbDictionary
280
     1
281
     1
  3
ACAD_XREC_ROUNDTRIP
360
556F
  0
DICTIONARY
  5
556C
330
546A
100
AcDbDictionary
280
     1
281
     1
  3
ACAD_XREC_ROUNDTRIP
360
556D
  0
DICTIONARY
  5
5566
330
5467
100
AcDbDictionary
280
     1
281
     1
  3
ACAD_XREC_ROUNDTRIP
360
5567
  0
DICTIONARY
  5
5568
330
5468
100
AcDbDictionary
280
     1
281
     1
  3
ACAD_XREC_ROUNDTRIP
360
5569
  0
DICTIONARY
  5
555E
330
5463
100
AcDbDictionary
280
     1
281
     1
  3
ACAD_XREC_ROUNDTRIP
360
555F
  0
DICTIONARY
  5
5552
330
545D
100
AcDbDictionary
280
     1
281
     1
  3
ACAD_XREC_ROUNDTRIP
360
5553
  0
DICTIONARY
  5
556A
330
5469
100
AcDbDictionary
280
     1
281
     1
  3
ACAD_XREC_ROUNDTRIP
360
556B
  0
XRECORD
  5
5535
102
{ACAD_REACTORS
330
553B
102
}
330
553B
100
AcDbXrecord
280
     1
  1
AcDb_Thumbnail_Schema
102
{ATTRRECORD
341
5536
  2
AcDbDs::TreatedAsObjectData
280
     1
291
     1
102
ATTRRECORD}
102
{ATTRRECORD
341
5537
  2
AcDbDs::Legacy
280
     1
291
     1
102
ATTRRECORD}
  2
AcDbDs::ID
280
    10
 91
        8
102
{ATTRRECORD
341
5538
  2
AcDs:Indexable
280
     1
291
     1
102
ATTRRECORD}
102
{ATTRRECORD
341
5539
  2
AcDbDs::HandleAttribute
280
     7
282
     1
102
ATTRRECORD}
  2
Thumbnail_Data
280
    15
 91
        0
  0
XRECORD
  5
5536
102
{ACAD_REACTORS
330
553B
102
}
330
553B
100
AcDbXrecord
280
     1
  1
AcDbDs::TreatedAsObjectDataSchema
  2
AcDbDs::TreatedAsObjectData
280
     1
 91
        0
  0
XRECORD
  5
5537
102
{ACAD_REACTORS
330
553B
102
}
330
553B
100
AcDbXrecord
280
     1
  1
AcDbDs::LegacySchema
  2
AcDbDs::Legacy
280
     1
 91
        0
  0
XRECORD
  5
5538
102
{ACAD_REACTORS
330
553B
102
}
330
553B
100
AcDbXrecord
280
     1
  1
AcDbDs::IndexedPropertySchema
  2
AcDs:Indexable
280
     1
 91
        0
  0
XRECORD
  5
5539
102
{ACAD_REACTORS
330
553B
102
}
330
553B
100
AcDbXrecord
280
     1
  1
AcDbDs::HandleAttributeSchema
  2
AcDbDs::HandleAttribute
280
     7
 91
        1
284
     1
  0
XRECORD
  5
5544
102
{ACAD_REACTORS
330
5447
102
}
330
5447
100
AcDbXrecord
280
     1
102
MATERIAL
148
0.0
149
0.0
149
0.0
 93
        0
 94
      127
282
     0
 72
     0
 77
     0
171
     0
175
     0
179
     0
273
     0
  0
XRECORD
  5
5449
102
{ACAD_REACTORS
330
5447
102
}
330
5447
100
AcDbXrecord
280
     1
270
     1
271
     1
  0
XRECORD
  5
5448
102
{ACAD_REACTORS
330
5447
102
}
330
5447
100
AcDbXrecord
280
     1
270
     1
271
     1
  0
XRECORD
  5
544C
102
{ACAD_REACTORS
330
5447
102
}
330
5447
100
AcDbXrecord
280
     1
270
     1
271
     1
  0
XRECORD
  5
544B
102
{ACAD_REACTORS
330
5447
102
}
330
5447
100
AcDbXrecord
280
     1
270
     1
271
     1
  0
XRECORD
  5
544D
102
{ACAD_REACTORS
330
5447
102
}
330
5447
100
AcDbXrecord
280
     1
270
     1
271
     1
  0
XRECORD
  5
544A
102
{ACAD_REACTORS
330
5447
102
}
330
5447
100
AcDbXrecord
280
     1
270
     1
271
     1
  0
XRECORD
  5
5543
102
{ACAD_REACTORS
330
543F
102
}
330
543F
100
AcDbXrecord
280
     1
102
MATERIAL
148
0.0
149
0.0
149
0.0
 93
        0
 94
      127
282
     0
 72
     0
 77
     0
171
     0
175
     0
179
     0
273
     0
  0
XRECORD
  5
5441
102
{ACAD_REACTORS
330
543F
102
}
330
543F
100
AcDbXrecord
280
     1
270
     1
271
     1
  0
XRECORD
  5
5440
102
{ACAD_REACTORS
330
543F
102
}
330
543F
100
AcDbXrecord
280
     1
270
     1
271
     1
  0
XRECORD
  5
5444
102
{ACAD_REACTORS
330
543F
102
}
330
543F
100
AcDbXrecord
280
     1
270
     1
271
     1
  0
XRECORD
  5
5443
102
{ACAD_REACTORS
330
543F
102
}
330
543F
100
AcDbXrecord
280
     1
270
     1
271
     1
  0
XRECORD
  5
5445
102
{ACAD_REACTORS
330
543F
102
}
330
543F
100
AcDbXrecord
280
     1
270
     1
271
     1
  0
XRECORD
  5
5442
102
{ACAD_REACTORS
330
543F
102
}
330
543F
100
AcDbXrecord
280
     1
270
     1
271
     1
  0
XRECORD
  5
5545
102
{ACAD_REACTORS
330
544F
102
}
330
544F
100
AcDbXrecord
280
     1
102
MATERIAL
148
0.0
149
0.0
149
0.0
 93
        0
 94
      127
282
     0
 72
     0
 77
     0
171
     0
175
     0
179
     0
273
     0
  0
XRECORD
  5
5451
102
{ACAD_REACTORS
330
544F
102
}
330
544F
100
AcDbXrecord
280
     1
270
     1
271
     1
  0
XRECORD
  5
5450
102
{ACAD_REACTORS
330
544F
102
}
330
544F
100
AcDbXrecord
280
     1
270
     1
271
     1
  0
XRECORD
  5
5454
102
{ACAD_REACTORS
330
544F
102
}
330
544F
100
AcDbXrecord
280
     1
270
     1
271
     1
  0
XRECORD
  5
5453
102
{ACAD_REACTORS
330
544F
102
}
330
544F
100
AcDbXrecord
280
     1
270
     1
271
     1
  0
XRECORD
  5
5455
102
{ACAD_REACTORS
330
544F
102
}
330
544F
100
AcDbXrecord
280
     1
270
     1
271
     1
  0
XRECORD
  5
5452
102
{ACAD_REACTORS
330
544F
102
}
330
544F
100
AcDbXrecord
280
     1
270
     1
271
     1
  0
XRECORD
  5
5579
102
{ACAD_REACTORS
330
5578
102
}
330
5578
100
AcDbXrecord
280
     1
102
ACAD_ROUNDTRIP_2012_MLEADER_STYLE
298
     1
  0
CELLSTYLEMAP
  5
5533
102
{ACAD_REACTORS
330
5532
102
}
330
5532
100
AcDbCellStyleMap
 90
        3
300
CELLSTYLE
  1
TABLEFORMAT_BEGIN
 90
        5
170
     1
 91
        0
 92
    32768
 62
   257
 93
        1
300
CONTENTFORMAT
  1
CONTENTFORMAT_BEGIN
 90
        0
 91
        0
 92
      512
 93
        0
300

 40
0.0
140
1.0
 94
        5
 62
     0
340
F
144
6.0
309
CONTENTFORMAT_END
171
     1
301
MARGIN
  1
CELLMARGIN_BEGIN
 40
1.5
 40
1.5
 40
1.5
 40
1.5
 40
4.5
 40
4.5
309
CELLMARGIN_END
 94
        6
 95
        1
302
GRIDFORMAT
  1
GRIDFORMAT_BEGIN
 90
        0
 91
        1
 62
     0
 92
       -2
340
0
 93
        0
 40
1.125
309
GRIDFORMAT_END
 95
        2
302
GRIDFORMAT
  1
GRIDFORMAT_BEGIN
 90
        0
 91
        1
 62
     0
 92
       -2
340
0
 93
        0
 40
1.125
309
GRIDFORMAT_END
 95
        4
302
GRIDFORMAT
  1
GRIDFORMAT_BEGIN
 90
        0
 91
        1
 62
     0
 92
       -2
340
0
 93
        0
 40
1.125
309
GRIDFORMAT_END
 95
        8
302
GRIDFORMAT
  1
GRIDFORMAT_BEGIN
 90
        0
 91
        1
 62
     0
 92
       -2
340
0
 93
        0
 40
1.125
309
GRIDFORMAT_END
 95
       16
302
GRIDFORMAT
  1
GRIDFORMAT_BEGIN
 90
        0
 91
        1
 62
     0
 92
       -2
340
0
 93
        0
 40
1.125
309
GRIDFORMAT_END
 95
       32
302
GRIDFORMAT
  1
GRIDFORMAT_BEGIN
 90
        0
 91
        1
 62
     0
 92
       -2
340
0
 93
        0
 40
1.125
309
GRIDFORMAT_END
309
TABLEFORMAT_END
  1
CELLSTYLE_BEGIN
 90
        1
 91
        1
300
_TITLE
309
CELLSTYLE_END
300
CELLSTYLE
  1
TABLEFORMAT_BEGIN
 90
        5
170
     1
 91
        0
 92
        0
 62
   257
 93
        1
300
CONTENTFORMAT
  1
CONTENTFORMAT_BEGIN
 90
        0
 91
        0
 92
      512
 93
        0
300

 40
0.0
140
1.0
 94
        5
 62
     0
340
F
144
4.5
309
CONTENTFORMAT_END
171
     1
301
MARGIN
  1
CELLMARGIN_BEGIN
 40
1.5
 40
1.5
 40
1.5
 40
1.5
 40
4.5
 40
4.5
309
CELLMARGIN_END
 94
        6
 95
        1
302
GRIDFORMAT
  1
GRIDFORMAT_BEGIN
 90
        0
 91
        1
 62
     0
 92
       -2
340
0
 93
        0
 40
1.125
309
GRIDFORMAT_END
 95
        2
302
GRIDFORMAT
  1
GRIDFORMAT_BEGIN
 90
        0
 91
        1
 62
     0
 92
       -2
340
0
 93
        0
 40
1.125
309
GRIDFORMAT_END
 95
        4
302
GRIDFORMAT
  1
GRIDFORMAT_BEGIN
 90
        0
 91
        1
 62
     0
 92
       -2
340
0
 93
        0
 40
1.125
309
GRIDFORMAT_END
 95
        8
302
GRIDFORMAT
  1
GRIDFORMAT_BEGIN
 90
        0
 91
        1
 62
     0
 92
       -2
340
0
 93
        0
 40
1.125
309
GRIDFORMAT_END
 95
       16
302
GRIDFORMAT
  1
GRIDFORMAT_BEGIN
 90
        0
 91
        1
 62
     0
 92
       -2
340
0
 93
        0
 40
1.125
309
GRIDFORMAT_END
 95
       32
302
GRIDFORMAT
  1
GRIDFORMAT_BEGIN
 90
        0
 91
        1
 62
     0
 92
       -2
340
0
 93
        0
 40
1.125
309
GRIDFORMAT_END
309
TABLEFORMAT_END
  1
CELLSTYLE_BEGIN
 90
        2
 91
        1
300
_HEADER
309
CELLSTYLE_END
300
CELLSTYLE
  1
TABLEFORMAT_BEGIN
 90
        5
170
     1
 91
        0
 92
        0
 62
   257
 93
        1
300
CONTENTFORMAT
  1
CONTENTFORMAT_BEGIN
 90
        0
 91
        0
 92
      512
 93
        0
300

 40
0.0
140
1.0
 94
        2
 62
     0
340
F
144
4.5
309
CONTENTFORMAT_END
171
     1
301
MARGIN
  1
CELLMARGIN_BEGIN
 40
1.5
 40
1.5
 40
1.5
 40
1.5
 40
4.5
 40
4.5
309
CELLMARGIN_END
 94
        6
 95
        1
302
GRIDFORMAT
  1
GRIDFORMAT_BEGIN
 90
        0
 91
        1
 62
     0
 92
       -2
340
0
 93
        0
 40
1.125
309
GRIDFORMAT_END
 95
        2
302
GRIDFORMAT
  1
GRIDFORMAT_BEGIN
 90
        0
 91
        1
 62
     0
 92
       -2
340
0
 93
        0
 40
1.125
309
GRIDFORMAT_END
 95
        4
302
GRIDFORMAT
  1
GRIDFORMAT_BEGIN
 90
        0
 91
        1
 62
     0
 92
       -2
340
0
 93
        0
 40
1.125
309
GRIDFORMAT_END
 95
        8
302
GRIDFORMAT
  1
GRIDFORMAT_BEGIN
 90
        0
 91
        1
 62
     0
 92
       -2
340
0
 93
        0
 40
1.125
309
GRIDFORMAT_END
 95
       16
302
GRIDFORMAT
  1
GRIDFORMAT_BEGIN
 90
        0
 91
        1
 62
     0
 92
       -2
340
0
 93
        0
 40
1.125
309
GRIDFORMAT_END
 95
       32
302
GRIDFORMAT
  1
GRIDFORMAT_BEGIN
 90
        0
 91
        1
 62
     0
 92
       -2
340
0
 93
        0
 40
1.125
309
GRIDFORMAT_END
309
TABLEFORMAT_END
  1
CELLSTYLE_BEGIN
 90
        3
 91
        2
300
_DATA
309
CELLSTYLE_END
  0
XRECORD
  5
5576
102
{ACAD_REACTORS
330
5532
102
}
330
5532
100
AcDbXrecord
280
     1
102
ACAD_ROUNDTRIP_PRE2007_TABLESTYLE
 90
      512
 91
        0
  1

 92
      512
 93
        0
  2

 94
      512
 95
        0
  3

  0
XRECORD
  5
5551
102
{ACAD_REACTORS
330
5550
102
}
330
5550
100
AcDbXrecord
280
     1
102
RTVSPost2010Prop28
280
     1
102
RTVSPost2010PropOp28
 70
     1
102
RTVSPost2010Prop29
280
     1
102
RTVSPost2010PropOp29
 70
     1
102
RTVSPost2010Prop30
280
     0
102
RTVSPost2010PropOp30
 70
     1
102
RTVSPost2010Prop31
280
     0
102
RTVSPost2010PropOp31
 70
     1
102
RTVSPost2010Prop32
280
     0
102
RTVSPost2010PropOp32
 70
     1
102
RTVSPost2010Prop33
280
     0
102
RTVSPost2010PropOp33
 70
     1
102
RTVSPost2010Prop34
280
     0
102
RTVSPost2010PropOp34
 70
     1
102
RTVSPost2010Prop35
280
     0
102
RTVSPost2010PropOp35
 70
     1
102
RTVSPost2010Prop36
280
     0
102
RTVSPost2010PropOp36
 70
     1
102
RTVSPost2010Prop37
 90
       50
102
RTVSPost2010PropOp37
 70
     1
102
RTVSPost2010Prop38
140
0.0
102
RTVSPost2010PropOp38
 70
     1
102
RTVSPost2010Prop39
140
1.0
102
RTVSPost2010PropOp39
 70
     1
102
RTVSPost2010Prop40
 90
        0
102
RTVSPost2010PropOp40
 70
     1
102
RTVSPost2010Prop41ColorIndex
 90
       18
102
RTVSPost2010Prop41ColorRGB
 90
        0
102
RTVSPost2010PropOp41
 70
     1
102
RTVSPost2010Prop42
 90
       50
102
RTVSPost2010PropOp42
 70
     1
102
RTVSPost2010Prop43
 90
        3
102
RTVSPost2010PropOp43
 70
     1
102
RTVSPost2010Prop44ColorIndex
 90
        5
102
RTVSPost2010Prop44ColorRGB
 90
      255
102
RTVSPost2010PropOp44
 70
     1
102
RTVSPost2010Prop45
280
     0
102
RTVSPost2010PropOp45
 70
     1
102
RTVSPost2010Prop46
 90
       50
102
RTVSPost2010PropOp46
 70
     1
102
RTVSPost2010Prop47
 90
       50
102
RTVSPost2010PropOp47
 70
     1
102
RTVSPost2010Prop48
 90
       50
102
RTVSPost2010PropOp48
 70
     1
102
RTVSPost2010Prop49
280
     0
102
RTVSPost2010PropOp49
 70
     1
102
RTVSPost2010Prop50
 90
       50
102
RTVSPost2010PropOp50
 70
     1
102
RTVSPost2010Prop51ColorIndex
 90
      256
102
RTVSPost2010Prop51ColorRGB
 90
-16777216
102
RTVSPost2010PropOp51
 70
     0
102
RTVSPost2010Prop52
140
1.0
102
RTVSPost2010PropOp52
 70
     0
102
RTVSPost2010Prop53
 90
        2
102
RTVSPost2010PropOp53
 70
     1
102
RTVSPost2010Prop54
  1
strokes_ogs.tif
102
RTVSPost2010PropOp54
 70
     1
102
RTVSPost2010Prop55
280
     0
102
RTVSPost2010PropOp55
 70
     1
102
RTVSPost2010Prop56
140
1.0
102
RTVSPost2010PropOp56
 70
     1
102
RTVSPost2010Prop57
140
1.0
102
RTVSPost2010PropOp57
 70
     1
102
RTVSPropertyOp0
 70
     1
102
RTVSPropertyOp1
 70
     1
102
RTVSPropertyOp2
 70
     1
102
RTVSPropertyOp3
 70
     1
102
RTVSPropertyOp4
 70
     1
102
RTVSPropertyOp5
 70
     1
102
RTVSPropertyOp6
 70
     1
102
RTVSPropertyOp7
 70
     1
102
RTVSPropertyOp8
 70
     1
102
RTVSPropertyOp9
 70
     1
102
RTVSPropertyOp10
 70
     1
102
RTVSPropertyOp11
 70
     1
102
RTVSPropertyOp12
 70
     1
102
RTVSPropertyOp13
 70
     1
102
RTVSPropertyOp14
 70
     1
102
RTVSPropertyOp15
 70
     1
102
RTVSPropertyOp16
 70
     1
102
RTVSPropertyOp17
 70
     1
102
RTVSPropertyOp18
 70
     1
102
RTVSPropertyOp19
 70
     1
102
RTVSPropertyOp20
 70
     1
102
RTVSPropertyOp21
 70
     1
102
RTVSPropertyOp22
 70
     1
102
RTVSPropertyOp23
 70
     1
102
RTVSPropertyOp24
 70
     1
102
RTVSPropertyOp25
 70
     1
102
RTVSPropertyOp26
 70
     1
102
RTVSPropertyOp27
 70
     1
102
RTVSPropertyOp28
 70
     1
102
RTVSPropertyOp29
 70
     1
102
RTVSPropertyOp30
 70
     1
102
RTVSPropertyOp31
 70
     1
102
RTVSPropertyOp32
 70
     1
102
RTVSPropertyOp33
 70
     1
102
RTVSPropertyOp34
 70
     1
102
RTVSPropertyOp35
 70
     1
102
RTVSPropertyOp36
 70
     1
102
RTVSPropertyOp37
 70
     1
102
RTVSPropertyOp38
 70
     1
102
RTVSPropertyOp39
 70
     1
102
RTVSPropertyOp40
 70
     1
102
RTVSPropertyOp41
 70
     1
102
RTVSPropertyOp42
 70
     1
102
RTVSPropertyOp43
 70
     1
102
RTVSPropertyOp44
 70
     1
102
RTVSPropertyOp45
 70
     1
102
RTVSPropertyOp46
 70
     1
102
RTVSPropertyOp47
 70
     1
102
RTVSPropertyOp48
 70
     1
102
RTVSPropertyOp49
 70
     1
102
RTVSPropertyOp50
 70
     1
102
RTVSPropertyOp51
 70
     0
102
RTVSPropertyOp52
 70
     0
102
RTVSPropertyOp53
 70
     1
102
RTVSPropertyOp54
 70
     1
102
RTVSPropertyOp55
 70
     1
102
RTVSPropertyOp56
 70
     1
102
RTVSPropertyOp57
 70
     1
102
RTVSPropertyOp58
 70
     1
102
RTVSPropertyOp59
 70
     1
102
RTVSPropertyOp60
 70
     1
102
RTVSPropertyOp61
 70
     1
102
RTVSPropertyOp62
 70
     1
  0
XRECORD
  5
554F
102
{ACAD_REACTORS
330
554E
102
}
330
554E
100
AcDbXrecord
280
     1
102
RTVSPost2010Prop28
280
     0
102
RTVSPost2010PropOp28
 70
     1
102
RTVSPost2010Prop29
280
     1
102
RTVSPost2010PropOp29
 70
     1
102
RTVSPost2010Prop30
280
     1
102
RTVSPost2010PropOp30
 70
     1
102
RTVSPost2010Prop31
280
     0
102
RTVSPost2010PropOp31
 70
     1
102
RTVSPost2010Prop32
280
     0
102
RTVSPost2010PropOp32
 70
     1
102
RTVSPost2010Prop33
280
     0
102
RTVSPost2010PropOp33
 70
     1
102
RTVSPost2010Prop34
280
     0
102
RTVSPost2010PropOp34
 70
     1
102
RTVSPost2010Prop35
280
     0
102
RTVSPost2010PropOp35
 70
     1
102
RTVSPost2010Prop36
280
     0
102
RTVSPost2010PropOp36
 70
     1
102
RTVSPost2010Prop37
 90
       50
102
RTVSPost2010PropOp37
 70
     1
102
RTVSPost2010Prop38
140
0.0
102
RTVSPost2010PropOp38
 70
     1
102
RTVSPost2010Prop39
140
1.0
102
RTVSPost2010PropOp39
 70
     1
102
RTVSPost2010Prop40
 90
        0
102
RTVSPost2010PropOp40
 70
     1
102
RTVSPost2010Prop41ColorIndex
 90
       18
102
RTVSPost2010Prop41ColorRGB
 90
        0
102
RTVSPost2010PropOp41
 70
     1
102
RTVSPost2010Prop42
 90
       50
102
RTVSPost2010PropOp42
 70
     1
102
RTVSPost2010Prop43
 90
        3
102
RTVSPost2010PropOp43
 70
     1
102
RTVSPost2010Prop44ColorIndex
 90
        5
102
RTVSPost2010Prop44ColorRGB
 90
      255
102
RTVSPost2010PropOp44
 70
     1
102
RTVSPost2010Prop45
280
     0
102
RTVSPost2010PropOp45
 70
     1
102
RTVSPost2010Prop46
 90
       50
102
RTVSPost2010PropOp46
 70
     1
102
RTVSPost2010Prop47
 90
       50
102
RTVSPost2010PropOp47
 70
     1
102
RTVSPost2010Prop48
 90
       50
102
RTVSPost2010PropOp48
 70
     1
102
RTVSPost2010Prop49
280
     0
102
RTVSPost2010PropOp49
 70
     1
102
RTVSPost2010Prop50
 90
       50
102
RTVSPost2010PropOp50
 70
     1
102
RTVSPost2010Prop51ColorIndex
 90
      256
102
RTVSPost2010Prop51ColorRGB
 90
-16777216
102
RTVSPost2010PropOp51
 70
     0
102
RTVSPost2010Prop52
140
1.0
102
RTVSPost2010PropOp52
 70
     0
102
RTVSPost2010Prop53
 90
        2
102
RTVSPost2010PropOp53
 70
     1
102
RTVSPost2010Prop54
  1
strokes_ogs.tif
102
RTVSPost2010PropOp54
 70
     1
102
RTVSPost2010Prop55
280
     0
102
RTVSPost2010PropOp55
 70
     1
102
RTVSPost2010Prop56
140
1.0
102
RTVSPost2010PropOp56
 70
     1
102
RTVSPost2010Prop57
140
1.0
102
RTVSPost2010PropOp57
 70
     1
102
RTVSPropertyOp0
 70
     1
102
RTVSPropertyOp1
 70
     1
102
RTVSPropertyOp2
 70
     1
102
RTVSPropertyOp3
 70
     1
102
RTVSPropertyOp4
 70
     1
102
RTVSPropertyOp5
 70
     1
102
RTVSPropertyOp6
 70
     1
102
RTVSPropertyOp7
 70
     1
102
RTVSPropertyOp8
 70
     1
102
RTVSPropertyOp9
 70
     1
102
RTVSPropertyOp10
 70
     1
102
RTVSPropertyOp11
 70
     1
102
RTVSPropertyOp12
 70
     1
102
RTVSPropertyOp13
 70
     1
102
RTVSPropertyOp14
 70
     1
102
RTVSPropertyOp15
 70
     1
102
RTVSPropertyOp16
 70
     1
102
RTVSPropertyOp17
 70
     1
102
RTVSPropertyOp18
 70
     1
102
RTVSPropertyOp19
 70
     1
102
RTVSPropertyOp20
 70
     1
102
RTVSPropertyOp21
 70
     1
102
RTVSPropertyOp22
 70
     1
102
RTVSPropertyOp23
 70
     1
102
RTVSPropertyOp24
 70
     1
102
RTVSPropertyOp25
 70
     1
102
RTVSPropertyOp26
 70
     1
102
RTVSPropertyOp27
 70
     1
102
RTVSPropertyOp28
 70
     1
102
RTVSPropertyOp29
 70
     1
102
RTVSPropertyOp30
 70
     1
102
RTVSPropertyOp31
 70
     1
102
RTVSPropertyOp32
 70
     1
102
RTVSPropertyOp33
 70
     1
102
RTVSPropertyOp34
 70
     1
102
RTVSPropertyOp35
 70
     1
102
RTVSPropertyOp36
 70
     1
102
RTVSPropertyOp37
 70
     1
102
RTVSPropertyOp38
 70
     1
102
RTVSPropertyOp39
 70
     1
102
RTVSPropertyOp40
 70
     1
102
RTVSPropertyOp41
 70
     1
102
RTVSPropertyOp42
 70
     1
102
RTVSPropertyOp43
 70
     1
102
RTVSPropertyOp44
 70
     1
102
RTVSPropertyOp45
 70
     1
102
RTVSPropertyOp46
 70
     1
102
RTVSPropertyOp47
 70
     1
102
RTVSPropertyOp48
 70
     1
102
RTVSPropertyOp49
 70
     1
102
RTVSPropertyOp50
 70
     1
102
RTVSPropertyOp51
 70
     0
102
RTVSPropertyOp52
 70
     0
102
RTVSPropertyOp53
 70
     1
102
RTVSPropertyOp54
 70
     1
102
RTVSPropertyOp55
 70
     1
102
RTVSPropertyOp56
 70
     1
102
RTVSPropertyOp57
 70
     1
102
RTVSPropertyOp58
 70
     1
102
RTVSPropertyOp59
 70
     1
102
RTVSPropertyOp60
 70
     1
102
RTVSPropertyOp61
 70
     1
102
RTVSPropertyOp62
 70
     1
  0
XRECORD
  5
555D
102
{ACAD_REACTORS
330
555C
102
}
330
555C
100
AcDbXrecord
280
     1
102
RTVSPost2010Prop28
280
     0
102
RTVSPost2010PropOp28
 70
     1
102
RTVSPost2010Prop29
280
     1
102
RTVSPost2010PropOp29
 70
     1
102
RTVSPost2010Prop30
280
     1
102
RTVSPost2010PropOp30
 70
     1
102
RTVSPost2010Prop31
280
     0
102
RTVSPost2010PropOp31
 70
     1
102
RTVSPost2010Prop32
280
     0
102
RTVSPost2010PropOp32
 70
     1
102
RTVSPost2010Prop33
280
     0
102
RTVSPost2010PropOp33
 70
     1
102
RTVSPost2010Prop34
280
     0
102
RTVSPost2010PropOp34
 70
     1
102
RTVSPost2010Prop35
280
     0
102
RTVSPost2010PropOp35
 70
     1
102
RTVSPost2010Prop36
280
     0
102
RTVSPost2010PropOp36
 70
     1
102
RTVSPost2010Prop37
 90
       50
102
RTVSPost2010PropOp37
 70
     1
102
RTVSPost2010Prop38
140
0.0
102
RTVSPost2010PropOp38
 70
     1
102
RTVSPost2010Prop39
140
1.0
102
RTVSPost2010PropOp39
 70
     1
102
RTVSPost2010Prop40
 90
        0
102
RTVSPost2010PropOp40
 70
     1
102
RTVSPost2010Prop41ColorIndex
 90
       18
102
RTVSPost2010Prop41ColorRGB
 90
        0
102
RTVSPost2010PropOp41
 70
     1
102
RTVSPost2010Prop42
 90
       50
102
RTVSPost2010PropOp42
 70
     1
102
RTVSPost2010Prop43
 90
        3
102
RTVSPost2010PropOp43
 70
     1
102
RTVSPost2010Prop44ColorIndex
 90
        5
102
RTVSPost2010Prop44ColorRGB
 90
      255
102
RTVSPost2010PropOp44
 70
     1
102
RTVSPost2010Prop45
280
     0
102
RTVSPost2010PropOp45
 70
     1
102
RTVSPost2010Prop46
 90
       50
102
RTVSPost2010PropOp46
 70
     1
102
RTVSPost2010Prop47
 90
       50
102
RTVSPost2010PropOp47
 70
     1
102
RTVSPost2010Prop48
 90
       50
102
RTVSPost2010PropOp48
 70
     1
102
RTVSPost2010Prop49
280
     0
102
RTVSPost2010PropOp49
 70
     1
102
RTVSPost2010Prop50
 90
       50
102
RTVSPost2010PropOp50
 70
     1
102
RTVSPost2010Prop51ColorIndex
 90
      256
102
RTVSPost2010Prop51ColorRGB
 90
-16777216
102
RTVSPost2010PropOp51
 70
     0
102
RTVSPost2010Prop52
140
1.0
102
RTVSPost2010PropOp52
 70
     0
102
RTVSPost2010Prop53
 90
        2
102
RTVSPost2010PropOp53
 70
     1
102
RTVSPost2010Prop54
  1
strokes_ogs.tif
102
RTVSPost2010PropOp54
 70
     1
102
RTVSPost2010Prop55
280
     0
102
RTVSPost2010PropOp55
 70
     1
102
RTVSPost2010Prop56
140
1.0
102
RTVSPost2010PropOp56
 70
     1
102
RTVSPost2010Prop57
140
1.0
102
RTVSPost2010PropOp57
 70
     1
102
RTVSPropertyOp0
 70
     1
102
RTVSPropertyOp1
 70
     1
102
RTVSPropertyOp2
 70
     1
102
RTVSPropertyOp3
 70
     1
102
RTVSPropertyOp4
 70
     1
102
RTVSPropertyOp5
 70
     1
102
RTVSPropertyOp6
 70
     1
102
RTVSPropertyOp7
 70
     1
102
RTVSPropertyOp8
 70
     1
102
RTVSPropertyOp9
 70
     1
102
RTVSPropertyOp10
 70
     1
102
RTVSPropertyOp11
 70
     1
102
RTVSPropertyOp12
 70
     1
102
RTVSPropertyOp13
 70
     1
102
RTVSPropertyOp14
 70
     1
102
RTVSPropertyOp15
 70
     1
102
RTVSPropertyOp16
 70
     1
102
RTVSPropertyOp17
 70
     1
102
RTVSPropertyOp18
 70
     1
102
RTVSPropertyOp19
 70
     1
102
RTVSPropertyOp20
 70
     1
102
RTVSPropertyOp21
 70
     1
102
RTVSPropertyOp22
 70
     1
102
RTVSPropertyOp23
 70
     1
102
RTVSPropertyOp24
 70
     1
102
RTVSPropertyOp25
 70
     1
102
RTVSPropertyOp26
 70
     1
102
RTVSPropertyOp27
 70
     1
102
RTVSPropertyOp28
 70
     1
102
RTVSPropertyOp29
 70
     1
102
RTVSPropertyOp30
 70
     1
102
RTVSPropertyOp31
 70
     1
102
RTVSPropertyOp32
 70
     1
102
RTVSPropertyOp33
 70
     1
102
RTVSPropertyOp34
 70
     1
102
RTVSPropertyOp35
 70
     1
102
RTVSPropertyOp36
 70
     1
102
RTVSPropertyOp37
 70
     1
102
RTVSPropertyOp38
 70
     1
102
RTVSPropertyOp39
 70
     1
102
RTVSPropertyOp40
 70
     1
102
RTVSPropertyOp41
 70
     1
102
RTVSPropertyOp42
 70
     1
102
RTVSPropertyOp43
 70
     1
102
RTVSPropertyOp44
 70
     1
102
RTVSPropertyOp45
 70
     1
102
RTVSPropertyOp46
 70
     1
102
RTVSPropertyOp47
 70
     1
102
RTVSPropertyOp48
 70
     1
102
RTVSPropertyOp49
 70
     1
102
RTVSPropertyOp50
 70
     1
102
RTVSPropertyOp51
 70
     0
102
RTVSPropertyOp52
 70
     0
102
RTVSPropertyOp53
 70
     1
102
RTVSPropertyOp54
 70
     1
102
RTVSPropertyOp55
 70
     1
102
RTVSPropertyOp56
 70
     1
102
RTVSPropertyOp57
 70
     1
102
RTVSPropertyOp58
 70
     1
102
RTVSPropertyOp59
 70
     1
102
RTVSPropertyOp60
 70
     1
102
RTVSPropertyOp61
 70
     1
102
RTVSPropertyOp62
 70
     1
  0
XRECORD
  5
5565
102
{ACAD_REACTORS
330
5564
102
}
330
5564
100
AcDbXrecord
280
     1
102
RTVSPost2010Prop28
280
     0
102
RTVSPost2010PropOp28
 70
     1
102
RTVSPost2010Prop29
280
     1
102
RTVSPost2010PropOp29
 70
     1
102
RTVSPost2010Prop30
280
     1
102
RTVSPost2010PropOp30
 70
     1
102
RTVSPost2010Prop31
280
     0
102
RTVSPost2010PropOp31
 70
     1
102
RTVSPost2010Prop32
280
     0
102
RTVSPost2010PropOp32
 70
     1
102
RTVSPost2010Prop33
280
     0
102
RTVSPost2010PropOp33
 70
     1
102
RTVSPost2010Prop34
280
     0
102
RTVSPost2010PropOp34
 70
     1
102
RTVSPost2010Prop35
280
     0
102
RTVSPost2010PropOp35
 70
     1
102
RTVSPost2010Prop36
280
     0
102
RTVSPost2010PropOp36
 70
     1
102
RTVSPost2010Prop37
 90
       50
102
RTVSPost2010PropOp37
 70
     1
102
RTVSPost2010Prop38
140
0.0
102
RTVSPost2010PropOp38
 70
     1
102
RTVSPost2010Prop39
140
1.0
102
RTVSPost2010PropOp39
 70
     1
102
RTVSPost2010Prop40
 90
        0
102
RTVSPost2010PropOp40
 70
     1
102
RTVSPost2010Prop41ColorIndex
 90
       18
102
RTVSPost2010Prop41ColorRGB
 90
        0
102
RTVSPost2010PropOp41
 70
     1
102
RTVSPost2010Prop42
 90
       50
102
RTVSPost2010PropOp42
 70
     1
102
RTVSPost2010Prop43
 90
        3
102
RTVSPost2010PropOp43
 70
     1
102
RTVSPost2010Prop44ColorIndex
 90
        5
102
RTVSPost2010Prop44ColorRGB
 90
      255
102
RTVSPost2010PropOp44
 70
     1
102
RTVSPost2010Prop45
280
     0
102
RTVSPost2010PropOp45
 70
     1
102
RTVSPost2010Prop46
 90
       50
102
RTVSPost2010PropOp46
 70
     1
102
RTVSPost2010Prop47
 90
       50
102
RTVSPost2010PropOp47
 70
     1
102
RTVSPost2010Prop48
 90
       50
102
RTVSPost2010PropOp48
 70
     1
102
RTVSPost2010Prop49
280
     0
102
RTVSPost2010PropOp49
 70
     1
102
RTVSPost2010Prop50
 90
       50
102
RTVSPost2010PropOp50
 70
     1
102
RTVSPost2010Prop51ColorIndex
 90
      256
102
RTVSPost2010Prop51ColorRGB
 90
-16777216
102
RTVSPost2010PropOp51
 70
     0
102
RTVSPost2010Prop52
140
1.0
102
RTVSPost2010PropOp52
 70
     0
102
RTVSPost2010Prop53
 90
        2
102
RTVSPost2010PropOp53
 70
     1
102
RTVSPost2010Prop54
  1
strokes_ogs.tif
102
RTVSPost2010PropOp54
 70
     1
102
RTVSPost2010Prop55
280
     0
102
RTVSPost2010PropOp55
 70
     1
102
RTVSPost2010Prop56
140
1.0
102
RTVSPost2010PropOp56
 70
     1
102
RTVSPost2010Prop57
140
1.0
102
RTVSPost2010PropOp57
 70
     1
102
RTVSPropertyOp0
 70
     1
102
RTVSPropertyOp1
 70
     1
102
RTVSPropertyOp2
 70
     1
102
RTVSPropertyOp3
 70
     1
102
RTVSPropertyOp4
 70
     1
102
RTVSPropertyOp5
 70
     1
102
RTVSPropertyOp6
 70
     1
102
RTVSPropertyOp7
 70
     1
102
RTVSPropertyOp8
 70
     1
102
RTVSPropertyOp9
 70
     1
102
RTVSPropertyOp10
 70
     1
102
RTVSPropertyOp11
 70
     1
102
RTVSPropertyOp12
 70
     1
102
RTVSPropertyOp13
 70
     1
102
RTVSPropertyOp14
 70
     1
102
RTVSPropertyOp15
 70
     1
102
RTVSPropertyOp16
 70
     1
102
RTVSPropertyOp17
 70
     1
102
RTVSPropertyOp18
 70
     1
102
RTVSPropertyOp19
 70
     1
102
RTVSPropertyOp20
 70
     1
102
RTVSPropertyOp21
 70
     1
102
RTVSPropertyOp22
 70
     1
102
RTVSPropertyOp23
 70
     1
102
RTVSPropertyOp24
 70
     1
102
RTVSPropertyOp25
 70
     1
102
RTVSPropertyOp26
 70
     1
102
RTVSPropertyOp27
 70
     1
102
RTVSPropertyOp28
 70
     1
102
RTVSPropertyOp29
 70
     1
102
RTVSPropertyOp30
 70
     1
102
RTVSPropertyOp31
 70
     1
102
RTVSPropertyOp32
 70
     1
102
RTVSPropertyOp33
 70
     1
102
RTVSPropertyOp34
 70
     1
102
RTVSPropertyOp35
 70
     1
102
RTVSPropertyOp36
 70
     1
102
RTVSPropertyOp37
 70
     1
102
RTVSPropertyOp38
 70
     1
102
RTVSPropertyOp39
 70
     1
102
RTVSPropertyOp40
 70
     1
102
RTVSPropertyOp41
 70
     1
102
RTVSPropertyOp42
 70
     1
102
RTVSPropertyOp43
 70
     1
102
RTVSPropertyOp44
 70
     1
102
RTVSPropertyOp45
 70
     1
102
RTVSPropertyOp46
 70
     1
102
RTVSPropertyOp47
 70
     1
102
RTVSPropertyOp48
 70
     1
102
RTVSPropertyOp49
 70
     1
102
RTVSPropertyOp50
 70
     1
102
RTVSPropertyOp51
 70
     0
102
RTVSPropertyOp52
 70
     0
102
RTVSPropertyOp53
 70
     1
102
RTVSPropertyOp54
 70
     1
102
RTVSPropertyOp55
 70
     1
102
RTVSPropertyOp56
 70
     1
102
RTVSPropertyOp57
 70
     1
102
RTVSPropertyOp58
 70
     1
102
RTVSPropertyOp59
 70
     1
102
RTVSPropertyOp60
 70
     1
102
RTVSPropertyOp61
 70
     1
102
RTVSPropertyOp62
 70
     1
  0
XRECORD
  5
5557
102
{ACAD_REACTORS
330
5556
102
}
330
5556
100
AcDbXrecord
280
     1
102
RTVSPost2010Prop28
280
     0
102
RTVSPost2010PropOp28
 70
     1
102
RTVSPost2010Prop29
280
     1
102
RTVSPost2010PropOp29
 70
     1
102
RTVSPost2010Prop30
280
     1
102
RTVSPost2010PropOp30
 70
     1
102
RTVSPost2010Prop31
280
     0
102
RTVSPost2010PropOp31
 70
     1
102
RTVSPost2010Prop32
280
     0
102
RTVSPost2010PropOp32
 70
     1
102
RTVSPost2010Prop33
280
     0
102
RTVSPost2010PropOp33
 70
     1
102
RTVSPost2010Prop34
280
     0
102
RTVSPost2010PropOp34
 70
     1
102
RTVSPost2010Prop35
280
     0
102
RTVSPost2010PropOp35
 70
     1
102
RTVSPost2010Prop36
280
     0
102
RTVSPost2010PropOp36
 70
     1
102
RTVSPost2010Prop37
 90
       50
102
RTVSPost2010PropOp37
 70
     1
102
RTVSPost2010Prop38
140
0.0
102
RTVSPost2010PropOp38
 70
     1
102
RTVSPost2010Prop39
140
1.0
102
RTVSPost2010PropOp39
 70
     1
102
RTVSPost2010Prop40
 90
        0
102
RTVSPost2010PropOp40
 70
     1
102
RTVSPost2010Prop41ColorIndex
 90
       18
102
RTVSPost2010Prop41ColorRGB
 90
        0
102
RTVSPost2010PropOp41
 70
     1
102
RTVSPost2010Prop42
 90
       50
102
RTVSPost2010PropOp42
 70
     1
102
RTVSPost2010Prop43
 90
        3
102
RTVSPost2010PropOp43
 70
     1
102
RTVSPost2010Prop44ColorIndex
 90
        5
102
RTVSPost2010Prop44ColorRGB
 90
      255
102
RTVSPost2010PropOp44
 70
     1
102
RTVSPost2010Prop45
280
     0
102
RTVSPost2010PropOp45
 70
     1
102
RTVSPost2010Prop46
 90
       50
102
RTVSPost2010PropOp46
 70
     1
102
RTVSPost2010Prop47
 90
       50
102
RTVSPost2010PropOp47
 70
     1
102
RTVSPost2010Prop48
 90
       50
102
RTVSPost2010PropOp48
 70
     1
102
RTVSPost2010Prop49
280
     0
102
RTVSPost2010PropOp49
 70
     1
102
RTVSPost2010Prop50
 90
       50
102
RTVSPost2010PropOp50
 70
     1
102
RTVSPost2010Prop51ColorIndex
 90
      256
102
RTVSPost2010Prop51ColorRGB
 90
-16777216
102
RTVSPost2010PropOp51
 70
     0
102
RTVSPost2010Prop52
140
1.0
102
RTVSPost2010PropOp52
 70
     0
102
RTVSPost2010Prop53
 90
        2
102
RTVSPost2010PropOp53
 70
     1
102
RTVSPost2010Prop54
  1
strokes_ogs.tif
102
RTVSPost2010PropOp54
 70
     1
102
RTVSPost2010Prop55
280
     0
102
RTVSPost2010PropOp55
 70
     1
102
RTVSPost2010Prop56
140
1.0
102
RTVSPost2010PropOp56
 70
     1
102
RTVSPost2010Prop57
140
1.0
102
RTVSPost2010PropOp57
 70
     1
102
RTVSPropertyOp0
 70
     1
102
RTVSPropertyOp1
 70
     1
102
RTVSPropertyOp2
 70
     1
102
RTVSPropertyOp3
 70
     1
102
RTVSPropertyOp4
 70
     1
102
RTVSPropertyOp5
 70
     1
102
RTVSPropertyOp6
 70
     1
102
RTVSPropertyOp7
 70
     1
102
RTVSPropertyOp8
 70
     1
102
RTVSPropertyOp9
 70
     1
102
RTVSPropertyOp10
 70
     1
102
RTVSPropertyOp11
 70
     1
102
RTVSPropertyOp12
 70
     1
102
RTVSPropertyOp13
 70
     1
102
RTVSPropertyOp14
 70
     1
102
RTVSPropertyOp15
 70
     1
102
RTVSPropertyOp16
 70
     1
102
RTVSPropertyOp17
 70
     1
102
RTVSPropertyOp18
 70
     1
102
RTVSPropertyOp19
 70
     1
102
RTVSPropertyOp20
 70
     1
102
RTVSPropertyOp21
 70
     1
102
RTVSPropertyOp22
 70
     1
102
RTVSPropertyOp23
 70
     1
102
RTVSPropertyOp24
 70
     1
102
RTVSPropertyOp25
 70
     1
102
RTVSPropertyOp26
 70
     1
102
RTVSPropertyOp27
 70
     1
102
RTVSPropertyOp28
 70
     1
102
RTVSPropertyOp29
 70
     1
102
RTVSPropertyOp30
 70
     1
102
RTVSPropertyOp31
 70
     1
102
RTVSPropertyOp32
 70
     1
102
RTVSPropertyOp33
 70
     1
102
RTVSPropertyOp34
 70
     1
102
RTVSPropertyOp35
 70
     1
102
RTVSPropertyOp36
 70
     1
102
RTVSPropertyOp37
 70
     1
102
RTVSPropertyOp38
 70
     1
102
RTVSPropertyOp39
 70
     1
102
RTVSPropertyOp40
 70
     1
102
RTVSPropertyOp41
 70
     1
102
RTVSPropertyOp42
 70
     1
102
RTVSPropertyOp43
 70
     1
102
RTVSPropertyOp44
 70
     1
102
RTVSPropertyOp45
 70
     1
102
RTVSPropertyOp46
 70
     1
102
RTVSPropertyOp47
 70
     1
102
RTVSPropertyOp48
 70
     1
102
RTVSPropertyOp49
 70
     1
102
RTVSPropertyOp50
 70
     1
102
RTVSPropertyOp51
 70
     0
102
RTVSPropertyOp52
 70
     0
102
RTVSPropertyOp53
 70
     1
102
RTVSPropertyOp54
 70
     1
102
RTVSPropertyOp55
 70
     1
102
RTVSPropertyOp56
 70
     1
102
RTVSPropertyOp57
 70
     1
102
RTVSPropertyOp58
 70
     1
102
RTVSPropertyOp59
 70
     1
102
RTVSPropertyOp60
 70
     1
102
RTVSPropertyOp61
 70
     1
102
RTVSPropertyOp62
 70
     1
  0
XRECORD
  5
555B
102
{ACAD_REACTORS
330
555A
102
}
330
555A
100
AcDbXrecord
280
     1
102
RTVSPost2010Prop28
280
     0
102
RTVSPost2010PropOp28
 70
     1
102
RTVSPost2010Prop29
280
     1
102
RTVSPost2010PropOp29
 70
     1
102
RTVSPost2010Prop30
280
     1
102
RTVSPost2010PropOp30
 70
     1
102
RTVSPost2010Prop31
280
     0
102
RTVSPost2010PropOp31
 70
     1
102
RTVSPost2010Prop32
280
     0
102
RTVSPost2010PropOp32
 70
     1
102
RTVSPost2010Prop33
280
     0
102
RTVSPost2010PropOp33
 70
     1
102
RTVSPost2010Prop34
280
     0
102
RTVSPost2010PropOp34
 70
     1
102
RTVSPost2010Prop35
280
     0
102
RTVSPost2010PropOp35
 70
     1
102
RTVSPost2010Prop36
280
     0
102
RTVSPost2010PropOp36
 70
     1
102
RTVSPost2010Prop37
 90
       50
102
RTVSPost2010PropOp37
 70
     1
102
RTVSPost2010Prop38
140
0.0
102
RTVSPost2010PropOp38
 70
     1
102
RTVSPost2010Prop39
140
1.0
102
RTVSPost2010PropOp39
 70
     1
102
RTVSPost2010Prop40
 90
        0
102
RTVSPost2010PropOp40
 70
     1
102
RTVSPost2010Prop41ColorIndex
 90
       18
102
RTVSPost2010Prop41ColorRGB
 90
        0
102
RTVSPost2010PropOp41
 70
     1
102
RTVSPost2010Prop42
 90
       50
102
RTVSPost2010PropOp42
 70
     1
102
RTVSPost2010Prop43
 90
        3
102
RTVSPost2010PropOp43
 70
     1
102
RTVSPost2010Prop44ColorIndex
 90
        5
102
RTVSPost2010Prop44ColorRGB
 90
      255
102
RTVSPost2010PropOp44
 70
     1
102
RTVSPost2010Prop45
280
     0
102
RTVSPost2010PropOp45
 70
     1
102
RTVSPost2010Prop46
 90
       50
102
RTVSPost2010PropOp46
 70
     1
102
RTVSPost2010Prop47
 90
       50
102
RTVSPost2010PropOp47
 70
     1
102
RTVSPost2010Prop48
 90
       50
102
RTVSPost2010PropOp48
 70
     1
102
RTVSPost2010Prop49
280
     0
102
RTVSPost2010PropOp49
 70
     1
102
RTVSPost2010Prop50
 90
       50
102
RTVSPost2010PropOp50
 70
     1
102
RTVSPost2010Prop51ColorIndex
 90
      256
102
RTVSPost2010Prop51ColorRGB
 90
-16777216
102
RTVSPost2010PropOp51
 70
     0
102
RTVSPost2010Prop52
140
1.0
102
RTVSPost2010PropOp52
 70
     0
102
RTVSPost2010Prop53
 90
        2
102
RTVSPost2010PropOp53
 70
     1
102
RTVSPost2010Prop54
  1
strokes_ogs.tif
102
RTVSPost2010PropOp54
 70
     1
102
RTVSPost2010Prop55
280
     0
102
RTVSPost2010PropOp55
 70
     1
102
RTVSPost2010Prop56
140
1.0
102
RTVSPost2010PropOp56
 70
     1
102
RTVSPost2010Prop57
140
1.0
102
RTVSPost2010PropOp57
 70
     1
102
RTVSPropertyOp0
 70
     1
102
RTVSPropertyOp1
 70
     1
102
RTVSPropertyOp2
 70
     1
102
RTVSPropertyOp3
 70
     1
102
RTVSPropertyOp4
 70
     1
102
RTVSPropertyOp5
 70
     1
102
RTVSPropertyOp6
 70
     1
102
RTVSPropertyOp7
 70
     1
102
RTVSPropertyOp8
 70
     1
102
RTVSPropertyOp9
 70
     1
102
RTVSPropertyOp10
 70
     1
102
RTVSPropertyOp11
 70
     1
102
RTVSPropertyOp12
 70
     1
102
RTVSPropertyOp13
 70
     1
102
RTVSPropertyOp14
 70
     1
102
RTVSPropertyOp15
 70
     1
102
RTVSPropertyOp16
 70
     1
102
RTVSPropertyOp17
 70
     1
102
RTVSPropertyOp18
 70
     1
102
RTVSPropertyOp19
 70
     1
102
RTVSPropertyOp20
 70
     1
102
RTVSPropertyOp21
 70
     1
102
RTVSPropertyOp22
 70
     1
102
RTVSPropertyOp23
 70
     1
102
RTVSPropertyOp24
 70
     1
102
RTVSPropertyOp25
 70
     1
102
RTVSPropertyOp26
 70
     1
102
RTVSPropertyOp27
 70
     1
102
RTVSPropertyOp28
 70
     1
102
RTVSPropertyOp29
 70
     1
102
RTVSPropertyOp30
 70
     1
102
RTVSPropertyOp31
 70
     1
102
RTVSPropertyOp32
 70
     1
102
RTVSPropertyOp33
 70
     1
102
RTVSPropertyOp34
 70
     1
102
RTVSPropertyOp35
 70
     1
102
RTVSPropertyOp36
 70
     1
102
RTVSPropertyOp37
 70
     1
102
RTVSPropertyOp38
 70
     1
102
RTVSPropertyOp39
 70
     1
102
RTVSPropertyOp40
 70
     1
102
RTVSPropertyOp41
 70
     1
102
RTVSPropertyOp42
 70
     1
102
RTVSPropertyOp43
 70
     1
102
RTVSPropertyOp44
 70
     1
102
RTVSPropertyOp45
 70
     1
102
RTVSPropertyOp46
 70
     1
102
RTVSPropertyOp47
 70
     1
102
RTVSPropertyOp48
 70
     1
102
RTVSPropertyOp49
 70
     1
102
RTVSPropertyOp50
 70
     1
102
RTVSPropertyOp51
 70
     0
102
RTVSPropertyOp52
 70
     0
102
RTVSPropertyOp53
 70
     1
102
RTVSPropertyOp54
 70
     1
102
RTVSPropertyOp55
 70
     1
102
RTVSPropertyOp56
 70
     1
102
RTVSPropertyOp57
 70
     1
102
RTVSPropertyOp58
 70
     1
102
RTVSPropertyOp59
 70
     1
102
RTVSPropertyOp60
 70
     1
102
RTVSPropertyOp61
 70
     1
102
RTVSPropertyOp62
 70
     1
  0
XRECORD
  5
5575
102
{ACAD_REACTORS
330
5574
102
}
330
5574
100
AcDbXrecord
280
     1
102
RTVSPost2010Prop28
280
     0
102
RTVSPost2010PropOp28
 70
     0
102
RTVSPost2010Prop29
280
     1
102
RTVSPost2010PropOp29
 70
     0
102
RTVSPost2010Prop30
280
     1
102
RTVSPost2010PropOp30
 70
     0
102
RTVSPost2010Prop31
280
     0
102
RTVSPost2010PropOp31
 70
     0
102
RTVSPost2010Prop32
280
     0
102
RTVSPost2010PropOp32
 70
     0
102
RTVSPost2010Prop33
280
     0
102
RTVSPost2010PropOp33
 70
     0
102
RTVSPost2010Prop34
280
     0
102
RTVSPost2010PropOp34
 70
     0
102
RTVSPost2010Prop35
280
     0
102
RTVSPost2010PropOp35
 70
     0
102
RTVSPost2010Prop36
280
     0
102
RTVSPost2010PropOp36
 70
     0
102
RTVSPost2010Prop37
 90
       50
102
RTVSPost2010PropOp37
 70
     0
102
RTVSPost2010Prop38
140
0.0
102
RTVSPost2010PropOp38
 70
     0
102
RTVSPost2010Prop39
140
1.0
102
RTVSPost2010PropOp39
 70
     0
102
RTVSPost2010Prop40
 90
        0
102
RTVSPost2010PropOp40
 70
     0
102
RTVSPost2010Prop41ColorIndex
 90
       18
102
RTVSPost2010Prop41ColorRGB
 90
        0
102
RTVSPost2010PropOp41
 70
     0
102
RTVSPost2010Prop42
 90
       50
102
RTVSPost2010PropOp42
 70
     0
102
RTVSPost2010Prop43
 90
        3
102
RTVSPost2010PropOp43
 70
     0
102
RTVSPost2010Prop44ColorIndex
 90
        5
102
RTVSPost2010Prop44ColorRGB
 90
      255
102
RTVSPost2010PropOp44
 70
     0
102
RTVSPost2010Prop45
280
     0
102
RTVSPost2010PropOp45
 70
     0
102
RTVSPost2010Prop46
 90
       50
102
RTVSPost2010PropOp46
 70
     0
102
RTVSPost2010Prop47
 90
       50
102
RTVSPost2010PropOp47
 70
     0
102
RTVSPost2010Prop48
 90
       50
102
RTVSPost2010PropOp48
 70
     0
102
RTVSPost2010Prop49
280
     0
102
RTVSPost2010PropOp49
 70
     0
102
RTVSPost2010Prop50
 90
       50
102
RTVSPost2010PropOp50
 70
     0
102
RTVSPost2010Prop51ColorIndex
 90
      256
102
RTVSPost2010Prop51ColorRGB
 90
-16777216
102
RTVSPost2010PropOp51
 70
     0
102
RTVSPost2010Prop52
140
1.0
102
RTVSPost2010PropOp52
 70
     0
102
RTVSPost2010Prop53
 90
        2
102
RTVSPost2010PropOp53
 70
     0
102
RTVSPost2010Prop54
  1
strokes_ogs.tif
102
RTVSPost2010PropOp54
 70
     0
102
RTVSPost2010Prop55
280
     0
102
RTVSPost2010PropOp55
 70
     0
102
RTVSPost2010Prop56
140
1.0
102
RTVSPost2010PropOp56
 70
     0
102
RTVSPost2010Prop57
140
1.0
102
RTVSPost2010PropOp57
 70
     0
102
RTVSPropertyOp0
 70
     0
102
RTVSPropertyOp1
 70
     0
102
RTVSPropertyOp2
 70
     0
102
RTVSPropertyOp3
 70
     0
102
RTVSPropertyOp4
 70
     0
102
RTVSPropertyOp5
 70
     0
102
RTVSPropertyOp6
 70
     0
102
RTVSPropertyOp7
 70
     0
102
RTVSPropertyOp8
 70
     0
102
RTVSPropertyOp9
 70
     0
102
RTVSPropertyOp10
 70
     0
102
RTVSPropertyOp11
 70
     0
102
RTVSPropertyOp12
 70
     0
102
RTVSPropertyOp13
 70
     0
102
RTVSPropertyOp14
 70
     2
102
RTVSPropertyOp15
 70
     0
102
RTVSPropertyOp16
 70
     0
102
RTVSPropertyOp17
 70
     0
102
RTVSPropertyOp18
 70
     0
102
RTVSPropertyOp19
 70
     0
102
RTVSPropertyOp20
 70
     0
102
RTVSPropertyOp21
 70
     0
102
RTVSPropertyOp22
 70
     0
102
RTVSPropertyOp23
 70
     0
102
RTVSPropertyOp24
 70
     0
102
RTVSPropertyOp25
 70
     0
102
RTVSPropertyOp26
 70
     0
102
RTVSPropertyOp27
 70
     0
102
RTVSPropertyOp28
 70
     0
102
RTVSPropertyOp29
 70
     0
102
RTVSPropertyOp30
 70
     0
102
RTVSPropertyOp31
 70
     0
102
RTVSPropertyOp32
 70
     0
102
RTVSPropertyOp33
 70
     0
102
RTVSPropertyOp34
 70
     0
102
RTVSPropertyOp35
 70
     0
102
RTVSPropertyOp36
 70
     0
102
RTVSPropertyOp37
 70
     0
102
RTVSPropertyOp38
 70
     0
102
RTVSPropertyOp39
 70
     0
102
RTVSPropertyOp40
 70
     0
102
RTVSPropertyOp41
 70
     0
102
RTVSPropertyOp42
 70
     0
102
RTVSPropertyOp43
 70
     0
102
RTVSPropertyOp44
 70
     0
102
RTVSPropertyOp45
 70
     0
102
RTVSPropertyOp46
 70
     0
102
RTVSPropertyOp47
 70
     0
102
RTVSPropertyOp48
 70
     0
102
RTVSPropertyOp49
 70
     0
102
RTVSPropertyOp50
 70
     0
102
RTVSPropertyOp51
 70
     0
102
RTVSPropertyOp52
 70
     0
102
RTVSPropertyOp53
 70
     0
102
RTVSPropertyOp54
 70
     0
102
RTVSPropertyOp55
 70
     0
102
RTVSPropertyOp56
 70
     0
102
RTVSPropertyOp57
 70
     0
102
RTVSPropertyOp58
 70
     1
102
RTVSPropertyOp59
 70
     1
102
RTVSPropertyOp60
 70
     1
102
RTVSPropertyOp61
 70
     1
102
RTVSPropertyOp62
 70
     1
  0
XRECORD
  5
5563
102
{ACAD_REACTORS
330
5562
102
}
330
5562
100
AcDbXrecord
280
     1
102
RTVSPost2010Prop28
280
     0
102
RTVSPost2010PropOp28
 70
     1
102
RTVSPost2010Prop29
280
     1
102
RTVSPost2010PropOp29
 70
     1
102
RTVSPost2010Prop30
280
     1
102
RTVSPost2010PropOp30
 70
     1
102
RTVSPost2010Prop31
280
     0
102
RTVSPost2010PropOp31
 70
     1
102
RTVSPost2010Prop32
280
     0
102
RTVSPost2010PropOp32
 70
     1
102
RTVSPost2010Prop33
280
     0
102
RTVSPost2010PropOp33
 70
     1
102
RTVSPost2010Prop34
280
     0
102
RTVSPost2010PropOp34
 70
     1
102
RTVSPost2010Prop35
280
     0
102
RTVSPost2010PropOp35
 70
     1
102
RTVSPost2010Prop36
280
     0
102
RTVSPost2010PropOp36
 70
     1
102
RTVSPost2010Prop37
 90
       50
102
RTVSPost2010PropOp37
 70
     1
102
RTVSPost2010Prop38
140
0.0
102
RTVSPost2010PropOp38
 70
     1
102
RTVSPost2010Prop39
140
1.0
102
RTVSPost2010PropOp39
 70
     1
102
RTVSPost2010Prop40
 90
        0
102
RTVSPost2010PropOp40
 70
     1
102
RTVSPost2010Prop41ColorIndex
 90
       18
102
RTVSPost2010Prop41ColorRGB
 90
        0
102
RTVSPost2010PropOp41
 70
     1
102
RTVSPost2010Prop42
 90
       50
102
RTVSPost2010PropOp42
 70
     1
102
RTVSPost2010Prop43
 90
        3
102
RTVSPost2010PropOp43
 70
     1
102
RTVSPost2010Prop44ColorIndex
 90
        5
102
RTVSPost2010Prop44ColorRGB
 90
      255
102
RTVSPost2010PropOp44
 70
     1
102
RTVSPost2010Prop45
280
     0
102
RTVSPost2010PropOp45
 70
     1
102
RTVSPost2010Prop46
 90
       50
102
RTVSPost2010PropOp46
 70
     1
102
RTVSPost2010Prop47
 90
       50
102
RTVSPost2010PropOp47
 70
     1
102
RTVSPost2010Prop48
 90
       50
102
RTVSPost2010PropOp48
 70
     1
102
RTVSPost2010Prop49
280
     0
102
RTVSPost2010PropOp49
 70
     1
102
RTVSPost2010Prop50
 90
       50
102
RTVSPost2010PropOp50
 70
     1
102
RTVSPost2010Prop51ColorIndex
 90
      256
102
RTVSPost2010Prop51ColorRGB
 90
-16777216
102
RTVSPost2010PropOp51
 70
     0
102
RTVSPost2010Prop52
140
1.0
102
RTVSPost2010PropOp52
 70
     0
102
RTVSPost2010Prop53
 90
        2
102
RTVSPost2010PropOp53
 70
     1
102
RTVSPost2010Prop54
  1
strokes_ogs.tif
102
RTVSPost2010PropOp54
 70
     1
102
RTVSPost2010Prop55
280
     0
102
RTVSPost2010PropOp55
 70
     1
102
RTVSPost2010Prop56
140
1.0
102
RTVSPost2010PropOp56
 70
     1
102
RTVSPost2010Prop57
140
1.0
102
RTVSPost2010PropOp57
 70
     1
102
RTVSPropertyOp0
 70
     1
102
RTVSPropertyOp1
 70
     1
102
RTVSPropertyOp2
 70
     1
102
RTVSPropertyOp3
 70
     1
102
RTVSPropertyOp4
 70
     1
102
RTVSPropertyOp5
 70
     1
102
RTVSPropertyOp6
 70
     1
102
RTVSPropertyOp7
 70
     1
102
RTVSPropertyOp8
 70
     1
102
RTVSPropertyOp9
 70
     1
102
RTVSPropertyOp10
 70
     1
102
RTVSPropertyOp11
 70
     1
102
RTVSPropertyOp12
 70
     1
102
RTVSPropertyOp13
 70
     1
102
RTVSPropertyOp14
 70
     1
102
RTVSPropertyOp15
 70
     1
102
RTVSPropertyOp16
 70
     1
102
RTVSPropertyOp17
 70
     1
102
RTVSPropertyOp18
 70
     1
102
RTVSPropertyOp19
 70
     1
102
RTVSPropertyOp20
 70
     1
102
RTVSPropertyOp21
 70
     1
102
RTVSPropertyOp22
 70
     1
102
RTVSPropertyOp23
 70
     1
102
RTVSPropertyOp24
 70
     1
102
RTVSPropertyOp25
 70
     1
102
RTVSPropertyOp26
 70
     1
102
RTVSPropertyOp27
 70
     1
102
RTVSPropertyOp28
 70
     1
102
RTVSPropertyOp29
 70
     1
102
RTVSPropertyOp30
 70
     1
102
RTVSPropertyOp31
 70
     1
102
RTVSPropertyOp32
 70
     1
102
RTVSPropertyOp33
 70
     1
102
RTVSPropertyOp34
 70
     1
102
RTVSPropertyOp35
 70
     1
102
RTVSPropertyOp36
 70
     1
102
RTVSPropertyOp37
 70
     1
102
RTVSPropertyOp38
 70
     1
102
RTVSPropertyOp39
 70
     1
102
RTVSPropertyOp40
 70
     1
102
RTVSPropertyOp41
 70
     1
102
RTVSPropertyOp42
 70
     1
102
RTVSPropertyOp43
 70
     1
102
RTVSPropertyOp44
 70
     1
102
RTVSPropertyOp45
 70
     1
102
RTVSPropertyOp46
 70
     1
102
RTVSPropertyOp47
 70
     1
102
RTVSPropertyOp48
 70
     1
102
RTVSPropertyOp49
 70
     1
102
RTVSPropertyOp50
 70
     1
102
RTVSPropertyOp51
 70
     0
102
RTVSPropertyOp52
 70
     0
102
RTVSPropertyOp53
 70
     1
102
RTVSPropertyOp54
 70
     1
102
RTVSPropertyOp55
 70
     1
102
RTVSPropertyOp56
 70
     1
102
RTVSPropertyOp57
 70
     1
102
RTVSPropertyOp58
 70
     1
102
RTVSPropertyOp59
 70
     1
102
RTVSPropertyOp60
 70
     1
102
RTVSPropertyOp61
 70
     1
102
RTVSPropertyOp62
 70
     1
  0
XRECORD
  5
5547
102
{ACAD_REACTORS
330
5546
102
}
330
5546
100
AcDbXrecord
280
     1
102
RTVSPost2010Prop28
280
     0
102
RTVSPost2010PropOp28
 70
     1
102
RTVSPost2010Prop29
280
     1
102
RTVSPost2010PropOp29
 70
     1
102
RTVSPost2010Prop30
280
     1
102
RTVSPost2010PropOp30
 70
     1
102
RTVSPost2010Prop31
280
     0
102
RTVSPost2010PropOp31
 70
     1
102
RTVSPost2010Prop32
280
     0
102
RTVSPost2010PropOp32
 70
     1
102
RTVSPost2010Prop33
280
     0
102
RTVSPost2010PropOp33
 70
     1
102
RTVSPost2010Prop34
280
     0
102
RTVSPost2010PropOp34
 70
     1
102
RTVSPost2010Prop35
280
     0
102
RTVSPost2010PropOp35
 70
     1
102
RTVSPost2010Prop36
280
     0
102
RTVSPost2010PropOp36
 70
     1
102
RTVSPost2010Prop37
 90
       50
102
RTVSPost2010PropOp37
 70
     1
102
RTVSPost2010Prop38
140
0.0
102
RTVSPost2010PropOp38
 70
     1
102
RTVSPost2010Prop39
140
1.0
102
RTVSPost2010PropOp39
 70
     1
102
RTVSPost2010Prop40
 90
        0
102
RTVSPost2010PropOp40
 70
     1
102
RTVSPost2010Prop41ColorIndex
 90
       18
102
RTVSPost2010Prop41ColorRGB
 90
        0
102
RTVSPost2010PropOp41
 70
     1
102
RTVSPost2010Prop42
 90
       50
102
RTVSPost2010PropOp42
 70
     1
102
RTVSPost2010Prop43
 90
        3
102
RTVSPost2010PropOp43
 70
     1
102
RTVSPost2010Prop44ColorIndex
 90
        5
102
RTVSPost2010Prop44ColorRGB
 90
      255
102
RTVSPost2010PropOp44
 70
     1
102
RTVSPost2010Prop45
280
     0
102
RTVSPost2010PropOp45
 70
     1
102
RTVSPost2010Prop46
 90
       50
102
RTVSPost2010PropOp46
 70
     1
102
RTVSPost2010Prop47
 90
       50
102
RTVSPost2010PropOp47
 70
     1
102
RTVSPost2010Prop48
 90
       50
102
RTVSPost2010PropOp48
 70
     1
102
RTVSPost2010Prop49
280
     0
102
RTVSPost2010PropOp49
 70
     1
102
RTVSPost2010Prop50
 90
       50
102
RTVSPost2010PropOp50
 70
     1
102
RTVSPost2010Prop51ColorIndex
 90
      256
102
RTVSPost2010Prop51ColorRGB
 90
-16777216
102
RTVSPost2010PropOp51
 70
     0
102
RTVSPost2010Prop52
140
1.0
102
RTVSPost2010PropOp52
 70
     0
102
RTVSPost2010Prop53
 90
        2
102
RTVSPost2010PropOp53
 70
     1
102
RTVSPost2010Prop54
  1
strokes_ogs.tif
102
RTVSPost2010PropOp54
 70
     1
102
RTVSPost2010Prop55
280
     0
102
RTVSPost2010PropOp55
 70
     1
102
RTVSPost2010Prop56
140
1.0
102
RTVSPost2010PropOp56
 70
     1
102
RTVSPost2010Prop57
140
1.0
102
RTVSPost2010PropOp57
 70
     1
102
RTVSPropertyOp0
 70
     1
102
RTVSPropertyOp1
 70
     1
102
RTVSPropertyOp2
 70
     1
102
RTVSPropertyOp3
 70
     1
102
RTVSPropertyOp4
 70
     1
102
RTVSPropertyOp5
 70
     1
102
RTVSPropertyOp6
 70
     1
102
RTVSPropertyOp7
 70
     1
102
RTVSPropertyOp8
 70
     1
102
RTVSPropertyOp9
 70
     1
102
RTVSPropertyOp10
 70
     1
102
RTVSPropertyOp11
 70
     1
102
RTVSPropertyOp12
 70
     1
102
RTVSPropertyOp13
 70
     1
102
RTVSPropertyOp14
 70
     1
102
RTVSPropertyOp15
 70
     1
102
RTVSPropertyOp16
 70
     1
102
RTVSPropertyOp17
 70
     1
102
RTVSPropertyOp18
 70
     1
102
RTVSPropertyOp19
 70
     1
102
RTVSPropertyOp20
 70
     1
102
RTVSPropertyOp21
 70
     1
102
RTVSPropertyOp22
 70
     1
102
RTVSPropertyOp23
 70
     1
102
RTVSPropertyOp24
 70
     1
102
RTVSPropertyOp25
 70
     1
102
RTVSPropertyOp26
 70
     1
102
RTVSPropertyOp27
 70
     1
102
RTVSPropertyOp28
 70
     1
102
RTVSPropertyOp29
 70
     1
102
RTVSPropertyOp30
 70
     1
102
RTVSPropertyOp31
 70
     1
102
RTVSPropertyOp32
 70
     1
102
RTVSPropertyOp33
 70
     1
102
RTVSPropertyOp34
 70
     1
102
RTVSPropertyOp35
 70
     1
102
RTVSPropertyOp36
 70
     1
102
RTVSPropertyOp37
 70
     1
102
RTVSPropertyOp38
 70
     1
102
RTVSPropertyOp39
 70
     1
102
RTVSPropertyOp40
 70
     1
102
RTVSPropertyOp41
 70
     1
102
RTVSPropertyOp42
 70
     1
102
RTVSPropertyOp43
 70
     1
102
RTVSPropertyOp44
 70
     1
102
RTVSPropertyOp45
 70
     1
102
RTVSPropertyOp46
 70
     1
102
RTVSPropertyOp47
 70
     1
102
RTVSPropertyOp48
 70
     1
102
RTVSPropertyOp49
 70
     1
102
RTVSPropertyOp50
 70
     1
102
RTVSPropertyOp51
 70
     0
102
RTVSPropertyOp52
 70
     0
102
RTVSPropertyOp53
 70
     1
102
RTVSPropertyOp54
 70
     1
102
RTVSPropertyOp55
 70
     1
102
RTVSPropertyOp56
 70
     1
102
RTVSPropertyOp57
 70
     1
102
RTVSPropertyOp58
 70
     1
102
RTVSPropertyOp59
 70
     1
102
RTVSPropertyOp60
 70
     1
102
RTVSPropertyOp61
 70
     1
102
RTVSPropertyOp62
 70
     1
  0
XRECORD
  5
5549
102
{ACAD_REACTORS
330
5548
102
}
330
5548
100
AcDbXrecord
280
     1
102
RTVSPost2010Prop28
280
     0
102
RTVSPost2010PropOp28
 70
     1
102
RTVSPost2010Prop29
280
     1
102
RTVSPost2010PropOp29
 70
     1
102
RTVSPost2010Prop30
280
     1
102
RTVSPost2010PropOp30
 70
     1
102
RTVSPost2010Prop31
280
     0
102
RTVSPost2010PropOp31
 70
     1
102
RTVSPost2010Prop32
280
     0
102
RTVSPost2010PropOp32
 70
     1
102
RTVSPost2010Prop33
280
     0
102
RTVSPost2010PropOp33
 70
     1
102
RTVSPost2010Prop34
280
     0
102
RTVSPost2010PropOp34
 70
     1
102
RTVSPost2010Prop35
280
     0
102
RTVSPost2010PropOp35
 70
     1
102
RTVSPost2010Prop36
280
     0
102
RTVSPost2010PropOp36
 70
     1
102
RTVSPost2010Prop37
 90
       50
102
RTVSPost2010PropOp37
 70
     1
102
RTVSPost2010Prop38
140
0.0
102
RTVSPost2010PropOp38
 70
     1
102
RTVSPost2010Prop39
140
1.0
102
RTVSPost2010PropOp39
 70
     1
102
RTVSPost2010Prop40
 90
        0
102
RTVSPost2010PropOp40
 70
     1
102
RTVSPost2010Prop41ColorIndex
 90
       18
102
RTVSPost2010Prop41ColorRGB
 90
        0
102
RTVSPost2010PropOp41
 70
     1
102
RTVSPost2010Prop42
 90
       50
102
RTVSPost2010PropOp42
 70
     1
102
RTVSPost2010Prop43
 90
        3
102
RTVSPost2010PropOp43
 70
     1
102
RTVSPost2010Prop44ColorIndex
 90
        5
102
RTVSPost2010Prop44ColorRGB
 90
      255
102
RTVSPost2010PropOp44
 70
     1
102
RTVSPost2010Prop45
280
     0
102
RTVSPost2010PropOp45
 70
     1
102
RTVSPost2010Prop46
 90
       50
102
RTVSPost2010PropOp46
 70
     1
102
RTVSPost2010Prop47
 90
       50
102
RTVSPost2010PropOp47
 70
     1
102
RTVSPost2010Prop48
 90
       50
102
RTVSPost2010PropOp48
 70
     1
102
RTVSPost2010Prop49
280
     0
102
RTVSPost2010PropOp49
 70
     1
102
RTVSPost2010Prop50
 90
       50
102
RTVSPost2010PropOp50
 70
     1
102
RTVSPost2010Prop51ColorIndex
 90
      256
102
RTVSPost2010Prop51ColorRGB
 90
-16777216
102
RTVSPost2010PropOp51
 70
     0
102
RTVSPost2010Prop52
140
1.0
102
RTVSPost2010PropOp52
 70
     0
102
RTVSPost2010Prop53
 90
        2
102
RTVSPost2010PropOp53
 70
     1
102
RTVSPost2010Prop54
  1
strokes_ogs.tif
102
RTVSPost2010PropOp54
 70
     1
102
RTVSPost2010Prop55
280
     0
102
RTVSPost2010PropOp55
 70
     1
102
RTVSPost2010Prop56
140
1.0
102
RTVSPost2010PropOp56
 70
     1
102
RTVSPost2010Prop57
140
1.0
102
RTVSPost2010PropOp57
 70
     1
102
RTVSPropertyOp0
 70
     1
102
RTVSPropertyOp1
 70
     1
102
RTVSPropertyOp2
 70
     1
102
RTVSPropertyOp3
 70
     1
102
RTVSPropertyOp4
 70
     1
102
RTVSPropertyOp5
 70
     1
102
RTVSPropertyOp6
 70
     1
102
RTVSPropertyOp7
 70
     1
102
RTVSPropertyOp8
 70
     1
102
RTVSPropertyOp9
 70
     1
102
RTVSPropertyOp10
 70
     1
102
RTVSPropertyOp11
 70
     1
102
RTVSPropertyOp12
 70
     1
102
RTVSPropertyOp13
 70
     1
102
RTVSPropertyOp14
 70
     1
102
RTVSPropertyOp15
 70
     1
102
RTVSPropertyOp16
 70
     1
102
RTVSPropertyOp17
 70
     1
102
RTVSPropertyOp18
 70
     1
102
RTVSPropertyOp19
 70
     1
102
RTVSPropertyOp20
 70
     1
102
RTVSPropertyOp21
 70
     1
102
RTVSPropertyOp22
 70
     1
102
RTVSPropertyOp23
 70
     1
102
RTVSPropertyOp24
 70
     1
102
RTVSPropertyOp25
 70
     1
102
RTVSPropertyOp26
 70
     1
102
RTVSPropertyOp27
 70
     1
102
RTVSPropertyOp28
 70
     1
102
RTVSPropertyOp29
 70
     1
102
RTVSPropertyOp30
 70
     1
102
RTVSPropertyOp31
 70
     1
102
RTVSPropertyOp32
 70
     1
102
RTVSPropertyOp33
 70
     1
102
RTVSPropertyOp34
 70
     1
102
RTVSPropertyOp35
 70
     1
102
RTVSPropertyOp36
 70
     1
102
RTVSPropertyOp37
 70
     1
102
RTVSPropertyOp38
 70
     1
102
RTVSPropertyOp39
 70
     1
102
RTVSPropertyOp40
 70
     1
102
RTVSPropertyOp41
 70
     1
102
RTVSPropertyOp42
 70
     1
102
RTVSPropertyOp43
 70
     1
102
RTVSPropertyOp44
 70
     1
102
RTVSPropertyOp45
 70
     1
102
RTVSPropertyOp46
 70
     1
102
RTVSPropertyOp47
 70
     1
102
RTVSPropertyOp48
 70
     1
102
RTVSPropertyOp49
 70
     1
102
RTVSPropertyOp50
 70
     1
102
RTVSPropertyOp51
 70
     0
102
RTVSPropertyOp52
 70
     0
102
RTVSPropertyOp53
 70
     1
102
RTVSPropertyOp54
 70
     1
102
RTVSPropertyOp55
 70
     1
102
RTVSPropertyOp56
 70
     1
102
RTVSPropertyOp57
 70
     1
102
RTVSPropertyOp58
 70
     1
102
RTVSPropertyOp59
 70
     1
102
RTVSPropertyOp60
 70
     1
102
RTVSPropertyOp61
 70
     1
102
RTVSPropertyOp62
 70
     1
  0
XRECORD
  5
554B
102
{ACAD_REACTORS
330
554A
102
}
330
554A
100
AcDbXrecord
280
     1
102
RTVSPost2010Prop28
280
     0
102
RTVSPost2010PropOp28
 70
     1
102
RTVSPost2010Prop29
280
     1
102
RTVSPost2010PropOp29
 70
     1
102
RTVSPost2010Prop30
280
     1
102
RTVSPost2010PropOp30
 70
     1
102
RTVSPost2010Prop31
280
     0
102
RTVSPost2010PropOp31
 70
     1
102
RTVSPost2010Prop32
280
     0
102
RTVSPost2010PropOp32
 70
     1
102
RTVSPost2010Prop33
280
     0
102
RTVSPost2010PropOp33
 70
     1
102
RTVSPost2010Prop34
280
     0
102
RTVSPost2010PropOp34
 70
     1
102
RTVSPost2010Prop35
280
     0
102
RTVSPost2010PropOp35
 70
     1
102
RTVSPost2010Prop36
280
     0
102
RTVSPost2010PropOp36
 70
     1
102
RTVSPost2010Prop37
 90
       50
102
RTVSPost2010PropOp37
 70
     1
102
RTVSPost2010Prop38
140
0.0
102
RTVSPost2010PropOp38
 70
     1
102
RTVSPost2010Prop39
140
1.0
102
RTVSPost2010PropOp39
 70
     1
102
RTVSPost2010Prop40
 90
        0
102
RTVSPost2010PropOp40
 70
     1
102
RTVSPost2010Prop41ColorIndex
 90
       18
102
RTVSPost2010Prop41ColorRGB
 90
        0
102
RTVSPost2010PropOp41
 70
     1
102
RTVSPost2010Prop42
 90
       50
102
RTVSPost2010PropOp42
 70
     1
102
RTVSPost2010Prop43
 90
        3
102
RTVSPost2010PropOp43
 70
     1
102
RTVSPost2010Prop44ColorIndex
 90
        5
102
RTVSPost2010Prop44ColorRGB
 90
      255
102
RTVSPost2010PropOp44
 70
     1
102
RTVSPost2010Prop45
280
     0
102
RTVSPost2010PropOp45
 70
     1
102
RTVSPost2010Prop46
 90
       50
102
RTVSPost2010PropOp46
 70
     1
102
RTVSPost2010Prop47
 90
       50
102
RTVSPost2010PropOp47
 70
     1
102
RTVSPost2010Prop48
 90
       50
102
RTVSPost2010PropOp48
 70
     1
102
RTVSPost2010Prop49
280
     0
102
RTVSPost2010PropOp49
 70
     1
102
RTVSPost2010Prop50
 90
       50
102
RTVSPost2010PropOp50
 70
     1
102
RTVSPost2010Prop51ColorIndex
 90
      256
102
RTVSPost2010Prop51ColorRGB
 90
-16777216
102
RTVSPost2010PropOp51
 70
     0
102
RTVSPost2010Prop52
140
1.0
102
RTVSPost2010PropOp52
 70
     0
102
RTVSPost2010Prop53
 90
        2
102
RTVSPost2010PropOp53
 70
     1
102
RTVSPost2010Prop54
  1
strokes_ogs.tif
102
RTVSPost2010PropOp54
 70
     1
102
RTVSPost2010Prop55
280
     0
102
RTVSPost2010PropOp55
 70
     1
102
RTVSPost2010Prop56
140
1.0
102
RTVSPost2010PropOp56
 70
     1
102
RTVSPost2010Prop57
140
1.0
102
RTVSPost2010PropOp57
 70
     1
102
RTVSPropertyOp0
 70
     1
102
RTVSPropertyOp1
 70
     1
102
RTVSPropertyOp2
 70
     1
102
RTVSPropertyOp3
 70
     1
102
RTVSPropertyOp4
 70
     1
102
RTVSPropertyOp5
 70
     1
102
RTVSPropertyOp6
 70
     1
102
RTVSPropertyOp7
 70
     1
102
RTVSPropertyOp8
 70
     1
102
RTVSPropertyOp9
 70
     1
102
RTVSPropertyOp10
 70
     1
102
RTVSPropertyOp11
 70
     1
102
RTVSPropertyOp12
 70
     1
102
RTVSPropertyOp13
 70
     1
102
RTVSPropertyOp14
 70
     1
102
RTVSPropertyOp15
 70
     1
102
RTVSPropertyOp16
 70
     1
102
RTVSPropertyOp17
 70
     1
102
RTVSPropertyOp18
 70
     1
102
RTVSPropertyOp19
 70
     1
102
RTVSPropertyOp20
 70
     1
102
RTVSPropertyOp21
 70
     1
102
RTVSPropertyOp22
 70
     1
102
RTVSPropertyOp23
 70
     1
102
RTVSPropertyOp24
 70
     1
102
RTVSPropertyOp25
 70
     1
102
RTVSPropertyOp26
 70
     1
102
RTVSPropertyOp27
 70
     1
102
RTVSPropertyOp28
 70
     1
102
RTVSPropertyOp29
 70
     1
102
RTVSPropertyOp30
 70
     1
102
RTVSPropertyOp31
 70
     1
102
RTVSPropertyOp32
 70
     1
102
RTVSPropertyOp33
 70
     1
102
RTVSPropertyOp34
 70
     1
102
RTVSPropertyOp35
 70
     1
102
RTVSPropertyOp36
 70
     1
102
RTVSPropertyOp37
 70
     1
102
RTVSPropertyOp38
 70
     1
102
RTVSPropertyOp39
 70
     1
102
RTVSPropertyOp40
 70
     1
102
RTVSPropertyOp41
 70
     1
102
RTVSPropertyOp42
 70
     1
102
RTVSPropertyOp43
 70
     1
102
RTVSPropertyOp44
 70
     1
102
RTVSPropertyOp45
 70
     1
102
RTVSPropertyOp46
 70
     1
102
RTVSPropertyOp47
 70
     1
102
RTVSPropertyOp48
 70
     1
102
RTVSPropertyOp49
 70
     1
102
RTVSPropertyOp50
 70
     1
102
RTVSPropertyOp51
 70
     0
102
RTVSPropertyOp52
 70
     0
102
RTVSPropertyOp53
 70
     1
102
RTVSPropertyOp54
 70
     1
102
RTVSPropertyOp55
 70
     1
102
RTVSPropertyOp56
 70
     1
102
RTVSPropertyOp57
 70
     1
102
RTVSPropertyOp58
 70
     1
102
RTVSPropertyOp59
 70
     1
102
RTVSPropertyOp60
 70
     1
102
RTVSPropertyOp61
 70
     1
102
RTVSPropertyOp62
 70
     1
  0
XRECORD
  5
554D
102
{ACAD_REACTORS
330
554C
102
}
330
554C
100
AcDbXrecord
280
     1
102
RTVSPost2010Prop28
280
     0
102
RTVSPost2010PropOp28
 70
     1
102
RTVSPost2010Prop29
280
     1
102
RTVSPost2010PropOp29
 70
     1
102
RTVSPost2010Prop30
280
     1
102
RTVSPost2010PropOp30
 70
     1
102
RTVSPost2010Prop31
280
     0
102
RTVSPost2010PropOp31
 70
     1
102
RTVSPost2010Prop32
280
     0
102
RTVSPost2010PropOp32
 70
     1
102
RTVSPost2010Prop33
280
     0
102
RTVSPost2010PropOp33
 70
     1
102
RTVSPost2010Prop34
280
     0
102
RTVSPost2010PropOp34
 70
     1
102
RTVSPost2010Prop35
280
     0
102
RTVSPost2010PropOp35
 70
     1
102
RTVSPost2010Prop36
280
     0
102
RTVSPost2010PropOp36
 70
     1
102
RTVSPost2010Prop37
 90
       50
102
RTVSPost2010PropOp37
 70
     1
102
RTVSPost2010Prop38
140
0.0
102
RTVSPost2010PropOp38
 70
     1
102
RTVSPost2010Prop39
140
1.0
102
RTVSPost2010PropOp39
 70
     1
102
RTVSPost2010Prop40
 90
        0
102
RTVSPost2010PropOp40
 70
     1
102
RTVSPost2010Prop41ColorIndex
 90
       18
102
RTVSPost2010Prop41ColorRGB
 90
        0
102
RTVSPost2010PropOp41
 70
     1
102
RTVSPost2010Prop42
 90
       50
102
RTVSPost2010PropOp42
 70
     1
102
RTVSPost2010Prop43
 90
        3
102
RTVSPost2010PropOp43
 70
     1
102
RTVSPost2010Prop44ColorIndex
 90
        5
102
RTVSPost2010Prop44ColorRGB
 90
      255
102
RTVSPost2010PropOp44
 70
     1
102
RTVSPost2010Prop45
280
     0
102
RTVSPost2010PropOp45
 70
     1
102
RTVSPost2010Prop46
 90
       50
102
RTVSPost2010PropOp46
 70
     1
102
RTVSPost2010Prop47
 90
       50
102
RTVSPost2010PropOp47
 70
     1
102
RTVSPost2010Prop48
 90
       50
102
RTVSPost2010PropOp48
 70
     1
102
RTVSPost2010Prop49
280
     0
102
RTVSPost2010PropOp49
 70
     1
102
RTVSPost2010Prop50
 90
       50
102
RTVSPost2010PropOp50
 70
     1
102
RTVSPost2010Prop51ColorIndex
 90
      256
102
RTVSPost2010Prop51ColorRGB
 90
-16777216
102
RTVSPost2010PropOp51
 70
     0
102
RTVSPost2010Prop52
140
1.0
102
RTVSPost2010PropOp52
 70
     0
102
RTVSPost2010Prop53
 90
        2
102
RTVSPost2010PropOp53
 70
     1
102
RTVSPost2010Prop54
  1
strokes_ogs.tif
102
RTVSPost2010PropOp54
 70
     1
102
RTVSPost2010Prop55
280
     0
102
RTVSPost2010PropOp55
 70
     1
102
RTVSPost2010Prop56
140
1.0
102
RTVSPost2010PropOp56
 70
     1
102
RTVSPost2010Prop57
140
1.0
102
RTVSPost2010PropOp57
 70
     1
102
RTVSPropertyOp0
 70
     1
102
RTVSPropertyOp1
 70
     1
102
RTVSPropertyOp2
 70
     1
102
RTVSPropertyOp3
 70
     1
102
RTVSPropertyOp4
 70
     1
102
RTVSPropertyOp5
 70
     1
102
RTVSPropertyOp6
 70
     1
102
RTVSPropertyOp7
 70
     1
102
RTVSPropertyOp8
 70
     1
102
RTVSPropertyOp9
 70
     1
102
RTVSPropertyOp10
 70
     1
102
RTVSPropertyOp11
 70
     1
102
RTVSPropertyOp12
 70
     1
102
RTVSPropertyOp13
 70
     1
102
RTVSPropertyOp14
 70
     1
102
RTVSPropertyOp15
 70
     1
102
RTVSPropertyOp16
 70
     1
102
RTVSPropertyOp17
 70
     1
102
RTVSPropertyOp18
 70
     1
102
RTVSPropertyOp19
 70
     1
102
RTVSPropertyOp20
 70
     1
102
RTVSPropertyOp21
 70
     1
102
RTVSPropertyOp22
 70
     1
102
RTVSPropertyOp23
 70
     1
102
RTVSPropertyOp24
 70
     1
102
RTVSPropertyOp25
 70
     1
102
RTVSPropertyOp26
 70
     1
102
RTVSPropertyOp27
 70
     1
102
RTVSPropertyOp28
 70
     1
102
RTVSPropertyOp29
 70
     1
102
RTVSPropertyOp30
 70
     1
102
RTVSPropertyOp31
 70
     1
102
RTVSPropertyOp32
 70
     1
102
RTVSPropertyOp33
 70
     1
102
RTVSPropertyOp34
 70
     1
102
RTVSPropertyOp35
 70
     1
102
RTVSPropertyOp36
 70
     1
102
RTVSPropertyOp37
 70
     1
102
RTVSPropertyOp38
 70
     1
102
RTVSPropertyOp39
 70
     1
102
RTVSPropertyOp40
 70
     1
102
RTVSPropertyOp41
 70
     1
102
RTVSPropertyOp42
 70
     1
102
RTVSPropertyOp43
 70
     1
102
RTVSPropertyOp44
 70
     1
102
RTVSPropertyOp45
 70
     1
102
RTVSPropertyOp46
 70
     1
102
RTVSPropertyOp47
 70
     1
102
RTVSPropertyOp48
 70
     1
102
RTVSPropertyOp49
 70
     1
102
RTVSPropertyOp50
 70
     1
102
RTVSPropertyOp51
 70
     0
102
RTVSPropertyOp52
 70
     0
102
RTVSPropertyOp53
 70
     1
102
RTVSPropertyOp54
 70
     1
102
RTVSPropertyOp55
 70
     1
102
RTVSPropertyOp56
 70
     1
102
RTVSPropertyOp57
 70
     1
102
RTVSPropertyOp58
 70
     1
102
RTVSPropertyOp59
 70
     1
102
RTVSPropertyOp60
 70
     1
102
RTVSPropertyOp61
 70
     1
102
RTVSPropertyOp62
 70
     1
  0
XRECORD
  5
5555
102
{ACAD_REACTORS
330
5554
102
}
330
5554
100
AcDbXrecord
280
     1
102
RTVSPost2010Prop28
280
     0
102
RTVSPost2010PropOp28
 70
     1
102
RTVSPost2010Prop29
280
     1
102
RTVSPost2010PropOp29
 70
     1
102
RTVSPost2010Prop30
280
     1
102
RTVSPost2010PropOp30
 70
     1
102
RTVSPost2010Prop31
280
     0
102
RTVSPost2010PropOp31
 70
     1
102
RTVSPost2010Prop32
280
     0
102
RTVSPost2010PropOp32
 70
     1
102
RTVSPost2010Prop33
280
     0
102
RTVSPost2010PropOp33
 70
     1
102
RTVSPost2010Prop34
280
     0
102
RTVSPost2010PropOp34
 70
     1
102
RTVSPost2010Prop35
280
     0
102
RTVSPost2010PropOp35
 70
     1
102
RTVSPost2010Prop36
280
     0
102
RTVSPost2010PropOp36
 70
     1
102
RTVSPost2010Prop37
 90
       50
102
RTVSPost2010PropOp37
 70
     1
102
RTVSPost2010Prop38
140
0.0
102
RTVSPost2010PropOp38
 70
     1
102
RTVSPost2010Prop39
140
1.0
102
RTVSPost2010PropOp39
 70
     1
102
RTVSPost2010Prop40
 90
        0
102
RTVSPost2010PropOp40
 70
     1
102
RTVSPost2010Prop41ColorIndex
 90
       18
102
RTVSPost2010Prop41ColorRGB
 90
        0
102
RTVSPost2010PropOp41
 70
     1
102
RTVSPost2010Prop42
 90
       50
102
RTVSPost2010PropOp42
 70
     1
102
RTVSPost2010Prop43
 90
        3
102
RTVSPost2010PropOp43
 70
     1
102
RTVSPost2010Prop44ColorIndex
 90
        5
102
RTVSPost2010Prop44ColorRGB
 90
      255
102
RTVSPost2010PropOp44
 70
     1
102
RTVSPost2010Prop45
280
     0
102
RTVSPost2010PropOp45
 70
     1
102
RTVSPost2010Prop46
 90
       50
102
RTVSPost2010PropOp46
 70
     1
102
RTVSPost2010Prop47
 90
       50
102
RTVSPost2010PropOp47
 70
     1
102
RTVSPost2010Prop48
 90
       50
102
RTVSPost2010PropOp48
 70
     1
102
RTVSPost2010Prop49
280
     0
102
RTVSPost2010PropOp49
 70
     1
102
RTVSPost2010Prop50
 90
       50
102
RTVSPost2010PropOp50
 70
     1
102
RTVSPost2010Prop51ColorIndex
 90
      256
102
RTVSPost2010Prop51ColorRGB
 90
-16777216
102
RTVSPost2010PropOp51
 70
     0
102
RTVSPost2010Prop52
140
1.0
102
RTVSPost2010PropOp52
 70
     0
102
RTVSPost2010Prop53
 90
        2
102
RTVSPost2010PropOp53
 70
     1
102
RTVSPost2010Prop54
  1
strokes_ogs.tif
102
RTVSPost2010PropOp54
 70
     1
102
RTVSPost2010Prop55
280
     0
102
RTVSPost2010PropOp55
 70
     1
102
RTVSPost2010Prop56
140
1.0
102
RTVSPost2010PropOp56
 70
     1
102
RTVSPost2010Prop57
140
1.0
102
RTVSPost2010PropOp57
 70
     1
102
RTVSPropertyOp0
 70
     1
102
RTVSPropertyOp1
 70
     1
102
RTVSPropertyOp2
 70
     1
102
RTVSPropertyOp3
 70
     1
102
RTVSPropertyOp4
 70
     1
102
RTVSPropertyOp5
 70
     1
102
RTVSPropertyOp6
 70
     1
102
RTVSPropertyOp7
 70
     1
102
RTVSPropertyOp8
 70
     1
102
RTVSPropertyOp9
 70
     1
102
RTVSPropertyOp10
 70
     1
102
RTVSPropertyOp11
 70
     1
102
RTVSPropertyOp12
 70
     1
102
RTVSPropertyOp13
 70
     1
102
RTVSPropertyOp14
 70
     1
102
RTVSPropertyOp15
 70
     1
102
RTVSPropertyOp16
 70
     1
102
RTVSPropertyOp17
 70
     1
102
RTVSPropertyOp18
 70
     1
102
RTVSPropertyOp19
 70
     1
102
RTVSPropertyOp20
 70
     1
102
RTVSPropertyOp21
 70
     1
102
RTVSPropertyOp22
 70
     1
102
RTVSPropertyOp23
 70
     1
102
RTVSPropertyOp24
 70
     1
102
RTVSPropertyOp25
 70
     1
102
RTVSPropertyOp26
 70
     1
102
RTVSPropertyOp27
 70
     1
102
RTVSPropertyOp28
 70
     1
102
RTVSPropertyOp29
 70
     1
102
RTVSPropertyOp30
 70
     1
102
RTVSPropertyOp31
 70
     1
102
RTVSPropertyOp32
 70
     1
102
RTVSPropertyOp33
 70
     1
102
RTVSPropertyOp34
 70
     1
102
RTVSPropertyOp35
 70
     1
102
RTVSPropertyOp36
 70
     1
102
RTVSPropertyOp37
 70
     1
102
RTVSPropertyOp38
 70
     1
102
RTVSPropertyOp39
 70
     1
102
RTVSPropertyOp40
 70
     1
102
RTVSPropertyOp41
 70
     1
102
RTVSPropertyOp42
 70
     1
102
RTVSPropertyOp43
 70
     1
102
RTVSPropertyOp44
 70
     1
102
RTVSPropertyOp45
 70
     1
102
RTVSPropertyOp46
 70
     1
102
RTVSPropertyOp47
 70
     1
102
RTVSPropertyOp48
 70
     1
102
RTVSPropertyOp49
 70
     1
102
RTVSPropertyOp50
 70
     1
102
RTVSPropertyOp51
 70
     0
102
RTVSPropertyOp52
 70
     0
102
RTVSPropertyOp53
 70
     1
102
RTVSPropertyOp54
 70
     1
102
RTVSPropertyOp55
 70
     1
102
RTVSPropertyOp56
 70
     1
102
RTVSPropertyOp57
 70
     1
102
RTVSPropertyOp58
 70
     1
102
RTVSPropertyOp59
 70
     1
102
RTVSPropertyOp60
 70
     1
102
RTVSPropertyOp61
 70
     1
102
RTVSPropertyOp62
 70
     1
  0
XRECORD
  5
5571
102
{ACAD_REACTORS
330
5570
102
}
330
5570
100
AcDbXrecord
280
     1
102
RTVSPost2010Prop28
280
     0
102
RTVSPost2010PropOp28
 70
     0
102
RTVSPost2010Prop29
280
     1
102
RTVSPost2010PropOp29
 70
     0
102
RTVSPost2010Prop30
280
     1
102
RTVSPost2010PropOp30
 70
     0
102
RTVSPost2010Prop31
280
     0
102
RTVSPost2010PropOp31
 70
     0
102
RTVSPost2010Prop32
280
     0
102
RTVSPost2010PropOp32
 70
     0
102
RTVSPost2010Prop33
280
     0
102
RTVSPost2010PropOp33
 70
     0
102
RTVSPost2010Prop34
280
     0
102
RTVSPost2010PropOp34
 70
     0
102
RTVSPost2010Prop35
280
     0
102
RTVSPost2010PropOp35
 70
     0
102
RTVSPost2010Prop36
280
     0
102
RTVSPost2010PropOp36
 70
     0
102
RTVSPost2010Prop37
 90
       50
102
RTVSPost2010PropOp37
 70
     0
102
RTVSPost2010Prop38
140
0.0
102
RTVSPost2010PropOp38
 70
     0
102
RTVSPost2010Prop39
140
1.0
102
RTVSPost2010PropOp39
 70
     0
102
RTVSPost2010Prop40
 90
        0
102
RTVSPost2010PropOp40
 70
     0
102
RTVSPost2010Prop41ColorIndex
 90
       18
102
RTVSPost2010Prop41ColorRGB
 90
        0
102
RTVSPost2010PropOp41
 70
     0
102
RTVSPost2010Prop42
 90
       50
102
RTVSPost2010PropOp42
 70
     0
102
RTVSPost2010Prop43
 90
        3
102
RTVSPost2010PropOp43
 70
     0
102
RTVSPost2010Prop44ColorIndex
 90
        5
102
RTVSPost2010Prop44ColorRGB
 90
      255
102
RTVSPost2010PropOp44
 70
     0
102
RTVSPost2010Prop45
280
     0
102
RTVSPost2010PropOp45
 70
     0
102
RTVSPost2010Prop46
 90
       50
102
RTVSPost2010PropOp46
 70
     0
102
RTVSPost2010Prop47
 90
       50
102
RTVSPost2010PropOp47
 70
     0
102
RTVSPost2010Prop48
 90
       50
102
RTVSPost2010PropOp48
 70
     0
102
RTVSPost2010Prop49
280
     0
102
RTVSPost2010PropOp49
 70
     0
102
RTVSPost2010Prop50
 90
       50
102
RTVSPost2010PropOp50
 70
     0
102
RTVSPost2010Prop51ColorIndex
 90
      256
102
RTVSPost2010Prop51ColorRGB
 90
-16777216
102
RTVSPost2010PropOp51
 70
     0
102
RTVSPost2010Prop52
140
1.0
102
RTVSPost2010PropOp52
 70
     0
102
RTVSPost2010Prop53
 90
        2
102
RTVSPost2010PropOp53
 70
     0
102
RTVSPost2010Prop54
  1
strokes_ogs.tif
102
RTVSPost2010PropOp54
 70
     0
102
RTVSPost2010Prop55
280
     0
102
RTVSPost2010PropOp55
 70
     0
102
RTVSPost2010Prop56
140
1.0
102
RTVSPost2010PropOp56
 70
     0
102
RTVSPost2010Prop57
140
1.0
102
RTVSPost2010PropOp57
 70
     0
102
RTVSPropertyOp0
 70
     0
102
RTVSPropertyOp1
 70
     0
102
RTVSPropertyOp2
 70
     0
102
RTVSPropertyOp3
 70
     0
102
RTVSPropertyOp4
 70
     0
102
RTVSPropertyOp5
 70
     0
102
RTVSPropertyOp6
 70
     0
102
RTVSPropertyOp7
 70
     0
102
RTVSPropertyOp8
 70
     0
102
RTVSPropertyOp9
 70
     0
102
RTVSPropertyOp10
 70
     0
102
RTVSPropertyOp11
 70
     0
102
RTVSPropertyOp12
 70
     0
102
RTVSPropertyOp13
 70
     0
102
RTVSPropertyOp14
 70
     2
102
RTVSPropertyOp15
 70
     0
102
RTVSPropertyOp16
 70
     0
102
RTVSPropertyOp17
 70
     0
102
RTVSPropertyOp18
 70
     0
102
RTVSPropertyOp19
 70
     0
102
RTVSPropertyOp20
 70
     0
102
RTVSPropertyOp21
 70
     0
102
RTVSPropertyOp22
 70
     0
102
RTVSPropertyOp23
 70
     0
102
RTVSPropertyOp24
 70
     0
102
RTVSPropertyOp25
 70
     0
102
RTVSPropertyOp26
 70
     0
102
RTVSPropertyOp27
 70
     0
102
RTVSPropertyOp28
 70
     0
102
RTVSPropertyOp29
 70
     0
102
RTVSPropertyOp30
 70
     0
102
RTVSPropertyOp31
 70
     0
102
RTVSPropertyOp32
 70
     0
102
RTVSPropertyOp33
 70
     0
102
RTVSPropertyOp34
 70
     0
102
RTVSPropertyOp35
 70
     0
102
RTVSPropertyOp36
 70
     0
102
RTVSPropertyOp37
 70
     0
102
RTVSPropertyOp38
 70
     0
102
RTVSPropertyOp39
 70
     0
102
RTVSPropertyOp40
 70
     0
102
RTVSPropertyOp41
 70
     0
102
RTVSPropertyOp42
 70
     0
102
RTVSPropertyOp43
 70
     0
102
RTVSPropertyOp44
 70
     0
102
RTVSPropertyOp45
 70
     0
102
RTVSPropertyOp46
 70
     0
102
RTVSPropertyOp47
 70
     0
102
RTVSPropertyOp48
 70
     0
102
RTVSPropertyOp49
 70
     0
102
RTVSPropertyOp50
 70
     0
102
RTVSPropertyOp51
 70
     0
102
RTVSPropertyOp52
 70
     0
102
RTVSPropertyOp53
 70
     0
102
RTVSPropertyOp54
 70
     0
102
RTVSPropertyOp55
 70
     0
102
RTVSPropertyOp56
 70
     0
102
RTVSPropertyOp57
 70
     0
102
RTVSPropertyOp58
 70
     1
102
RTVSPropertyOp59
 70
     1
102
RTVSPropertyOp60
 70
     1
102
RTVSPropertyOp61
 70
     1
102
RTVSPropertyOp62
 70
     1
  0
XRECORD
  5
5561
102
{ACAD_REACTORS
330
5560
102
}
330
5560
100
AcDbXrecord
280
     1
102
RTVSPost2010Prop28
280
     0
102
RTVSPost2010PropOp28
 70
     1
102
RTVSPost2010Prop29
280
     1
102
RTVSPost2010PropOp29
 70
     1
102
RTVSPost2010Prop30
280
     1
102
RTVSPost2010PropOp30
 70
     1
102
RTVSPost2010Prop31
280
     0
102
RTVSPost2010PropOp31
 70
     1
102
RTVSPost2010Prop32
280
     0
102
RTVSPost2010PropOp32
 70
     1
102
RTVSPost2010Prop33
280
     0
102
RTVSPost2010PropOp33
 70
     1
102
RTVSPost2010Prop34
280
     0
102
RTVSPost2010PropOp34
 70
     1
102
RTVSPost2010Prop35
280
     0
102
RTVSPost2010PropOp35
 70
     1
102
RTVSPost2010Prop36
280
     0
102
RTVSPost2010PropOp36
 70
     1
102
RTVSPost2010Prop37
 90
       50
102
RTVSPost2010PropOp37
 70
     1
102
RTVSPost2010Prop38
140
0.0
102
RTVSPost2010PropOp38
 70
     1
102
RTVSPost2010Prop39
140
1.0
102
RTVSPost2010PropOp39
 70
     1
102
RTVSPost2010Prop40
 90
        0
102
RTVSPost2010PropOp40
 70
     1
102
RTVSPost2010Prop41ColorIndex
 90
       18
102
RTVSPost2010Prop41ColorRGB
 90
        0
102
RTVSPost2010PropOp41
 70
     1
102
RTVSPost2010Prop42
 90
       50
102
RTVSPost2010PropOp42
 70
     1
102
RTVSPost2010Prop43
 90
        3
102
RTVSPost2010PropOp43
 70
     1
102
RTVSPost2010Prop44ColorIndex
 90
        5
102
RTVSPost2010Prop44ColorRGB
 90
      255
102
RTVSPost2010PropOp44
 70
     1
102
RTVSPost2010Prop45
280
     0
102
RTVSPost2010PropOp45
 70
     1
102
RTVSPost2010Prop46
 90
       50
102
RTVSPost2010PropOp46
 70
     1
102
RTVSPost2010Prop47
 90
       50
102
RTVSPost2010PropOp47
 70
     1
102
RTVSPost2010Prop48
 90
       50
102
RTVSPost2010PropOp48
 70
     1
102
RTVSPost2010Prop49
280
     0
102
RTVSPost2010PropOp49
 70
     1
102
RTVSPost2010Prop50
 90
       50
102
RTVSPost2010PropOp50
 70
     1
102
RTVSPost2010Prop51ColorIndex
 90
      256
102
RTVSPost2010Prop51ColorRGB
 90
-16777216
102
RTVSPost2010PropOp51
 70
     0
102
RTVSPost2010Prop52
140
1.0
102
RTVSPost2010PropOp52
 70
     0
102
RTVSPost2010Prop53
 90
        2
102
RTVSPost2010PropOp53
 70
     1
102
RTVSPost2010Prop54
  1
strokes_ogs.tif
102
RTVSPost2010PropOp54
 70
     1
102
RTVSPost2010Prop55
280
     0
102
RTVSPost2010PropOp55
 70
     1
102
RTVSPost2010Prop56
140
1.0
102
RTVSPost2010PropOp56
 70
     1
102
RTVSPost2010Prop57
140
1.0
102
RTVSPost2010PropOp57
 70
     1
102
RTVSPropertyOp0
 70
     1
102
RTVSPropertyOp1
 70
     1
102
RTVSPropertyOp2
 70
     1
102
RTVSPropertyOp3
 70
     1
102
RTVSPropertyOp4
 70
     1
102
RTVSPropertyOp5
 70
     1
102
RTVSPropertyOp6
 70
     1
102
RTVSPropertyOp7
 70
     1
102
RTVSPropertyOp8
 70
     1
102
RTVSPropertyOp9
 70
     1
102
RTVSPropertyOp10
 70
     1
102
RTVSPropertyOp11
 70
     1
102
RTVSPropertyOp12
 70
     1
102
RTVSPropertyOp13
 70
     1
102
RTVSPropertyOp14
 70
     1
102
RTVSPropertyOp15
 70
     1
102
RTVSPropertyOp16
 70
     1
102
RTVSPropertyOp17
 70
     1
102
RTVSPropertyOp18
 70
     1
102
RTVSPropertyOp19
 70
     1
102
RTVSPropertyOp20
 70
     1
102
RTVSPropertyOp21
 70
     1
102
RTVSPropertyOp22
 70
     1
102
RTVSPropertyOp23
 70
     1
102
RTVSPropertyOp24
 70
     1
102
RTVSPropertyOp25
 70
     1
102
RTVSPropertyOp26
 70
     1
102
RTVSPropertyOp27
 70
     1
102
RTVSPropertyOp28
 70
     1
102
RTVSPropertyOp29
 70
     1
102
RTVSPropertyOp30
 70
     1
102
RTVSPropertyOp31
 70
     1
102
RTVSPropertyOp32
 70
     1
102
RTVSPropertyOp33
 70
     1
102
RTVSPropertyOp34
 70
     1
102
RTVSPropertyOp35
 70
     1
102
RTVSPropertyOp36
 70
     1
102
RTVSPropertyOp37
 70
     1
102
RTVSPropertyOp38
 70
     1
102
RTVSPropertyOp39
 70
     1
102
RTVSPropertyOp40
 70
     1
102
RTVSPropertyOp41
 70
     1
102
RTVSPropertyOp42
 70
     1
102
RTVSPropertyOp43
 70
     1
102
RTVSPropertyOp44
 70
     1
102
RTVSPropertyOp45
 70
     1
102
RTVSPropertyOp46
 70
     1
102
RTVSPropertyOp47
 70
     1
102
RTVSPropertyOp48
 70
     1
102
RTVSPropertyOp49
 70
     1
102
RTVSPropertyOp50
 70
     1
102
RTVSPropertyOp51
 70
     0
102
RTVSPropertyOp52
 70
     0
102
RTVSPropertyOp53
 70
     1
102
RTVSPropertyOp54
 70
     1
102
RTVSPropertyOp55
 70
     1
102
RTVSPropertyOp56
 70
     1
102
RTVSPropertyOp57
 70
     1
102
RTVSPropertyOp58
 70
     1
102
RTVSPropertyOp59
 70
     1
102
RTVSPropertyOp60
 70
     1
102
RTVSPropertyOp61
 70
     1
102
RTVSPropertyOp62
 70
     1
  0
XRECORD
  5
5573
102
{ACAD_REACTORS
330
5572
102
}
330
5572
100
AcDbXrecord
280
     1
102
RTVSPost2010Prop28
280
     0
102
RTVSPost2010PropOp28
 70
     0
102
RTVSPost2010Prop29
280
     1
102
RTVSPost2010PropOp29
 70
     0
102
RTVSPost2010Prop30
280
     1
102
RTVSPost2010PropOp30
 70
     0
102
RTVSPost2010Prop31
280
     0
102
RTVSPost2010PropOp31
 70
     0
102
RTVSPost2010Prop32
280
     0
102
RTVSPost2010PropOp32
 70
     0
102
RTVSPost2010Prop33
280
     0
102
RTVSPost2010PropOp33
 70
     0
102
RTVSPost2010Prop34
280
     0
102
RTVSPost2010PropOp34
 70
     0
102
RTVSPost2010Prop35
280
     0
102
RTVSPost2010PropOp35
 70
     0
102
RTVSPost2010Prop36
280
     0
102
RTVSPost2010PropOp36
 70
     0
102
RTVSPost2010Prop37
 90
       50
102
RTVSPost2010PropOp37
 70
     0
102
RTVSPost2010Prop38
140
0.0
102
RTVSPost2010PropOp38
 70
     0
102
RTVSPost2010Prop39
140
1.0
102
RTVSPost2010PropOp39
 70
     0
102
RTVSPost2010Prop40
 90
        0
102
RTVSPost2010PropOp40
 70
     0
102
RTVSPost2010Prop41ColorIndex
 90
       18
102
RTVSPost2010Prop41ColorRGB
 90
        0
102
RTVSPost2010PropOp41
 70
     0
102
RTVSPost2010Prop42
 90
       50
102
RTVSPost2010PropOp42
 70
     0
102
RTVSPost2010Prop43
 90
        3
102
RTVSPost2010PropOp43
 70
     0
102
RTVSPost2010Prop44ColorIndex
 90
        5
102
RTVSPost2010Prop44ColorRGB
 90
      255
102
RTVSPost2010PropOp44
 70
     0
102
RTVSPost2010Prop45
280
     0
102
RTVSPost2010PropOp45
 70
     0
102
RTVSPost2010Prop46
 90
       50
102
RTVSPost2010PropOp46
 70
     0
102
RTVSPost2010Prop47
 90
       50
102
RTVSPost2010PropOp47
 70
     0
102
RTVSPost2010Prop48
 90
       50
102
RTVSPost2010PropOp48
 70
     0
102
RTVSPost2010Prop49
280
     0
102
RTVSPost2010PropOp49
 70
     0
102
RTVSPost2010Prop50
 90
       50
102
RTVSPost2010PropOp50
 70
     0
102
RTVSPost2010Prop51ColorIndex
 90
      256
102
RTVSPost2010Prop51ColorRGB
 90
-16777216
102
RTVSPost2010PropOp51
 70
     0
102
RTVSPost2010Prop52
140
1.0
102
RTVSPost2010PropOp52
 70
     0
102
RTVSPost2010Prop53
 90
        2
102
RTVSPost2010PropOp53
 70
     0
102
RTVSPost2010Prop54
  1
strokes_ogs.tif
102
RTVSPost2010PropOp54
 70
     0
102
RTVSPost2010Prop55
280
     0
102
RTVSPost2010PropOp55
 70
     0
102
RTVSPost2010Prop56
140
1.0
102
RTVSPost2010PropOp56
 70
     0
102
RTVSPost2010Prop57
140
1.0
102
RTVSPost2010PropOp57
 70
     0
102
RTVSPropertyOp0
 70
     0
102
RTVSPropertyOp1
 70
     0
102
RTVSPropertyOp2
 70
     0
102
RTVSPropertyOp3
 70
     0
102
RTVSPropertyOp4
 70
     0
102
RTVSPropertyOp5
 70
     0
102
RTVSPropertyOp6
 70
     0
102
RTVSPropertyOp7
 70
     0
102
RTVSPropertyOp8
 70
     0
102
RTVSPropertyOp9
 70
     0
102
RTVSPropertyOp10
 70
     0
102
RTVSPropertyOp11
 70
     0
102
RTVSPropertyOp12
 70
     0
102
RTVSPropertyOp13
 70
     0
102
RTVSPropertyOp14
 70
     2
102
RTVSPropertyOp15
 70
     0
102
RTVSPropertyOp16
 70
     0
102
RTVSPropertyOp17
 70
     0
102
RTVSPropertyOp18
 70
     0
102
RTVSPropertyOp19
 70
     0
102
RTVSPropertyOp20
 70
     0
102
RTVSPropertyOp21
 70
     0
102
RTVSPropertyOp22
 70
     0
102
RTVSPropertyOp23
 70
     0
102
RTVSPropertyOp24
 70
     0
102
RTVSPropertyOp25
 70
     0
102
RTVSPropertyOp26
 70
     0
102
RTVSPropertyOp27
 70
     0
102
RTVSPropertyOp28
 70
     0
102
RTVSPropertyOp29
 70
     0
102
RTVSPropertyOp30
 70
     0
102
RTVSPropertyOp31
 70
     0
102
RTVSPropertyOp32
 70
     0
102
RTVSPropertyOp33
 70
     0
102
RTVSPropertyOp34
 70
     0
102
RTVSPropertyOp35
 70
     0
102
RTVSPropertyOp36
 70
     0
102
RTVSPropertyOp37
 70
     0
102
RTVSPropertyOp38
 70
     0
102
RTVSPropertyOp39
 70
     0
102
RTVSPropertyOp40
 70
     0
102
RTVSPropertyOp41
 70
     0
102
RTVSPropertyOp42
 70
     0
102
RTVSPropertyOp43
 70
     0
102
RTVSPropertyOp44
 70
     0
102
RTVSPropertyOp45
 70
     0
102
RTVSPropertyOp46
 70
     0
102
RTVSPropertyOp47
 70
     0
102
RTVSPropertyOp48
 70
     0
102
RTVSPropertyOp49
 70
     0
102
RTVSPropertyOp50
 70
     0
102
RTVSPropertyOp51
 70
     0
102
RTVSPropertyOp52
 70
     0
102
RTVSPropertyOp53
 70
     0
102
RTVSPropertyOp54
 70
     0
102
RTVSPropertyOp55
 70
     0
102
RTVSPropertyOp56
 70
     0
102
RTVSPropertyOp57
 70
     0
102
RTVSPropertyOp58
 70
     1
102
RTVSPropertyOp59
 70
     1
102
RTVSPropertyOp60
 70
     1
102
RTVSPropertyOp61
 70
     1
102
RTVSPropertyOp62
 70
     1
  0
XRECORD
  5
5559
102
{ACAD_REACTORS
330
5558
102
}
330
5558
100
AcDbXrecord
280
     1
102
RTVSPost2010Prop28
280
     0
102
RTVSPost2010PropOp28
 70
     1
102
RTVSPost2010Prop29
280
     1
102
RTVSPost2010PropOp29
 70
     1
102
RTVSPost2010Prop30
280
     1
102
RTVSPost2010PropOp30
 70
     1
102
RTVSPost2010Prop31
280
     0
102
RTVSPost2010PropOp31
 70
     1
102
RTVSPost2010Prop32
280
     0
102
RTVSPost2010PropOp32
 70
     1
102
RTVSPost2010Prop33
280
     0
102
RTVSPost2010PropOp33
 70
     1
102
RTVSPost2010Prop34
280
     0
102
RTVSPost2010PropOp34
 70
     1
102
RTVSPost2010Prop35
280
     0
102
RTVSPost2010PropOp35
 70
     1
102
RTVSPost2010Prop36
280
     0
102
RTVSPost2010PropOp36
 70
     1
102
RTVSPost2010Prop37
 90
       50
102
RTVSPost2010PropOp37
 70
     1
102
RTVSPost2010Prop38
140
0.0
102
RTVSPost2010PropOp38
 70
     1
102
RTVSPost2010Prop39
140
1.0
102
RTVSPost2010PropOp39
 70
     1
102
RTVSPost2010Prop40
 90
        0
102
RTVSPost2010PropOp40
 70
     1
102
RTVSPost2010Prop41ColorIndex
 90
       18
102
RTVSPost2010Prop41ColorRGB
 90
        0
102
RTVSPost2010PropOp41
 70
     1
102
RTVSPost2010Prop42
 90
       50
102
RTVSPost2010PropOp42
 70
     1
102
RTVSPost2010Prop43
 90
        3
102
RTVSPost2010PropOp43
 70
     1
102
RTVSPost2010Prop44ColorIndex
 90
        5
102
RTVSPost2010Prop44ColorRGB
 90
      255
102
RTVSPost2010PropOp44
 70
     1
102
RTVSPost2010Prop45
280
     0
102
RTVSPost2010PropOp45
 70
     1
102
RTVSPost2010Prop46
 90
       50
102
RTVSPost2010PropOp46
 70
     1
102
RTVSPost2010Prop47
 90
       50
102
RTVSPost2010PropOp47
 70
     1
102
RTVSPost2010Prop48
 90
       50
102
RTVSPost2010PropOp48
 70
     1
102
RTVSPost2010Prop49
280
     0
102
RTVSPost2010PropOp49
 70
     1
102
RTVSPost2010Prop50
 90
       50
102
RTVSPost2010PropOp50
 70
     1
102
RTVSPost2010Prop51ColorIndex
 90
      256
102
RTVSPost2010Prop51ColorRGB
 90
-16777216
102
RTVSPost2010PropOp51
 70
     0
102
RTVSPost2010Prop52
140
1.0
102
RTVSPost2010PropOp52
 70
     0
102
RTVSPost2010Prop53
 90
        2
102
RTVSPost2010PropOp53
 70
     1
102
RTVSPost2010Prop54
  1
strokes_ogs.tif
102
RTVSPost2010PropOp54
 70
     1
102
RTVSPost2010Prop55
280
     0
102
RTVSPost2010PropOp55
 70
     1
102
RTVSPost2010Prop56
140
1.0
102
RTVSPost2010PropOp56
 70
     1
102
RTVSPost2010Prop57
140
1.0
102
RTVSPost2010PropOp57
 70
     1
102
RTVSPropertyOp0
 70
     1
102
RTVSPropertyOp1
 70
     1
102
RTVSPropertyOp2
 70
     1
102
RTVSPropertyOp3
 70
     1
102
RTVSPropertyOp4
 70
     1
102
RTVSPropertyOp5
 70
     1
102
RTVSPropertyOp6
 70
     1
102
RTVSPropertyOp7
 70
     1
102
RTVSPropertyOp8
 70
     1
102
RTVSPropertyOp9
 70
     1
102
RTVSPropertyOp10
 70
     1
102
RTVSPropertyOp11
 70
     1
102
RTVSPropertyOp12
 70
     1
102
RTVSPropertyOp13
 70
     1
102
RTVSPropertyOp14
 70
     1
102
RTVSPropertyOp15
 70
     1
102
RTVSPropertyOp16
 70
     1
102
RTVSPropertyOp17
 70
     1
102
RTVSPropertyOp18
 70
     1
102
RTVSPropertyOp19
 70
     1
102
RTVSPropertyOp20
 70
     1
102
RTVSPropertyOp21
 70
     1
102
RTVSPropertyOp22
 70
     1
102
RTVSPropertyOp23
 70
     1
102
RTVSPropertyOp24
 70
     1
102
RTVSPropertyOp25
 70
     1
102
RTVSPropertyOp26
 70
     1
102
RTVSPropertyOp27
 70
     1
102
RTVSPropertyOp28
 70
     1
102
RTVSPropertyOp29
 70
     1
102
RTVSPropertyOp30
 70
     1
102
RTVSPropertyOp31
 70
     1
102
RTVSPropertyOp32
 70
     1
102
RTVSPropertyOp33
 70
     1
102
RTVSPropertyOp34
 70
     1
102
RTVSPropertyOp35
 70
     1
102
RTVSPropertyOp36
 70
     1
102
RTVSPropertyOp37
 70
     1
102
RTVSPropertyOp38
 70
     1
102
RTVSPropertyOp39
 70
     1
102
RTVSPropertyOp40
 70
     1
102
RTVSPropertyOp41
 70
     1
102
RTVSPropertyOp42
 70
     1
102
RTVSPropertyOp43
 70
     1
102
RTVSPropertyOp44
 70
     1
102
RTVSPropertyOp45
 70
     1
102
RTVSPropertyOp46
 70
     1
102
RTVSPropertyOp47
 70
     1
102
RTVSPropertyOp48
 70
     1
102
RTVSPropertyOp49
 70
     1
102
RTVSPropertyOp50
 70
     1
102
RTVSPropertyOp51
 70
     0
102
RTVSPropertyOp52
 70
     0
102
RTVSPropertyOp53
 70
     1
102
RTVSPropertyOp54
 70
     1
102
RTVSPropertyOp55
 70
     1
102
RTVSPropertyOp56
 70
     1
102
RTVSPropertyOp57
 70
     1
102
RTVSPropertyOp58
 70
     1
102
RTVSPropertyOp59
 70
     1
102
RTVSPropertyOp60
 70
     1
102
RTVSPropertyOp61
 70
     1
102
RTVSPropertyOp62
 70
     1
  0
XRECORD
  5
556F
102
{ACAD_REACTORS
330
556E
102
}
330
556E
100
AcDbXrecord
280
     1
102
RTVSPost2010Prop28
280
     0
102
RTVSPost2010PropOp28
 70
     1
102
RTVSPost2010Prop29
280
     1
102
RTVSPost2010PropOp29
 70
     1
102
RTVSPost2010Prop30
280
     1
102
RTVSPost2010PropOp30
 70
     1
102
RTVSPost2010Prop31
280
     0
102
RTVSPost2010PropOp31
 70
     1
102
RTVSPost2010Prop32
280
     0
102
RTVSPost2010PropOp32
 70
     1
102
RTVSPost2010Prop33
280
     0
102
RTVSPost2010PropOp33
 70
     1
102
RTVSPost2010Prop34
280
     0
102
RTVSPost2010PropOp34
 70
     1
102
RTVSPost2010Prop35
280
     0
102
RTVSPost2010PropOp35
 70
     1
102
RTVSPost2010Prop36
280
     0
102
RTVSPost2010PropOp36
 70
     1
102
RTVSPost2010Prop37
 90
       50
102
RTVSPost2010PropOp37
 70
     1
102
RTVSPost2010Prop38
140
0.0
102
RTVSPost2010PropOp38
 70
     1
102
RTVSPost2010Prop39
140
1.0
102
RTVSPost2010PropOp39
 70
     1
102
RTVSPost2010Prop40
 90
        0
102
RTVSPost2010PropOp40
 70
     1
102
RTVSPost2010Prop41ColorIndex
 90
       18
102
RTVSPost2010Prop41ColorRGB
 90
        0
102
RTVSPost2010PropOp41
 70
     1
102
RTVSPost2010Prop42
 90
       50
102
RTVSPost2010PropOp42
 70
     1
102
RTVSPost2010Prop43
 90
        3
102
RTVSPost2010PropOp43
 70
     1
102
RTVSPost2010Prop44ColorIndex
 90
        5
102
RTVSPost2010Prop44ColorRGB
 90
      255
102
RTVSPost2010PropOp44
 70
     1
102
RTVSPost2010Prop45
280
     0
102
RTVSPost2010PropOp45
 70
     1
102
RTVSPost2010Prop46
 90
       50
102
RTVSPost2010PropOp46
 70
     1
102
RTVSPost2010Prop47
 90
       50
102
RTVSPost2010PropOp47
 70
     1
102
RTVSPost2010Prop48
 90
       50
102
RTVSPost2010PropOp48
 70
     1
102
RTVSPost2010Prop49
280
     0
102
RTVSPost2010PropOp49
 70
     1
102
RTVSPost2010Prop50
 90
       50
102
RTVSPost2010PropOp50
 70
     1
102
RTVSPost2010Prop51ColorIndex
 90
      256
102
RTVSPost2010Prop51ColorRGB
 90
-16777216
102
RTVSPost2010PropOp51
 70
     0
102
RTVSPost2010Prop52
140
1.0
102
RTVSPost2010PropOp52
 70
     0
102
RTVSPost2010Prop53
 90
        2
102
RTVSPost2010PropOp53
 70
     1
102
RTVSPost2010Prop54
  1
strokes_ogs.tif
102
RTVSPost2010PropOp54
 70
     1
102
RTVSPost2010Prop55
280
     0
102
RTVSPost2010PropOp55
 70
     1
102
RTVSPost2010Prop56
140
1.0
102
RTVSPost2010PropOp56
 70
     1
102
RTVSPost2010Prop57
140
1.0
102
RTVSPost2010PropOp57
 70
     1
102
RTVSPropertyOp0
 70
     1
102
RTVSPropertyOp1
 70
     1
102
RTVSPropertyOp2
 70
     1
102
RTVSPropertyOp3
 70
     1
102
RTVSPropertyOp4
 70
     1
102
RTVSPropertyOp5
 70
     1
102
RTVSPropertyOp6
 70
     1
102
RTVSPropertyOp7
 70
     1
102
RTVSPropertyOp8
 70
     1
102
RTVSPropertyOp9
 70
     1
102
RTVSPropertyOp10
 70
     1
102
RTVSPropertyOp11
 70
     1
102
RTVSPropertyOp12
 70
     1
102
RTVSPropertyOp13
 70
     1
102
RTVSPropertyOp14
 70
     1
102
RTVSPropertyOp15
 70
     1
102
RTVSPropertyOp16
 70
     1
102
RTVSPropertyOp17
 70
     1
102
RTVSPropertyOp18
 70
     1
102
RTVSPropertyOp19
 70
     1
102
RTVSPropertyOp20
 70
     1
102
RTVSPropertyOp21
 70
     1
102
RTVSPropertyOp22
 70
     1
102
RTVSPropertyOp23
 70
     1
102
RTVSPropertyOp24
 70
     1
102
RTVSPropertyOp25
 70
     1
102
RTVSPropertyOp26
 70
     1
102
RTVSPropertyOp27
 70
     1
102
RTVSPropertyOp28
 70
     1
102
RTVSPropertyOp29
 70
     1
102
RTVSPropertyOp30
 70
     1
102
RTVSPropertyOp31
 70
     1
102
RTVSPropertyOp32
 70
     1
102
RTVSPropertyOp33
 70
     1
102
RTVSPropertyOp34
 70
     1
102
RTVSPropertyOp35
 70
     1
102
RTVSPropertyOp36
 70
     1
102
RTVSPropertyOp37
 70
     1
102
RTVSPropertyOp38
 70
     1
102
RTVSPropertyOp39
 70
     1
102
RTVSPropertyOp40
 70
     1
102
RTVSPropertyOp41
 70
     1
102
RTVSPropertyOp42
 70
     1
102
RTVSPropertyOp43
 70
     1
102
RTVSPropertyOp44
 70
     1
102
RTVSPropertyOp45
 70
     1
102
RTVSPropertyOp46
 70
     1
102
RTVSPropertyOp47
 70
     1
102
RTVSPropertyOp48
 70
     1
102
RTVSPropertyOp49
 70
     1
102
RTVSPropertyOp50
 70
     1
102
RTVSPropertyOp51
 70
     0
102
RTVSPropertyOp52
 70
     0
102
RTVSPropertyOp53
 70
     1
102
RTVSPropertyOp54
 70
     1
102
RTVSPropertyOp55
 70
     1
102
RTVSPropertyOp56
 70
     1
102
RTVSPropertyOp57
 70
     1
102
RTVSPropertyOp58
 70
     1
102
RTVSPropertyOp59
 70
     1
102
RTVSPropertyOp60
 70
     1
102
RTVSPropertyOp61
 70
     1
102
RTVSPropertyOp62
 70
     1
  0
XRECORD
  5
556D
102
{ACAD_REACTORS
330
556C
102
}
330
556C
100
AcDbXrecord
280
     1
102
RTVSPost2010Prop28
280
     0
102
RTVSPost2010PropOp28
 70
     1
102
RTVSPost2010Prop29
280
     1
102
RTVSPost2010PropOp29
 70
     1
102
RTVSPost2010Prop30
280
     1
102
RTVSPost2010PropOp30
 70
     1
102
RTVSPost2010Prop31
280
     0
102
RTVSPost2010PropOp31
 70
     1
102
RTVSPost2010Prop32
280
     0
102
RTVSPost2010PropOp32
 70
     1
102
RTVSPost2010Prop33
280
     0
102
RTVSPost2010PropOp33
 70
     1
102
RTVSPost2010Prop34
280
     0
102
RTVSPost2010PropOp34
 70
     1
102
RTVSPost2010Prop35
280
     0
102
RTVSPost2010PropOp35
 70
     1
102
RTVSPost2010Prop36
280
     0
102
RTVSPost2010PropOp36
 70
     1
102
RTVSPost2010Prop37
 90
       50
102
RTVSPost2010PropOp37
 70
     1
102
RTVSPost2010Prop38
140
0.0
102
RTVSPost2010PropOp38
 70
     1
102
RTVSPost2010Prop39
140
1.0
102
RTVSPost2010PropOp39
 70
     1
102
RTVSPost2010Prop40
 90
        0
102
RTVSPost2010PropOp40
 70
     1
102
RTVSPost2010Prop41ColorIndex
 90
       18
102
RTVSPost2010Prop41ColorRGB
 90
        0
102
RTVSPost2010PropOp41
 70
     1
102
RTVSPost2010Prop42
 90
       50
102
RTVSPost2010PropOp42
 70
     1
102
RTVSPost2010Prop43
 90
        3
102
RTVSPost2010PropOp43
 70
     1
102
RTVSPost2010Prop44ColorIndex
 90
        5
102
RTVSPost2010Prop44ColorRGB
 90
      255
102
RTVSPost2010PropOp44
 70
     1
102
RTVSPost2010Prop45
280
     0
102
RTVSPost2010PropOp45
 70
     1
102
RTVSPost2010Prop46
 90
       50
102
RTVSPost2010PropOp46
 70
     1
102
RTVSPost2010Prop47
 90
       50
102
RTVSPost2010PropOp47
 70
     1
102
RTVSPost2010Prop48
 90
       50
102
RTVSPost2010PropOp48
 70
     1
102
RTVSPost2010Prop49
280
     0
102
RTVSPost2010PropOp49
 70
     1
102
RTVSPost2010Prop50
 90
       50
102
RTVSPost2010PropOp50
 70
     1
102
RTVSPost2010Prop51ColorIndex
 90
      256
102
RTVSPost2010Prop51ColorRGB
 90
-16777216
102
RTVSPost2010PropOp51
 70
     0
102
RTVSPost2010Prop52
140
1.0
102
RTVSPost2010PropOp52
 70
     0
102
RTVSPost2010Prop53
 90
        2
102
RTVSPost2010PropOp53
 70
     1
102
RTVSPost2010Prop54
  1
strokes_ogs.tif
102
RTVSPost2010PropOp54
 70
     1
102
RTVSPost2010Prop55
280
     0
102
RTVSPost2010PropOp55
 70
     1
102
RTVSPost2010Prop56
140
1.0
102
RTVSPost2010PropOp56
 70
     1
102
RTVSPost2010Prop57
140
1.0
102
RTVSPost2010PropOp57
 70
     1
102
RTVSPropertyOp0
 70
     1
102
RTVSPropertyOp1
 70
     1
102
RTVSPropertyOp2
 70
     1
102
RTVSPropertyOp3
 70
     1
102
RTVSPropertyOp4
 70
     1
102
RTVSPropertyOp5
 70
     1
102
RTVSPropertyOp6
 70
     1
102
RTVSPropertyOp7
 70
     1
102
RTVSPropertyOp8
 70
     1
102
RTVSPropertyOp9
 70
     1
102
RTVSPropertyOp10
 70
     1
102
RTVSPropertyOp11
 70
     1
102
RTVSPropertyOp12
 70
     1
102
RTVSPropertyOp13
 70
     1
102
RTVSPropertyOp14
 70
     1
102
RTVSPropertyOp15
 70
     1
102
RTVSPropertyOp16
 70
     1
102
RTVSPropertyOp17
 70
     1
102
RTVSPropertyOp18
 70
     1
102
RTVSPropertyOp19
 70
     1
102
RTVSPropertyOp20
 70
     1
102
RTVSPropertyOp21
 70
     1
102
RTVSPropertyOp22
 70
     1
102
RTVSPropertyOp23
 70
     1
102
RTVSPropertyOp24
 70
     1
102
RTVSPropertyOp25
 70
     1
102
RTVSPropertyOp26
 70
     1
102
RTVSPropertyOp27
 70
     1
102
RTVSPropertyOp28
 70
     1
102
RTVSPropertyOp29
 70
     1
102
RTVSPropertyOp30
 70
     1
102
RTVSPropertyOp31
 70
     1
102
RTVSPropertyOp32
 70
     1
102
RTVSPropertyOp33
 70
     1
102
RTVSPropertyOp34
 70
     1
102
RTVSPropertyOp35
 70
     1
102
RTVSPropertyOp36
 70
     1
102
RTVSPropertyOp37
 70
     1
102
RTVSPropertyOp38
 70
     1
102
RTVSPropertyOp39
 70
     1
102
RTVSPropertyOp40
 70
     1
102
RTVSPropertyOp41
 70
     1
102
RTVSPropertyOp42
 70
     1
102
RTVSPropertyOp43
 70
     1
102
RTVSPropertyOp44
 70
     1
102
RTVSPropertyOp45
 70
     1
102
RTVSPropertyOp46
 70
     1
102
RTVSPropertyOp47
 70
     1
102
RTVSPropertyOp48
 70
     1
102
RTVSPropertyOp49
 70
     1
102
RTVSPropertyOp50
 70
     1
102
RTVSPropertyOp51
 70
     0
102
RTVSPropertyOp52
 70
     0
102
RTVSPropertyOp53
 70
     1
102
RTVSPropertyOp54
 70
     1
102
RTVSPropertyOp55
 70
     1
102
RTVSPropertyOp56
 70
     1
102
RTVSPropertyOp57
 70
     1
102
RTVSPropertyOp58
 70
     1
102
RTVSPropertyOp59
 70
     1
102
RTVSPropertyOp60
 70
     1
102
RTVSPropertyOp61
 70
     1
102
RTVSPropertyOp62
 70
     1
  0
XRECORD
  5
5567
102
{ACAD_REACTORS
330
5566
102
}
330
5566
100
AcDbXrecord
280
     1
102
RTVSPost2010Prop28
280
     0
102
RTVSPost2010PropOp28
 70
     1
102
RTVSPost2010Prop29
280
     1
102
RTVSPost2010PropOp29
 70
     1
102
RTVSPost2010Prop30
280
     1
102
RTVSPost2010PropOp30
 70
     1
102
RTVSPost2010Prop31
280
     0
102
RTVSPost2010PropOp31
 70
     1
102
RTVSPost2010Prop32
280
     0
102
RTVSPost2010PropOp32
 70
     1
102
RTVSPost2010Prop33
280
     0
102
RTVSPost2010PropOp33
 70
     1
102
RTVSPost2010Prop34
280
     0
102
RTVSPost2010PropOp34
 70
     1
102
RTVSPost2010Prop35
280
     0
102
RTVSPost2010PropOp35
 70
     1
102
RTVSPost2010Prop36
280
     0
102
RTVSPost2010PropOp36
 70
     1
102
RTVSPost2010Prop37
 90
       50
102
RTVSPost2010PropOp37
 70
     1
102
RTVSPost2010Prop38
140
0.0
102
RTVSPost2010PropOp38
 70
     1
102
RTVSPost2010Prop39
140
1.0
102
RTVSPost2010PropOp39
 70
     1
102
RTVSPost2010Prop40
 90
        0
102
RTVSPost2010PropOp40
 70
     1
102
RTVSPost2010Prop41ColorIndex
 90
       18
102
RTVSPost2010Prop41ColorRGB
 90
        0
102
RTVSPost2010PropOp41
 70
     1
102
RTVSPost2010Prop42
 90
       50
102
RTVSPost2010PropOp42
 70
     1
102
RTVSPost2010Prop43
 90
        3
102
RTVSPost2010PropOp43
 70
     1
102
RTVSPost2010Prop44ColorIndex
 90
        5
102
RTVSPost2010Prop44ColorRGB
 90
      255
102
RTVSPost2010PropOp44
 70
     1
102
RTVSPost2010Prop45
280
     0
102
RTVSPost2010PropOp45
 70
     1
102
RTVSPost2010Prop46
 90
       50
102
RTVSPost2010PropOp46
 70
     1
102
RTVSPost2010Prop47
 90
       50
102
RTVSPost2010PropOp47
 70
     1
102
RTVSPost2010Prop48
 90
       50
102
RTVSPost2010PropOp48
 70
     1
102
RTVSPost2010Prop49
280
     0
102
RTVSPost2010PropOp49
 70
     1
102
RTVSPost2010Prop50
 90
       50
102
RTVSPost2010PropOp50
 70
     1
102
RTVSPost2010Prop51ColorIndex
 90
      256
102
RTVSPost2010Prop51ColorRGB
 90
-16777216
102
RTVSPost2010PropOp51
 70
     0
102
RTVSPost2010Prop52
140
1.0
102
RTVSPost2010PropOp52
 70
     0
102
RTVSPost2010Prop53
 90
        2
102
RTVSPost2010PropOp53
 70
     1
102
RTVSPost2010Prop54
  1
strokes_ogs.tif
102
RTVSPost2010PropOp54
 70
     1
102
RTVSPost2010Prop55
280
     0
102
RTVSPost2010PropOp55
 70
     1
102
RTVSPost2010Prop56
140
1.0
102
RTVSPost2010PropOp56
 70
     1
102
RTVSPost2010Prop57
140
1.0
102
RTVSPost2010PropOp57
 70
     1
102
RTVSPropertyOp0
 70
     1
102
RTVSPropertyOp1
 70
     1
102
RTVSPropertyOp2
 70
     1
102
RTVSPropertyOp3
 70
     1
102
RTVSPropertyOp4
 70
     1
102
RTVSPropertyOp5
 70
     1
102
RTVSPropertyOp6
 70
     1
102
RTVSPropertyOp7
 70
     1
102
RTVSPropertyOp8
 70
     1
102
RTVSPropertyOp9
 70
     1
102
RTVSPropertyOp10
 70
     1
102
RTVSPropertyOp11
 70
     1
102
RTVSPropertyOp12
 70
     1
102
RTVSPropertyOp13
 70
     1
102
RTVSPropertyOp14
 70
     1
102
RTVSPropertyOp15
 70
     1
102
RTVSPropertyOp16
 70
     1
102
RTVSPropertyOp17
 70
     1
102
RTVSPropertyOp18
 70
     1
102
RTVSPropertyOp19
 70
     1
102
RTVSPropertyOp20
 70
     1
102
RTVSPropertyOp21
 70
     1
102
RTVSPropertyOp22
 70
     1
102
RTVSPropertyOp23
 70
     1
102
RTVSPropertyOp24
 70
     1
102
RTVSPropertyOp25
 70
     1
102
RTVSPropertyOp26
 70
     1
102
RTVSPropertyOp27
 70
     1
102
RTVSPropertyOp28
 70
     1
102
RTVSPropertyOp29
 70
     1
102
RTVSPropertyOp30
 70
     1
102
RTVSPropertyOp31
 70
     1
102
RTVSPropertyOp32
 70
     1
102
RTVSPropertyOp33
 70
     1
102
RTVSPropertyOp34
 70
     1
102
RTVSPropertyOp35
 70
     1
102
RTVSPropertyOp36
 70
     1
102
RTVSPropertyOp37
 70
     1
102
RTVSPropertyOp38
 70
     1
102
RTVSPropertyOp39
 70
     1
102
RTVSPropertyOp40
 70
     1
102
RTVSPropertyOp41
 70
     1
102
RTVSPropertyOp42
 70
     1
102
RTVSPropertyOp43
 70
     1
102
RTVSPropertyOp44
 70
     1
102
RTVSPropertyOp45
 70
     1
102
RTVSPropertyOp46
 70
     1
102
RTVSPropertyOp47
 70
     1
102
RTVSPropertyOp48
 70
     1
102
RTVSPropertyOp49
 70
     1
102
RTVSPropertyOp50
 70
     1
102
RTVSPropertyOp51
 70
     0
102
RTVSPropertyOp52
 70
     0
102
RTVSPropertyOp53
 70
     1
102
RTVSPropertyOp54
 70
     1
102
RTVSPropertyOp55
 70
     1
102
RTVSPropertyOp56
 70
     1
102
RTVSPropertyOp57
 70
     1
102
RTVSPropertyOp58
 70
     1
102
RTVSPropertyOp59
 70
     1
102
RTVSPropertyOp60
 70
     1
102
RTVSPropertyOp61
 70
     1
102
RTVSPropertyOp62
 70
     1
  0
XRECORD
  5
5569
102
{ACAD_REACTORS
330
5568
102
}
330
5568
100
AcDbXrecord
280
     1
102
RTVSPost2010Prop28
280
     0
102
RTVSPost2010PropOp28
 70
     1
102
RTVSPost2010Prop29
280
     1
102
RTVSPost2010PropOp29
 70
     1
102
RTVSPost2010Prop30
280
     1
102
RTVSPost2010PropOp30
 70
     1
102
RTVSPost2010Prop31
280
     0
102
RTVSPost2010PropOp31
 70
     1
102
RTVSPost2010Prop32
280
     0
102
RTVSPost2010PropOp32
 70
     1
102
RTVSPost2010Prop33
280
     0
102
RTVSPost2010PropOp33
 70
     1
102
RTVSPost2010Prop34
280
     0
102
RTVSPost2010PropOp34
 70
     1
102
RTVSPost2010Prop35
280
     0
102
RTVSPost2010PropOp35
 70
     1
102
RTVSPost2010Prop36
280
     0
102
RTVSPost2010PropOp36
 70
     1
102
RTVSPost2010Prop37
 90
       50
102
RTVSPost2010PropOp37
 70
     1
102
RTVSPost2010Prop38
140
0.0
102
RTVSPost2010PropOp38
 70
     1
102
RTVSPost2010Prop39
140
1.0
102
RTVSPost2010PropOp39
 70
     1
102
RTVSPost2010Prop40
 90
        0
102
RTVSPost2010PropOp40
 70
     1
102
RTVSPost2010Prop41ColorIndex
 90
       18
102
RTVSPost2010Prop41ColorRGB
 90
        0
102
RTVSPost2010PropOp41
 70
     1
102
RTVSPost2010Prop42
 90
       50
102
RTVSPost2010PropOp42
 70
     1
102
RTVSPost2010Prop43
 90
        3
102
RTVSPost2010PropOp43
 70
     1
102
RTVSPost2010Prop44ColorIndex
 90
        5
102
RTVSPost2010Prop44ColorRGB
 90
      255
102
RTVSPost2010PropOp44
 70
     1
102
RTVSPost2010Prop45
280
     0
102
RTVSPost2010PropOp45
 70
     1
102
RTVSPost2010Prop46
 90
       50
102
RTVSPost2010PropOp46
 70
     1
102
RTVSPost2010Prop47
 90
       50
102
RTVSPost2010PropOp47
 70
     1
102
RTVSPost2010Prop48
 90
       50
102
RTVSPost2010PropOp48
 70
     1
102
RTVSPost2010Prop49
280
     0
102
RTVSPost2010PropOp49
 70
     1
102
RTVSPost2010Prop50
 90
       50
102
RTVSPost2010PropOp50
 70
     1
102
RTVSPost2010Prop51ColorIndex
 90
      256
102
RTVSPost2010Prop51ColorRGB
 90
-16777216
102
RTVSPost2010PropOp51
 70
     0
102
RTVSPost2010Prop52
140
1.0
102
RTVSPost2010PropOp52
 70
     0
102
RTVSPost2010Prop53
 90
        2
102
RTVSPost2010PropOp53
 70
     1
102
RTVSPost2010Prop54
  1
strokes_ogs.tif
102
RTVSPost2010PropOp54
 70
     1
102
RTVSPost2010Prop55
280
     0
102
RTVSPost2010PropOp55
 70
     1
102
RTVSPost2010Prop56
140
1.0
102
RTVSPost2010PropOp56
 70
     1
102
RTVSPost2010Prop57
140
1.0
102
RTVSPost2010PropOp57
 70
     1
102
RTVSPropertyOp0
 70
     1
102
RTVSPropertyOp1
 70
     1
102
RTVSPropertyOp2
 70
     1
102
RTVSPropertyOp3
 70
     1
102
RTVSPropertyOp4
 70
     1
102
RTVSPropertyOp5
 70
     1
102
RTVSPropertyOp6
 70
     1
102
RTVSPropertyOp7
 70
     1
102
RTVSPropertyOp8
 70
     1
102
RTVSPropertyOp9
 70
     1
102
RTVSPropertyOp10
 70
     1
102
RTVSPropertyOp11
 70
     1
102
RTVSPropertyOp12
 70
     1
102
RTVSPropertyOp13
 70
     1
102
RTVSPropertyOp14
 70
     1
102
RTVSPropertyOp15
 70
     1
102
RTVSPropertyOp16
 70
     1
102
RTVSPropertyOp17
 70
     1
102
RTVSPropertyOp18
 70
     1
102
RTVSPropertyOp19
 70
     1
102
RTVSPropertyOp20
 70
     1
102
RTVSPropertyOp21
 70
     1
102
RTVSPropertyOp22
 70
     1
102
RTVSPropertyOp23
 70
     1
102
RTVSPropertyOp24
 70
     1
102
RTVSPropertyOp25
 70
     1
102
RTVSPropertyOp26
 70
     1
102
RTVSPropertyOp27
 70
     1
102
RTVSPropertyOp28
 70
     1
102
RTVSPropertyOp29
 70
     1
102
RTVSPropertyOp30
 70
     1
102
RTVSPropertyOp31
 70
     1
102
RTVSPropertyOp32
 70
     1
102
RTVSPropertyOp33
 70
     1
102
RTVSPropertyOp34
 70
     1
102
RTVSPropertyOp35
 70
     1
102
RTVSPropertyOp36
 70
     1
102
RTVSPropertyOp37
 70
     1
102
RTVSPropertyOp38
 70
     1
102
RTVSPropertyOp39
 70
     1
102
RTVSPropertyOp40
 70
     1
102
RTVSPropertyOp41
 70
     1
102
RTVSPropertyOp42
 70
     1
102
RTVSPropertyOp43
 70
     1
102
RTVSPropertyOp44
 70
     1
102
RTVSPropertyOp45
 70
     1
102
RTVSPropertyOp46
 70
     1
102
RTVSPropertyOp47
 70
     1
102
RTVSPropertyOp48
 70
     1
102
RTVSPropertyOp49
 70
     1
102
RTVSPropertyOp50
 70
     1
102
RTVSPropertyOp51
 70
     0
102
RTVSPropertyOp52
 70
     0
102
RTVSPropertyOp53
 70
     1
102
RTVSPropertyOp54
 70
     1
102
RTVSPropertyOp55
 70
     1
102
RTVSPropertyOp56
 70
     1
102
RTVSPropertyOp57
 70
     1
102
RTVSPropertyOp58
 70
     1
102
RTVSPropertyOp59
 70
     1
102
RTVSPropertyOp60
 70
     1
102
RTVSPropertyOp61
 70
     1
102
RTVSPropertyOp62
 70
     1
  0
XRECORD
  5
555F
102
{ACAD_REACTORS
330
555E
102
}
330
555E
100
AcDbXrecord
280
     1
102
RTVSPost2010Prop28
280
     0
102
RTVSPost2010PropOp28
 70
     1
102
RTVSPost2010Prop29
280
     1
102
RTVSPost2010PropOp29
 70
     1
102
RTVSPost2010Prop30
280
     1
102
RTVSPost2010PropOp30
 70
     1
102
RTVSPost2010Prop31
280
     0
102
RTVSPost2010PropOp31
 70
     1
102
RTVSPost2010Prop32
280
     0
102
RTVSPost2010PropOp32
 70
     1
102
RTVSPost2010Prop33
280
     0
102
RTVSPost2010PropOp33
 70
     1
102
RTVSPost2010Prop34
280
     0
102
RTVSPost2010PropOp34
 70
     1
102
RTVSPost2010Prop35
280
     0
102
RTVSPost2010PropOp35
 70
     1
102
RTVSPost2010Prop36
280
     0
102
RTVSPost2010PropOp36
 70
     1
102
RTVSPost2010Prop37
 90
       50
102
RTVSPost2010PropOp37
 70
     1
102
RTVSPost2010Prop38
140
0.0
102
RTVSPost2010PropOp38
 70
     1
102
RTVSPost2010Prop39
140
1.0
102
RTVSPost2010PropOp39
 70
     1
102
RTVSPost2010Prop40
 90
        0
102
RTVSPost2010PropOp40
 70
     1
102
RTVSPost2010Prop41ColorIndex
 90
       18
102
RTVSPost2010Prop41ColorRGB
 90
        0
102
RTVSPost2010PropOp41
 70
     1
102
RTVSPost2010Prop42
 90
       50
102
RTVSPost2010PropOp42
 70
     1
102
RTVSPost2010Prop43
 90
        3
102
RTVSPost2010PropOp43
 70
     1
102
RTVSPost2010Prop44ColorIndex
 90
        5
102
RTVSPost2010Prop44ColorRGB
 90
      255
102
RTVSPost2010PropOp44
 70
     1
102
RTVSPost2010Prop45
280
     0
102
RTVSPost2010PropOp45
 70
     1
102
RTVSPost2010Prop46
 90
       50
102
RTVSPost2010PropOp46
 70
     1
102
RTVSPost2010Prop47
 90
       50
102
RTVSPost2010PropOp47
 70
     1
102
RTVSPost2010Prop48
 90
       50
102
RTVSPost2010PropOp48
 70
     1
102
RTVSPost2010Prop49
280
     0
102
RTVSPost2010PropOp49
 70
     1
102
RTVSPost2010Prop50
 90
       50
102
RTVSPost2010PropOp50
 70
     1
102
RTVSPost2010Prop51ColorIndex
 90
      256
102
RTVSPost2010Prop51ColorRGB
 90
-16777216
102
RTVSPost2010PropOp51
 70
     0
102
RTVSPost2010Prop52
140
1.0
102
RTVSPost2010PropOp52
 70
     0
102
RTVSPost2010Prop53
 90
        2
102
RTVSPost2010PropOp53
 70
     1
102
RTVSPost2010Prop54
  1
strokes_ogs.tif
102
RTVSPost2010PropOp54
 70
     1
102
RTVSPost2010Prop55
280
     0
102
RTVSPost2010PropOp55
 70
     1
102
RTVSPost2010Prop56
140
1.0
102
RTVSPost2010PropOp56
 70
     1
102
RTVSPost2010Prop57
140
1.0
102
RTVSPost2010PropOp57
 70
     1
102
RTVSPropertyOp0
 70
     1
102
RTVSPropertyOp1
 70
     1
102
RTVSPropertyOp2
 70
     1
102
RTVSPropertyOp3
 70
     1
102
RTVSPropertyOp4
 70
     1
102
RTVSPropertyOp5
 70
     1
102
RTVSPropertyOp6
 70
     1
102
RTVSPropertyOp7
 70
     1
102
RTVSPropertyOp8
 70
     1
102
RTVSPropertyOp9
 70
     1
102
RTVSPropertyOp10
 70
     1
102
RTVSPropertyOp11
 70
     1
102
RTVSPropertyOp12
 70
     1
102
RTVSPropertyOp13
 70
     1
102
RTVSPropertyOp14
 70
     1
102
RTVSPropertyOp15
 70
     1
102
RTVSPropertyOp16
 70
     1
102
RTVSPropertyOp17
 70
     1
102
RTVSPropertyOp18
 70
     1
102
RTVSPropertyOp19
 70
     1
102
RTVSPropertyOp20
 70
     1
102
RTVSPropertyOp21
 70
     1
102
RTVSPropertyOp22
 70
     1
102
RTVSPropertyOp23
 70
     1
102
RTVSPropertyOp24
 70
     1
102
RTVSPropertyOp25
 70
     1
102
RTVSPropertyOp26
 70
     1
102
RTVSPropertyOp27
 70
     1
102
RTVSPropertyOp28
 70
     1
102
RTVSPropertyOp29
 70
     1
102
RTVSPropertyOp30
 70
     1
102
RTVSPropertyOp31
 70
     1
102
RTVSPropertyOp32
 70
     1
102
RTVSPropertyOp33
 70
     1
102
RTVSPropertyOp34
 70
     1
102
RTVSPropertyOp35
 70
     1
102
RTVSPropertyOp36
 70
     1
102
RTVSPropertyOp37
 70
     1
102
RTVSPropertyOp38
 70
     1
102
RTVSPropertyOp39
 70
     1
102
RTVSPropertyOp40
 70
     1
102
RTVSPropertyOp41
 70
     1
102
RTVSPropertyOp42
 70
     1
102
RTVSPropertyOp43
 70
     1
102
RTVSPropertyOp44
 70
     1
102
RTVSPropertyOp45
 70
     1
102
RTVSPropertyOp46
 70
     1
102
RTVSPropertyOp47
 70
     1
102
RTVSPropertyOp48
 70
     1
102
RTVSPropertyOp49
 70
     1
102
RTVSPropertyOp50
 70
     1
102
RTVSPropertyOp51
 70
     0
102
RTVSPropertyOp52
 70
     0
102
RTVSPropertyOp53
 70
     1
102
RTVSPropertyOp54
 70
     1
102
RTVSPropertyOp55
 70
     1
102
RTVSPropertyOp56
 70
     1
102
RTVSPropertyOp57
 70
     1
102
RTVSPropertyOp58
 70
     1
102
RTVSPropertyOp59
 70
     1
102
RTVSPropertyOp60
 70
     1
102
RTVSPropertyOp61
 70
     1
102
RTVSPropertyOp62
 70
     1
  0
XRECORD
  5
5553
102
{ACAD_REACTORS
330
5552
102
}
330
5552
100
AcDbXrecord
280
     1
102
RTVSPost2010Prop28
280
     0
102
RTVSPost2010PropOp28
 70
     1
102
RTVSPost2010Prop29
280
     1
102
RTVSPost2010PropOp29
 70
     1
102
RTVSPost2010Prop30
280
     1
102
RTVSPost2010PropOp30
 70
     1
102
RTVSPost2010Prop31
280
     0
102
RTVSPost2010PropOp31
 70
     1
102
RTVSPost2010Prop32
280
     0
102
RTVSPost2010PropOp32
 70
     1
102
RTVSPost2010Prop33
280
     0
102
RTVSPost2010PropOp33
 70
     1
102
RTVSPost2010Prop34
280
     0
102
RTVSPost2010PropOp34
 70
     1
102
RTVSPost2010Prop35
280
     0
102
RTVSPost2010PropOp35
 70
     1
102
RTVSPost2010Prop36
280
     0
102
RTVSPost2010PropOp36
 70
     1
102
RTVSPost2010Prop37
 90
       50
102
RTVSPost2010PropOp37
 70
     1
102
RTVSPost2010Prop38
140
0.0
102
RTVSPost2010PropOp38
 70
     1
102
RTVSPost2010Prop39
140
1.0
102
RTVSPost2010PropOp39
 70
     1
102
RTVSPost2010Prop40
 90
        0
102
RTVSPost2010PropOp40
 70
     1
102
RTVSPost2010Prop41ColorIndex
 90
       18
102
RTVSPost2010Prop41ColorRGB
 90
        0
102
RTVSPost2010PropOp41
 70
     1
102
RTVSPost2010Prop42
 90
       50
102
RTVSPost2010PropOp42
 70
     1
102
RTVSPost2010Prop43
 90
        3
102
RTVSPost2010PropOp43
 70
     1
102
RTVSPost2010Prop44ColorIndex
 90
        5
102
RTVSPost2010Prop44ColorRGB
 90
      255
102
RTVSPost2010PropOp44
 70
     1
102
RTVSPost2010Prop45
280
     0
102
RTVSPost2010PropOp45
 70
     1
102
RTVSPost2010Prop46
 90
       50
102
RTVSPost2010PropOp46
 70
     1
102
RTVSPost2010Prop47
 90
       50
102
RTVSPost2010PropOp47
 70
     1
102
RTVSPost2010Prop48
 90
       50
102
RTVSPost2010PropOp48
 70
     1
102
RTVSPost2010Prop49
280
     0
102
RTVSPost2010PropOp49
 70
     1
102
RTVSPost2010Prop50
 90
       50
102
RTVSPost2010PropOp50
 70
     1
102
RTVSPost2010Prop51ColorIndex
 90
      256
102
RTVSPost2010Prop51ColorRGB
 90
-16777216
102
RTVSPost2010PropOp51
 70
     0
102
RTVSPost2010Prop52
140
1.0
102
RTVSPost2010PropOp52
 70
     0
102
RTVSPost2010Prop53
 90
        2
102
RTVSPost2010PropOp53
 70
     1
102
RTVSPost2010Prop54
  1
strokes_ogs.tif
102
RTVSPost2010PropOp54
 70
     1
102
RTVSPost2010Prop55
280
     0
102
RTVSPost2010PropOp55
 70
     1
102
RTVSPost2010Prop56
140
1.0
102
RTVSPost2010PropOp56
 70
     1
102
RTVSPost2010Prop57
140
1.0
102
RTVSPost2010PropOp57
 70
     1
102
RTVSPropertyOp0
 70
     1
102
RTVSPropertyOp1
 70
     1
102
RTVSPropertyOp2
 70
     1
102
RTVSPropertyOp3
 70
     1
102
RTVSPropertyOp4
 70
     1
102
RTVSPropertyOp5
 70
     1
102
RTVSPropertyOp6
 70
     1
102
RTVSPropertyOp7
 70
     1
102
RTVSPropertyOp8
 70
     1
102
RTVSPropertyOp9
 70
     1
102
RTVSPropertyOp10
 70
     1
102
RTVSPropertyOp11
 70
     1
102
RTVSPropertyOp12
 70
     1
102
RTVSPropertyOp13
 70
     1
102
RTVSPropertyOp14
 70
     1
102
RTVSPropertyOp15
 70
     1
102
RTVSPropertyOp16
 70
     1
102
RTVSPropertyOp17
 70
     1
102
RTVSPropertyOp18
 70
     1
102
RTVSPropertyOp19
 70
     1
102
RTVSPropertyOp20
 70
     1
102
RTVSPropertyOp21
 70
     1
102
RTVSPropertyOp22
 70
     1
102
RTVSPropertyOp23
 70
     1
102
RTVSPropertyOp24
 70
     1
102
RTVSPropertyOp25
 70
     1
102
RTVSPropertyOp26
 70
     1
102
RTVSPropertyOp27
 70
     1
102
RTVSPropertyOp28
 70
     1
102
RTVSPropertyOp29
 70
     1
102
RTVSPropertyOp30
 70
     1
102
RTVSPropertyOp31
 70
     1
102
RTVSPropertyOp32
 70
     1
102
RTVSPropertyOp33
 70
     1
102
RTVSPropertyOp34
 70
     1
102
RTVSPropertyOp35
 70
     1
102
RTVSPropertyOp36
 70
     1
102
RTVSPropertyOp37
 70
     1
102
RTVSPropertyOp38
 70
     1
102
RTVSPropertyOp39
 70
     1
102
RTVSPropertyOp40
 70
     1
102
RTVSPropertyOp41
 70
     1
102
RTVSPropertyOp42
 70
     1
102
RTVSPropertyOp43
 70
     1
102
RTVSPropertyOp44
 70
     1
102
RTVSPropertyOp45
 70
     1
102
RTVSPropertyOp46
 70
     1
102
RTVSPropertyOp47
 70
     1
102
RTVSPropertyOp48
 70
     1
102
RTVSPropertyOp49
 70
     1
102
RTVSPropertyOp50
 70
     1
102
RTVSPropertyOp51
 70
     0
102
RTVSPropertyOp52
 70
     0
102
RTVSPropertyOp53
 70
     1
102
RTVSPropertyOp54
 70
     1
102
RTVSPropertyOp55
 70
     1
102
RTVSPropertyOp56
 70
     1
102
RTVSPropertyOp57
 70
     1
102
RTVSPropertyOp58
 70
     1
102
RTVSPropertyOp59
 70
     1
102
RTVSPropertyOp60
 70
     1
102
RTVSPropertyOp61
 70
     1
102
RTVSPropertyOp62
 70
     1
  0
XRECORD
  5
556B
102
{ACAD_REACTORS
330
556A
102
}
330
556A
100
AcDbXrecord
280
     1
102
RTVSPost2010Prop28
280
     0
102
RTVSPost2010PropOp28
 70
     1
102
RTVSPost2010Prop29
280
     1
102
RTVSPost2010PropOp29
 70
     1
102
RTVSPost2010Prop30
280
     1
102
RTVSPost2010PropOp30
 70
     1
102
RTVSPost2010Prop31
280
     0
102
RTVSPost2010PropOp31
 70
     1
102
RTVSPost2010Prop32
280
     0
102
RTVSPost2010PropOp32
 70
     1
102
RTVSPost2010Prop33
280
     0
102
RTVSPost2010PropOp33
 70
     1
102
RTVSPost2010Prop34
280
     0
102
RTVSPost2010PropOp34
 70
     1
102
RTVSPost2010Prop35
280
     0
102
RTVSPost2010PropOp35
 70
     1
102
RTVSPost2010Prop36
280
     0
102
RTVSPost2010PropOp36
 70
     1
102
RTVSPost2010Prop37
 90
       50
102
RTVSPost2010PropOp37
 70
     1
102
RTVSPost2010Prop38
140
0.0
102
RTVSPost2010PropOp38
 70
     1
102
RTVSPost2010Prop39
140
1.0
102
RTVSPost2010PropOp39
 70
     1
102
RTVSPost2010Prop40
 90
        0
102
RTVSPost2010PropOp40
 70
     1
102
RTVSPost2010Prop41ColorIndex
 90
       18
102
RTVSPost2010Prop41ColorRGB
 90
        0
102
RTVSPost2010PropOp41
 70
     1
102
RTVSPost2010Prop42
 90
       50
102
RTVSPost2010PropOp42
 70
     1
102
RTVSPost2010Prop43
 90
        3
102
RTVSPost2010PropOp43
 70
     1
102
RTVSPost2010Prop44ColorIndex
 90
        5
102
RTVSPost2010Prop44ColorRGB
 90
      255
102
RTVSPost2010PropOp44
 70
     1
102
RTVSPost2010Prop45
280
     0
102
RTVSPost2010PropOp45
 70
     1
102
RTVSPost2010Prop46
 90
       50
102
RTVSPost2010PropOp46
 70
     1
102
RTVSPost2010Prop47
 90
       50
102
RTVSPost2010PropOp47
 70
     1
102
RTVSPost2010Prop48
 90
       50
102
RTVSPost2010PropOp48
 70
     1
102
RTVSPost2010Prop49
280
     0
102
RTVSPost2010PropOp49
 70
     1
102
RTVSPost2010Prop50
 90
       50
102
RTVSPost2010PropOp50
 70
     1
102
RTVSPost2010Prop51ColorIndex
 90
      256
102
RTVSPost2010Prop51ColorRGB
 90
-16777216
102
RTVSPost2010PropOp51
 70
     0
102
RTVSPost2010Prop52
140
1.0
102
RTVSPost2010PropOp52
 70
     0
102
RTVSPost2010Prop53
 90
        2
102
RTVSPost2010PropOp53
 70
     1
102
RTVSPost2010Prop54
  1
strokes_ogs.tif
102
RTVSPost2010PropOp54
 70
     1
102
RTVSPost2010Prop55
280
     0
102
RTVSPost2010PropOp55
 70
     1
102
RTVSPost2010Prop56
140
1.0
102
RTVSPost2010PropOp56
 70
     1
102
RTVSPost2010Prop57
140
1.0
102
RTVSPost2010PropOp57
 70
     1
102
RTVSPropertyOp0
 70
     1
102
RTVSPropertyOp1
 70
     1
102
RTVSPropertyOp2
 70
     1
102
RTVSPropertyOp3
 70
     1
102
RTVSPropertyOp4
 70
     1
102
RTVSPropertyOp5
 70
     1
102
RTVSPropertyOp6
 70
     1
102
RTVSPropertyOp7
 70
     1
102
RTVSPropertyOp8
 70
     1
102
RTVSPropertyOp9
 70
     1
102
RTVSPropertyOp10
 70
     1
102
RTVSPropertyOp11
 70
     1
102
RTVSPropertyOp12
 70
     1
102
RTVSPropertyOp13
 70
     1
102
RTVSPropertyOp14
 70
     1
102
RTVSPropertyOp15
 70
     1
102
RTVSPropertyOp16
 70
     1
102
RTVSPropertyOp17
 70
     1
102
RTVSPropertyOp18
 70
     1
102
RTVSPropertyOp19
 70
     1
102
RTVSPropertyOp20
 70
     1
102
RTVSPropertyOp21
 70
     1
102
RTVSPropertyOp22
 70
     1
102
RTVSPropertyOp23
 70
     1
102
RTVSPropertyOp24
 70
     1
102
RTVSPropertyOp25
 70
     1
102
RTVSPropertyOp26
 70
     1
102
RTVSPropertyOp27
 70
     1
102
RTVSPropertyOp28
 70
     1
102
RTVSPropertyOp29
 70
     1
102
RTVSPropertyOp30
 70
     1
102
RTVSPropertyOp31
 70
     1
102
RTVSPropertyOp32
 70
     1
102
RTVSPropertyOp33
 70
     1
102
RTVSPropertyOp34
 70
     1
102
RTVSPropertyOp35
 70
     1
102
RTVSPropertyOp36
 70
     1
102
RTVSPropertyOp37
 70
     1
102
RTVSPropertyOp38
 70
     1
102
RTVSPropertyOp39
 70
     1
102
RTVSPropertyOp40
 70
     1
102
RTVSPropertyOp41
 70
     1
102
RTVSPropertyOp42
 70
     1
102
RTVSPropertyOp43
 70
     1
102
RTVSPropertyOp44
 70
     1
102
RTVSPropertyOp45
 70
     1
102
RTVSPropertyOp46
 70
     1
102
RTVSPropertyOp47
 70
     1
102
RTVSPropertyOp48
 70
     1
102
RTVSPropertyOp49
 70
     1
102
RTVSPropertyOp50
 70
     1
102
RTVSPropertyOp51
 70
     0
102
RTVSPropertyOp52
 70
     0
102
RTVSPropertyOp53
 70
     1
102
RTVSPropertyOp54
 70
     1
102
RTVSPropertyOp55
 70
     1
102
RTVSPropertyOp56
 70
     1
102
RTVSPropertyOp57
 70
     1
102
RTVSPropertyOp58
 70
     1
102
RTVSPropertyOp59
 70
     1
102
RTVSPropertyOp60
 70
     1
102
RTVSPropertyOp61
 70
     1
102
RTVSPropertyOp62
 70
     1
  0
ENDSEC
  0
EOF
