  0
SECTION
  2
HEADER
  9
$ACADVER
  1
AC1018
  9
$ACADMAINTVER
 70
   104
  9
$DWGCODEPAGE
  3
ANSI_1250
  9
$LASTSAVEDBY
  1
EVA
  9
$INSBASE
 10
0.0
 20
0.0
 30
0.0
  9
$EXTMIN
 10
25.51345523661848
 20
231.113312801359
 30
0.0
  9
$EXTMAX
 10
1010.818547371177
 20
1090.478515940524
 30
0.0
  9
$LIMMIN
 10
0.0
 20
0.0
  9
$LIMMAX
 10
271.6285070728513
 20
136.3429239280804
  9
$ORTHOMODE
 70
     1
  9
$REGENMODE
 70
     1
  9
$FILLMODE
 70
     1
  9
$QTEXTMODE
 70
     0
  9
$MIRRTEXT
 70
     0
  9
$LTSCALE
 40
15.0
  9
$ATTMODE
 70
     1
  9
$TEXTSIZE
 40
3.0
  9
$TRACEWID
 40
1.0
  9
$TEXTSTYLE
  7
Stil1
  9
$CLAYER
  8
0
  9
$CELTYPE
  6
VERDECKTX2
  9
$CECOLOR
 62
   256
  9
$CELTSCALE
 40
5.0
  9
$DISPSILH
 70
     0
  9
$DIMSCALE
 40
5.0
  9
$DIMASZ
 40
3.5
  9
$DIMEXO
 40
0.0
  9
$DIMDLI
 40
3.75
  9
$DIMRND
 40
0.0
  9
$DIMDLE
 40
0.0
  9
$DIMEXE
 40
1.25
  9
$DIMTP
 40
0.0
  9
$DIMTM
 40
0.0
  9
$DIMTXT
 40
3.5
  9
$DIMCEN
 40
3.5
  9
$DIMTSZ
 40
0.0
  9
$DIMTOL
 70
     0
  9
$DIMLIM
 70
     0
  9
$DIMTIH
 70
     0
  9
$DIMTOH
 70
     0
  9
$DIMSE1
 70
     0
  9
$DIMSE2
 70
     0
  9
$DIMTAD
 70
     1
  9
$DIMZIN
 70
     8
  9
$DIMBLK
  1

  9
$DIMASO
 70
     1
  9
$DIMSHO
 70
     1
  9
$DIMPOST
  1

  9
$DIMAPOST
  1

  9
$DIMALT
 70
     0
  9
$DIMALTD
 70
     4
  9
$DIMALTF
 40
0.0394
  9
$DIMLFAC
 40
1.0
  9
$DIMTOFL
 70
     0
  9
$DIMTVP
 40
0.0
  9
$DIMTIX
 70
     0
  9
$DIMSOXD
 70
     0
  9
$DIMSAH
 70
     0
  9
$DIMBLK1
  1

  9
$DIMBLK2
  1

  9
$DIMSTYLE
  2
18
  9
$DIMCLRD
 70
     0
  9
$DIMCLRE
 70
     0
  9
$DIMCLRT
 70
     2
  9
$DIMTFAC
 40
1.0
  9
$DIMGAP
 40
0.625
  9
$DIMJUST
 70
     0
  9
$DIMSD1
 70
     0
  9
$DIMSD2
 70
     0
  9
$DIMTOLJ
 70
     1
  9
$DIMTZIN
 70
     0
  9
$DIMALTZ
 70
     0
  9
$DIMALTTZ
 70
     0
  9
$DIMUPT
 70
     0
  9
$DIMDEC
 70
     0
  9
$DIMTDEC
 70
     4
  9
$DIMALTU
 70
     8
  9
$DIMALTTD
 70
     4
  9
$DIMTXSTY
  7
ROMANS
  9
$DIMAUNIT
 70
     0
  9
$DIMADEC
 70
     0
  9
$DIMALTRND
 40
0.0
  9
$DIMAZIN
 70
     0
  9
$DIMDSEP
 70
    46
  9
$DIMATFIT
 70
     3
  9
$DIMFRAC
 70
     0
  9
$DIMLDRBLK
  1

  9
$DIMLUNIT
 70
     6
  9
$DIMLWD
 70
    -2
  9
$DIMLWE
 70
    -2
  9
$DIMTMOVE
 70
     0
  9
$LUNITS
 70
     2
  9
$LUPREC
 70
     4
  9
$SKETCHINC
 40
1.0
  9
$FILLETRAD
 40
0.0
  9
$AUNITS
 70
     0
  9
$AUPREC
 70
     0
  9
$MENU
  1
.
  9
$ELEVATION
 40
0.0
  9
$PELEVATION
 40
0.0
  9
$THICKNESS
 40
0.0
  9
$LIMCHECK
 70
     0
  9
$CHAMFERA
 40
10.0
  9
$CHAMFERB
 40
10.0
  9
$CHAMFERC
 40
20.0
  9
$CHAMFERD
 40
0.0
  9
$SKPOLY
 70
     0
  9
$TDCREATE
 40
2451600.645418067
  9
$TDUCREATE
 40
2451600.562084734
  9
$TDUPDATE
 40
2457248.526499271
  9
$TDUUPDATE
 40
2457248.443165938
  9
$TDINDWG
 40
0.9837936806
  9
$TDUSRTIMER
 40
0.9837934491
  9
$USRTIMER
 70
     1
  9
$ANGBASE
 50
0.0
  9
$ANGDIR
 70
     0
  9
$PDMODE
 70
     0
  9
$PDSIZE
 40
0.0
  9
$PLINEWID
 40
0.0
  9
$SPLFRAME
 70
     0
  9
$SPLINETYPE
 70
     6
  9
$SPLINESEGS
 70
     8
  9
$HANDSEED
  5
41C0
  9
$SURFTAB1
 70
     6
  9
$SURFTAB2
 70
     6
  9
$SURFTYPE
 70
     6
  9
$SURFU
 70
     6
  9
$SURFV
 70
     6
  9
$UCSBASE
  2

  9
$UCSNAME
  2

  9
$UCSORG
 10
0.0
 20
0.0
 30
0.0
  9
$UCSXDIR
 10
1.0
 20
0.0
 30
0.0
  9
$UCSYDIR
 10
0.0
 20
1.0
 30
0.0
  9
$UCSORTHOREF
  2

  9
$UCSORTHOVIEW
 70
     0
  9
$UCSORGTOP
 10
0.0
 20
0.0
 30
0.0
  9
$UCSORGBOTTOM
 10
0.0
 20
0.0
 30
0.0
  9
$UCSORGLEFT
 10
0.0
 20
0.0
 30
0.0
  9
$UCSORGRIGHT
 10
0.0
 20
0.0
 30
0.0
  9
$UCSORGFRONT
 10
0.0
 20
0.0
 30
0.0
  9
$UCSORGBACK
 10
0.0
 20
0.0
 30
0.0
  9
$PUCSBASE
  2

  9
$PUCSNAME
  2

  9
$PUCSORG
 10
0.0
 20
0.0
 30
0.0
  9
$PUCSXDIR
 10
1.0
 20
0.0
 30
0.0
  9
$PUCSYDIR
 10
0.0
 20
1.0
 30
0.0
  9
$PUCSORTHOREF
  2

  9
$PUCSORTHOVIEW
 70
     0
  9
$PUCSORGTOP
 10
0.0
 20
0.0
 30
0.0
  9
$PUCSORGBOTTOM
 10
0.0
 20
0.0
 30
0.0
  9
$PUCSORGLEFT
 10
0.0
 20
0.0
 30
0.0
  9
$PUCSORGRIGHT
 10
0.0
 20
0.0
 30
0.0
  9
$PUCSORGFRONT
 10
0.0
 20
0.0
 30
0.0
  9
$PUCSORGBACK
 10
0.0
 20
0.0
 30
0.0
  9
$USERI1
 70
     0
  9
$USERI2
 70
     0
  9
$USERI3
 70
     0
  9
$USERI4
 70
     0
  9
$USERI5
 70
     0
  9
$USERR1
 40
0.0
  9
$USERR2
 40
0.0
  9
$USERR3
 40
0.0
  9
$USERR4
 40
0.0
  9
$USERR5
 40
0.0
  9
$WORLDVIEW
 70
     1
  9
$SHADEDGE
 70
     3
  9
$SHADEDIF
 70
    70
  9
$TILEMODE
 70
     0
  9
$MAXACTVP
 70
    48
  9
$PINSBASE
 10
0.0
 20
0.0
 30
0.0
  9
$PLIMCHECK
 70
     0
  9
$PEXTMIN
 10
1.137950576572507
 20
2.642657989685733
 30
0.0
  9
$PEXTMAX
 10
196.0315659403611
 20
281.2760437736162
 30
0.0
  9
$PLIMMIN
 10
-6.043083
 20
-6.762742
  9
$PLIMMAX
 10
203.930245
 20
290.205581
  9
$UNITMODE
 70
     0
  9
$VISRETAIN
 70
     1
  9
$PLINEGEN
 70
     0
  9
$PSLTSCALE
 70
     0
  9
$TREEDEPTH
 70
  3020
  9
$CMLSTYLE
  2
STANDARD
  9
$CMLJUST
 70
     0
  9
$CMLSCALE
 40
20.0
  9
$PROXYGRAPHICS
 70
     1
  9
$MEASUREMENT
 70
     1
  9
$CELWEIGHT
370
    -1
  9
$ENDCAPS
280
     0
  9
$JOINSTYLE
280
     0
  9
$LWDISPLAY
290
     0
  9
$INSUNITS
 70
     0
  9
$HYPERLINKBASE
  1

  9
$STYLESHEET
  1

  9
$XEDIT
290
     1
  9
$CEPSNTYPE
380
     0
  9
$PSTYLEMODE
290
     1
  9
$FINGERPRINTGUID
  2
{9E2E0D10-E48E-11D3-BEBA-006008753510}
  9
$VERSIONGUID
  2
{424DA275-486F-4102-926F-1B0AF6CB2DF7}
  9
$EXTNAMES
290
     1
  9
$PSVPSCALE
 40
0.0
  9
$OLESTARTUP
290
     0
  9
$SORTENTS
280
    96
  9
$INDEXCTL
280
     0
  9
$HIDETEXT
280
     0
  9
$XCLIPFRAME
290
     0
  9
$HALOGAP
280
     0
  9
$OBSCOLOR
 70
   257
  9
$OBSLTYPE
280
     0
  9
$INTERSECTIONDISPLAY
280
     0
  9
$INTERSECTIONCOLOR
 70
   257
  9
$DIMASSOC
280
     1
  9
$PROJECTNAME
  1

  0
ENDSEC
  0
SECTION
  2
CLASSES
  0
CLASS
  1
ACDBDICTIONARYWDFLT
  2
AcDbDictionaryWithDefault
  3
ObjectDBX Classes
 90
        0
 91
        1
280
     0
281
     0
  0
CLASS
  1
RASTERVARIABLES
  2
AcDbRasterVariables
  3
ISM
 90
        0
 91
        1
280
     0
281
     0
  0
CLASS
  1
IMAGEDEF
  2
AcDbRasterImageDef
  3
ISM
 90
        0
 91
        1
280
     0
281
     0
  0
CLASS
  1
IMAGEDEF_REACTOR
  2
AcDbRasterImageDefReactor
  3
ISM
 90
        1
 91
        0
280
     0
281
     0
  0
CLASS
  1
IMAGE
  2
AcDbRasterImage
  3
ISM
 90
     2175
 91
        0
280
     0
281
     1
  0
CLASS
  1
DICTIONARYVAR
  2
AcDbDictionaryVar
  3
ObjectDBX Classes
 90
        0
 91
       13
280
     0
281
     0
  0
CLASS
  1
PLOTSETTINGS
  2
AcDbPlotSettings
  3
ObjectDBX Classes
 90
        0
 91
        1
280
     0
281
     0
  0
CLASS
  1
MATERIAL
  2
AcDbMaterial
  3
ObjectDBX Classes
 90
     1153
 91
        3
280
     0
281
     0
  0
CLASS
  1
VISUALSTYLE
  2
AcDbVisualStyle
  3
ObjectDBX Classes
 90
     4095
 91
       24
280
     0
281
     0
  0
CLASS
  1
TABLESTYLE
  2
AcDbTableStyle
  3
ObjectDBX Classes
 90
     4095
 91
        1
280
     0
281
     0
  0
CLASS
  1
SCALE
  2
AcDbScale
  3
ObjectDBX Classes
 90
     1153
 91
       17
280
     0
281
     0
  0
CLASS
  1
MLEADERSTYLE
  2
AcDbMLeaderStyle
  3
ACDB_MLEADERSTYLE_CLASS
 90
     4095
 91
        1
280
     0
281
     0
  0
CLASS
  1
ACDBSECTIONVIEWSTYLE
  2
AcDbSectionViewStyle
  3
ObjectDBX Classes
 90
     1025
 91
        1
280
     0
281
     0
  0
CLASS
  1
ACDBDETAILVIEWSTYLE
  2
AcDbDetailViewStyle
  3
ObjectDBX Classes
 90
     1025
 91
        1
280
     0
281
     0
  0
CLASS
  1
CELLSTYLEMAP
  2
AcDbCellStyleMap
  3
ObjectDBX Classes
 90
     1152
 91
        2
280
     0
281
     0
  0
ENDSEC
  0
SECTION
  2
TABLES
  0
TABLE
  2
VPORT
  5
8
330
0
100
AcDbSymbolTable
 70
     1
  0
VPORT
  5
4077
330
8
100
AcDbSymbolTableRecord
100
AcDbViewportTableRecord
  2
*Active
 70
     0
 10
0.0
 20
0.0
 11
1.0
 21
1.0
 12
502.6618159830595
 22
380.9041703790291
 13
0.0
 23
0.0
 14
10.0
 24
10.0
 15
10.0
 25
10.0
 16
0.0
 26
0.0
 36
1.0
 17
0.0
 27
0.0
 37
0.0
 40
1822.293026969942
 41
1.581724581724581
 42
50.0
 43
0.0
 44
0.0
 50
0.0
 51
0.0
 71
     0
 72
 20000
 73
     1
 74
     0
 75
     0
 76
     0
 77
     0
 78
     0
281
     0
 65
     1
110
0.0
120
0.0
130
0.0
111
1.0
121
0.0
131
0.0
112
0.0
122
1.0
132
0.0
 79
     0
146
0.0
1001
ACAD_NAV_VCDISPLAY
1070
     3
  0
ENDTAB
  0
TABLE
  2
LTYPE
  5
5
330
0
100
AcDbSymbolTable
 70
     7
  0
LTYPE
  5
12
330
5
100
AcDbSymbolTableRecord
100
AcDbLinetypeTableRecord
  2
BYBLOCK
 70
     0
  3

 72
    65
 73
     0
 40
0.0
  0
LTYPE
  5
13
330
5
100
AcDbSymbolTableRecord
100
AcDbLinetypeTableRecord
  2
BYLAYER
 70
     0
  3

 72
    65
 73
     0
 40
0.0
  0
LTYPE
  5
14
330
5
100
AcDbSymbolTableRecord
100
AcDbLinetypeTableRecord
  2
CONTINUOUS
 70
     0
  3
Solid line
 72
    65
 73
     0
 40
0.0
  0
LTYPE
  5
113E
330
5
100
AcDbSymbolTableRecord
100
AcDbLinetypeTableRecord
  2
VERDECKTX2
 70
     0
  3
Verdeckt (2x) ____ ____ ____ ____ ____ ____ ___
 72
    65
 73
     2
 40
19.05
 49
12.7
 74
     0
 49
-6.349999999999999
 74
     0
  0
LTYPE
  5
1205
330
5
100
AcDbSymbolTableRecord
100
AcDbLinetypeTableRecord
  2
GESTRICHELT
 70
     0
  3
__ __ __ __ __ __ __ __ __ __ __ __ __ __ __
 72
    65
 73
     2
 40
0.75
 49
0.5
 74
     0
 49
-0.25
 74
     0
  0
LTYPE
  5
1206
330
5
100
AcDbSymbolTableRecord
100
AcDbLinetypeTableRecord
  2
STRICHPUNKT
 70
     0
  3
__ . __ . __ . __ . __ . __ . __ . __ . __ . __
 72
    65
 73
     4
 40
1.0
 49
0.5
 74
     0
 49
-0.25
 74
     0
 49
0.0
 74
     0
 49
-0.25
 74
     0
  0
LTYPE
  5
1207
330
5
100
AcDbSymbolTableRecord
100
AcDbLinetypeTableRecord
  2
VERDECKT
 70
     0
  3
_ _ _ _ _ _ _ _ _ _ _ _ _ _ _ _ _ _ _ _ _ _ _
 72
    65
 73
     2
 40
0.375
 49
0.25
 74
     0
 49
-0.125
 74
     0
  0
LTYPE
  5
2649
330
5
100
AcDbSymbolTableRecord
100
AcDbLinetypeTableRecord
  2
AUSGEZOGEN
 70
     0
  3
Ausgezogene Linie
 72
    65
 73
     0
 40
0.0
  0
LTYPE
  5
264A
330
5
100
AcDbSymbolTableRecord
100
AcDbLinetypeTableRecord
  2
PUNKT
 70
     0
  3
Punkt . . . . . . . . . . . . . . . . . . . . .
 72
    65
 73
     2
 40
6.349999999999999
 49
0.0
 74
     0
 49
-6.349999999999999
 74
     0
  0
ENDTAB
  0
TABLE
  2
LAYER
  5
2
102
{ACAD_XDICTIONARY
360
40CC
102
}
330
0
100
AcDbSymbolTable
 70
    13
  0
LAYER
  5
E
102
{ACAD_XDICTIONARY
360
40EE
102
}
330
2
100
AcDbSymbolTableRecord
100
AcDbLayerTableRecord
  2
0
 70
     0
 62
     7
  6
CONTINUOUS
370
    -3
390
5E8
  0
LAYER
  5
28
330
2
100
AcDbSymbolTableRecord
100
AcDbLayerTableRecord
  2
DEFPOINTS
 70
     0
 62
     7
  6
CONTINUOUS
290
     0
370
    -3
390
5E8
  0
LAYER
  5
B7
102
{ACAD_XDICTIONARY
360
40F0
102
}
330
2
100
AcDbSymbolTableRecord
100
AcDbLayerTableRecord
  2
V5
 70
     0
 62
     7
  6
CONTINUOUS
370
    -3
390
5E8
  0
LAYER
  5
8F4
102
{ACAD_XDICTIONARY
360
40F2
102
}
330
2
100
AcDbSymbolTableRecord
100
AcDbLayerTableRecord
  2
Mansfen
 70
     0
 62
     4
  6
CONTINUOUS
290
     0
370
    -3
390
5E8
  0
LAYER
  5
120A
102
{ACAD_XDICTIONARY
360
40F4
102
}
330
2
100
AcDbSymbolTableRecord
100
AcDbLayerTableRecord
  2
V35
 70
     0
 62
     3
  6
CONTINUOUS
370
    -3
390
5E8
  0
LAYER
  5
120B
102
{ACAD_XDICTIONARY
360
40F6
102
}
330
2
100
AcDbSymbolTableRecord
100
AcDbLayerTableRecord
  2
V25
 70
     0
 62
     4
  6
CONTINUOUS
370
    -3
390
5E8
  0
LAYER
  5
120C
102
{ACAD_XDICTIONARY
360
40F8
102
}
330
2
100
AcDbSymbolTableRecord
100
AcDbLayerTableRecord
  2
SV35
 70
     0
 62
     6
  6
VERDECKT
370
    -3
390
5E8
  0
LAYER
  5
120D
102
{ACAD_XDICTIONARY
360
40FA
102
}
330
2
100
AcDbSymbolTableRecord
100
AcDbLayerTableRecord
  2
ACHS
 70
     0
 62
     4
  6
STRICHPUNKT
370
    -3
390
5E8
  0
LAYER
  5
120E
102
{ACAD_XDICTIONARY
360
40FC
102
}
330
2
100
AcDbSymbolTableRecord
100
AcDbLayerTableRecord
  2
TXT-D
 70
     0
 62
     1
  6
CONTINUOUS
370
    -3
390
5E8
  0
LAYER
  5
1835
102
{ACAD_XDICTIONARY
360
40FE
102
}
330
2
100
AcDbSymbolTableRecord
100
AcDbLayerTableRecord
  2
ISO10TES
 70
     0
 62
     4
  6
CONTINUOUS
370
    -3
390
5E8
  0
LAYER
  5
1836
102
{ACAD_XDICTIONARY
360
4100
102
}
330
2
100
AcDbSymbolTableRecord
100
AcDbLayerTableRecord
  2
3D
 70
     0
 62
     4
  6
CONTINUOUS
370
    -3
390
5E8
  0
LAYER
  5
279D
102
{ACAD_XDICTIONARY
360
4102
102
}
330
2
100
AcDbSymbolTableRecord
100
AcDbLayerTableRecord
  2
WD
 70
     0
 62
     3
  6
CONTINUOUS
370
    -3
390
5E8
  0
LAYER
  5
279E
102
{ACAD_XDICTIONARY
360
4104
102
}
330
2
100
AcDbSymbolTableRecord
100
AcDbLayerTableRecord
  2
V30
 70
     0
 62
     3
  6
CONTINUOUS
370
    -3
390
5E8
  0
ENDTAB
  0
TABLE
  2
STYLE
  5
3
330
0
100
AcDbSymbolTable
 70
     3
  0
STYLE
  5
F
330
3
100
AcDbSymbolTableRecord
100
AcDbTextStyleTableRecord
  2
STANDARD
 70
     0
 40
0.0
 41
1.0
 50
0.0
 71
     0
 42
2.5
  3
txt
  4

  0
STYLE
  5
BF
330
3
100
AcDbSymbolTableRecord
100
AcDbTextStyleTableRecord
  2
ROMANS
 70
     0
 40
14.0
 41
1.0
 50
0.0
 71
     0
 42
2.5
  3
arial.ttf
  4

1001
ACAD
1000
Arial
1071
       34
  0
STYLE
  5
91F
330
3
100
AcDbSymbolTableRecord
100
AcDbTextStyleTableRecord
  2
Stil1
 70
     0
 40
3.0
 41
1.0
 50
0.0
 71
     0
 42
3.0
  3
arial.ttf
  4

1001
ACAD
1000
Arial
1071
       34
  0
ENDTAB
  0
TABLE
  2
VIEW
  5
6
330
0
100
AcDbSymbolTable
 70
     0
  0
ENDTAB
  0
TABLE
  2
UCS
  5
7
330
0
100
AcDbSymbolTable
 70
     0
  0
ENDTAB
  0
TABLE
  2
APPID
  5
9
330
0
100
AcDbSymbolTable
 70
     6
  0
APPID
  5
10
330
9
100
AcDbSymbolTableRecord
100
AcDbRegAppTableRecord
  2
ACAD
 70
     0
  0
APPID
  5
1EF0
330
9
100
AcDbSymbolTableRecord
100
AcDbRegAppTableRecord
  2
CONTENTBLOCKICON
 70
     0
  0
APPID
  5
32A6
330
9
100
AcDbSymbolTableRecord
100
AcDbRegAppTableRecord
  2
DCO15
 70
     0
  0
APPID
  5
40CB
330
9
100
AcDbSymbolTableRecord
100
AcDbRegAppTableRecord
  2
ACAD_NAV_VCDISPLAY
 70
     0
  0
APPID
  5
40DC
330
9
100
AcDbSymbolTableRecord
100
AcDbRegAppTableRecord
  2
ACAD_EXEMPT_FROM_CAD_STANDARDS
 70
     0
  0
APPID
  5
41BB
330
9
100
AcDbSymbolTableRecord
100
AcDbRegAppTableRecord
  2
ACAD_MLEADERVER
 70
     0
  0
ENDTAB
  0
TABLE
  2
DIMSTYLE
  5
A
330
0
100
AcDbSymbolTable
 70
     2
100
AcDbDimStyleTable
 71
     0
  0
DIMSTYLE
105
1D
330
A
100
AcDbSymbolTableRecord
100
AcDbDimStyleTableRecord
  2
STANDARD
 70
     0
340
F
  0
DIMSTYLE
105
280
330
A
100
AcDbSymbolTableRecord
100
AcDbDimStyleTableRecord
  2
18
 70
     0
 40
5.0
 41
3.5
 42
0.0
 43
3.75
 44
1.25
 73
     0
 74
     0
 77
     1
 78
     8
140
3.5
141
3.5
143
0.0394
147
0.625
171
     4
178
     2
271
     0
273
     8
274
     4
277
     6
340
BF
  0
ENDTAB
  0
TABLE
  2
BLOCK_RECORD
  5
1
330
0
100
AcDbSymbolTable
 70
     4
  0
BLOCK_RECORD
  5
18
102
{ACAD_XDICTIONARY
360
81C
102
}
330
1
100
AcDbSymbolTableRecord
100
AcDbBlockTableRecord
  2
*MODEL_SPACE
340
5EB
  0
BLOCK_RECORD
  5
2658
330
1
100
AcDbSymbolTableRecord
100
AcDbBlockTableRecord
  2
*Paper_Space
340
2657
  0
BLOCK_RECORD
  5
1703
330
1
100
AcDbSymbolTableRecord
100
AcDbBlockTableRecord
  2
HALFEN
340
0
102
{BLKREFS
331
3F41
102
}
  0
BLOCK_RECORD
  5
2792
330
1
100
AcDbSymbolTableRecord
100
AcDbBlockTableRecord
  2
wädä
340
0
310
2800000020000000200000000100080000000000000400000000000000000000000000000000000000000000000080000080000000808000800000008000800080800000C0C0C000C0DCC000F0CAA6000020400000206000002080000020A0000020C0000020E00000400000004020000040400000406000004080000040A0
310
000040C0000040E00000600000006020000060400000606000006080000060A0000060C0000060E00000800000008020000080400000806000008080000080A0000080C0000080E00000A0000000A0200000A0400000A0600000A0800000A0A00000A0C00000A0E00000C0000000C0200000C0400000C0600000C0800000C0
310
A00000C0C00000C0E00000E0000000E0200000E0400000E0600000E0800000E0A00000E0C00000E0E00040000000400020004000400040006000400080004000A0004000C0004000E00040200000402020004020400040206000402080004020A0004020C0004020E000404000004040200040404000404060004040800040
310
40A0004040C0004040E00040600000406020004060400040606000406080004060A0004060C0004060E00040800000408020004080400040806000408080004080A0004080C0004080E00040A0000040A0200040A0400040A0600040A0800040A0A00040A0C00040A0E00040C0000040C0200040C0400040C0600040C08000
310
40C0A00040C0C00040C0E00040E0000040E0200040E0400040E0600040E0800040E0A00040E0C00040E0E00080000000800020008000400080006000800080008000A0008000C0008000E00080200000802020008020400080206000802080008020A0008020C0008020E00080400000804020008040400080406000804080
310
008040A0008040C0008040E00080600000806020008060400080606000806080008060A0008060C0008060E00080800000808020008080400080806000808080008080A0008080C0008080E00080A0000080A0200080A0400080A0600080A0800080A0A00080A0C00080A0E00080C0000080C0200080C0400080C0600080C0
310
800080C0A00080C0C00080C0E00080E0000080E0200080E0400080E0600080E0800080E0A00080E0C00080E0E000C0000000C0002000C0004000C0006000C0008000C000A000C000C000C000E000C0200000C0202000C0204000C0206000C0208000C020A000C020C000C020E000C0400000C0402000C0404000C0406000C0
310
408000C040A000C040C000C040E000C0600000C0602000C0604000C0606000C0608000C060A000C060C000C060E000C0800000C0802000C0804000C0806000C0808000C080A000C080C000C080E000C0A00000C0A02000C0A04000C0A06000C0A08000C0A0A000C0A0C000C0A0E000C0C00000C0C02000C0C04000C0C06000
310
C0C08000C0C0A000F0FBFF00A4A0A000808080000000FF0000FF000000FFFF00FF000000FF00FF00FFFF0000FFFFFF0000000000000000000000000000000000000000000000000000000000000000000000000000000000000000000000000000000000000000000000000000000000000000000000000000000000000000
310
00000000000000000000000000000000000000000000000000000000000000000000000000000000000000000000000000000000000000000000000000000000000000000000000000000000000000000000000000000000000000000000000000000000000000000000000000000000000000000000000000000000000000
310
00000000000000000000000000000000000000000000000000000000000000000000000000000000000000000000000000000000000000000000000000000000000000000000000000000000000000000000000000000000000000000000000000000000000000000000000000000000000000000000000000000000000000
310
00000000000000000000FEFEFEFE0000000000000000000000000000000000000000FEFEFEFEFEFEFEFE00000000FE000000000000000000000000FEFEFEFEFEFEFE00000000000000000000000000FE00000000000000FEFEFEFE000000000000000000000000000000000000000000000000000000FE000000FEFEFEFEFE
310
FE000000000000000000000000000000FE000000000000FE000000000000000000FEFEFEFEFE00000000000000000000FE0000000000FE000000000000000000000000000000FEFEFEFEFEFE000000FE0000000000FE000000000000000000000000000000000000000000FEFEFEFE00000000000000FE0000000000000000
310
00000000FEFEFEFEFEFEFEFE000000000000000000000000FE00000000FEFEFEFEFEFEFE000000000000000000000000000000000000000000FEFEFEFE000000000000000000000000000000000000000000000000000000000000000000000000000000000000000000000000000000000000000000000000000000000000
310
00000000000000000000000000000000000000000000000000000000000000000000000000000000000000000000000000000000000000000000000000000000000000000000000000000000000000000000000000000000000000000000000000000000000000000000000000000000000000000000000000000000000000
310
00000000000000000000000000000000000000000000000000000000000000000000000000000000000000000000000000000000000000000000000000000000000000000000000000000000000000000000000000000000000000000000000000000000000000000000000000000000000000000000000000000000000000
310
0000000000000000000000000000000000000000000000000000000000000000000000000000000000000000000000000000000000000000
102
{BLKREFS
331
2D40
331
2D4A
331
2D4B
331
2D59
331
2D5A
331
2D5B
331
2D5C
331
2D5D
331
2D5E
331
2D5F
331
2D60
331
2D73
331
2D82
331
2D83
331
3F5D
102
}
  0
BLOCK_RECORD
  5
351E
330
1
100
AcDbSymbolTableRecord
100
AcDbBlockTableRecord
  2
*X2
340
0
102
{BLKREFS
331
3F4B
102
}
  0
BLOCK_RECORD
  5
35EC
330
1
100
AcDbSymbolTableRecord
100
AcDbBlockTableRecord
  2
e140
340
0
102
{BLKREFS
331
3EB9
331
3F17
102
}
  0
ENDTAB
  0
ENDSEC
  0
SECTION
  2
BLOCKS
  0
BLOCK
  5
19
330
18
100
AcDbEntity
  8
0
100
AcDbBlockBegin
  2
*MODEL_SPACE
 70
     0
 10
0.0
 20
0.0
 30
0.0
  3
*MODEL_SPACE
  1

  0
ENDBLK
  5
1A
330
18
100
AcDbEntity
  8
0
100
AcDbBlockEnd
  0
BLOCK
  5
2676
330
2658
100
AcDbEntity
 67
     1
  8
0
 48
5.0
100
AcDbBlockBegin
  2
*Paper_Space
 70
     0
 10
0.0
 20
0.0
 30
0.0
  3
*Paper_Space
  1

  0
ENDBLK
  5
2677
330
2658
100
AcDbEntity
 67
     1
  8
0
 48
5.0
100
AcDbBlockEnd
  0
BLOCK
  5
170A
330
1703
100
AcDbEntity
  8
0
100
AcDbBlockBegin
  2
HALFEN
 70
     0
 10
0.0
 20
0.0
 30
0.0
  3
HALFEN
  1

  0
LINE
  5
1704
330
1703
100
AcDbEntity
  8
0
100
AcDbLine
 10
2.159883279355028
 20
-72.16333143498059
 30
0.0
 11
2.159883279355028
 21
-50.12489367374223
 31
0.0
  0
ARC
  5
1705
330
1703
100
AcDbEntity
  8
0
100
AcDbCircle
 10
28.15988327935503
 20
-50.12489367374223
 30
0.0
 40
26.0
100
AcDbArc
 50
90.0
 51
180.0
  0
LINE
  5
1706
330
1703
100
AcDbEntity
  8
0
100
AcDbLine
 10
-1.834867376810564
 20
-72.16333143498059
 30
0.0
 11
-1.834867376810564
 21
-50.12489367374223
 31
0.0
  0
ARC
  5
1707
330
1703
100
AcDbEntity
  8
0
100
AcDbCircle
 10
-27.83486737681057
 20
-50.12489367374223
 30
0.0
 40
26.0
100
AcDbArc
 50
0.0
 51
90.0
  0
ARC
  5
1708
330
1703
100
AcDbEntity
  8
0
100
AcDbCircle
 10
0.1625079512722323
 20
-80.42532222406203
 30
0.0
 40
8.5
100
AcDbArc
 50
103.5907581896157
 51
76.40924181038427
  0
LWPOLYLINE
  5
1709
330
1703
100
AcDbEntity
  8
0
100
AcDbPolyline
 90
       12
 70
     1
 43
0.0
 10
-27.83486737681057
 20
-24.12489367374224
 10
-27.83486737681057
 20
-6.124893673742235
 42
-0.4142135623731007
 10
-24.83749204872777
 20
-3.127518345659382
 10
25.16250795127223
 20
-3.127518345659382
 42
-0.4142135623731007
 10
28.15988327935503
 20
-6.124893673742235
 10
28.15988327935503
 20
-24.12489367374224
 10
31.16513262318944
 20
-24.12489367374224
 10
31.16513262318944
 20
-6.124893673742235
 42
0.4142135623730924
 10
25.16250795127223
 20
-0.1222690018250887
 10
-24.83749204872777
 20
-0.1222690018250887
 42
0.4142135623730924
 10
-30.84011672064497
 20
-6.124893673742235
 10
-30.84011672064497
 20
-24.12489367374224
  0
ENDBLK
  5
170B
330
1703
100
AcDbEntity
  8
0
100
AcDbBlockEnd
  0
BLOCK
  5
279A
330
2792
100
AcDbEntity
  8
0
 48
5.0
100
AcDbBlockBegin
  2
wädä
 70
     0
 10
0.0
 20
0.0
 30
0.0
  3
wädä
  1

  0
LWPOLYLINE
  5
2793
330
2792
100
AcDbEntity
  8
ISO10TES
100
AcDbPolyline
 90
        2
 70
     0
 43
0.0
 10
-60.4800000000001
 20
-0.0000000000001137
 10
-8.6399982384115
 20
8.639999999999758
  0
LINE
  5
2794
330
2792
100
AcDbEntity
  8
ISO10TES
100
AcDbLine
 10
-8.639998238411507
 20
8.639999999999758
 30
0.0
 11
-60.48000000000016
 21
17.27999999999986
 31
0.0
  0
LINE
  5
2795
330
2792
100
AcDbEntity
  8
ISO10TES
100
AcDbLine
 10
-8.639998238411507
 20
-8.639999999999986
 30
0.0
 11
-60.48000000000016
 21
0.0000000000002274
 31
0.0
  0
ARC
  5
2796
330
2792
100
AcDbEntity
  8
ISO10TES
100
AcDbCircle
 10
-60.48000000000006
 20
8.639999999999872
 30
0.0
 40
8.640000000000002
100
AcDbArc
 50
90.0
 51
180.0
  0
ARC
  5
2797
330
2792
100
AcDbEntity
  8
ISO10TES
100
AcDbCircle
 10
-60.48000000000006
 20
8.639999999999872
 30
0.0
 40
8.640000000000002
100
AcDbArc
 50
180.0
 51
270.0
  0
LWPOLYLINE
  5
2798
330
2792
100
AcDbEntity
  8
ISO10TES
100
AcDbPolyline
 90
        2
 70
     0
 43
0.0
 10
-8.64
 20
8.639999999999986
 42
-0.4142135623730951
 10
0.0
 20
0.0
 42
-0.4142135623730951
  0
ARC
  5
2799
330
2792
100
AcDbEntity
  8
ISO10TES
100
AcDbCircle
 10
-8.639999999999801
 20
0.0000000000002274
 30
0.0
 40
8.639999999999837
100
AcDbArc
 50
269.9999999999988
 51
0.0
  0
ENDBLK
  5
279B
330
2792
100
AcDbEntity
  8
0
 48
5.0
100
AcDbBlockEnd
  0
BLOCK
  5
35EA
330
351E
100
AcDbEntity
  8
0
100
AcDbBlockBegin
  2
*X2
 70
     1
 10
0.0
 20
0.0
 30
0.0
  3
*X2
  1

  0
LINE
  5
351F
330
351E
100
AcDbEntity
  8
0
 62
     0
380
     1
100
AcDbLine
 10
367.5
 20
440.0
 30
0.0
 11
367.5
 21
440.0
 31
0.0
  0
LINE
  5
3520
330
351E
100
AcDbEntity
  8
0
 62
     0
380
     1
100
AcDbLine
 10
370.0
 20
440.0
 30
0.0
 11
370.0
 21
440.0
 31
0.0
  0
LINE
  5
3521
330
351E
100
AcDbEntity
  8
0
 62
     0
380
     1
100
AcDbLine
 10
372.5
 20
440.0
 30
0.0
 11
372.5
 21
440.0
 31
0.0
  0
LINE
  5
3522
330
351E
100
AcDbEntity
  8
0
 62
     0
380
     1
100
AcDbLine
 10
375.0
 20
440.0
 30
0.0
 11
375.0
 21
440.0
 31
0.0
  0
LINE
  5
3523
330
351E
100
AcDbEntity
  8
0
 62
     0
380
     1
100
AcDbLine
 10
377.5
 20
440.0
 30
0.0
 11
377.5
 21
440.0
 31
0.0
  0
LINE
  5
3524
330
351E
100
AcDbEntity
  8
0
 62
     0
380
     1
100
AcDbLine
 10
380.0
 20
440.0
 30
0.0
 11
380.0
 21
440.0
 31
0.0
  0
LINE
  5
3525
330
351E
100
AcDbEntity
  8
0
 62
     0
380
     1
100
AcDbLine
 10
382.5
 20
440.0
 30
0.0
 11
382.5
 21
440.0
 31
0.0
  0
LINE
  5
3526
330
351E
100
AcDbEntity
  8
0
 62
     0
380
     1
100
AcDbLine
 10
385.0
 20
440.0
 30
0.0
 11
385.0
 21
440.0
 31
0.0
  0
LINE
  5
3527
330
351E
100
AcDbEntity
  8
0
 62
     0
380
     1
100
AcDbLine
 10
387.5
 20
440.0
 30
0.0
 11
387.5
 21
440.0
 31
0.0
  0
LINE
  5
3528
330
351E
100
AcDbEntity
  8
0
 62
     0
380
     1
100
AcDbLine
 10
390.0
 20
440.0
 30
0.0
 11
390.0
 21
440.0
 31
0.0
  0
LINE
  5
3529
330
351E
100
AcDbEntity
  8
0
 62
     0
380
     1
100
AcDbLine
 10
392.5
 20
440.0
 30
0.0
 11
392.5
 21
440.0
 31
0.0
  0
LINE
  5
352A
330
351E
100
AcDbEntity
  8
0
 62
     0
380
     1
100
AcDbLine
 10
395.0
 20
440.0
 30
0.0
 11
395.0
 21
440.0
 31
0.0
  0
LINE
  5
352B
330
351E
100
AcDbEntity
  8
0
 62
     0
380
     1
100
AcDbLine
 10
397.5
 20
440.0
 30
0.0
 11
397.5
 21
440.0
 31
0.0
  0
LINE
  5
352C
330
351E
100
AcDbEntity
  8
0
 62
     0
380
     1
100
AcDbLine
 10
400.0
 20
440.0
 30
0.0
 11
400.0
 21
440.0
 31
0.0
  0
LINE
  5
352D
330
351E
100
AcDbEntity
  8
0
 62
     0
380
     1
100
AcDbLine
 10
402.5
 20
440.0
 30
0.0
 11
402.5
 21
440.0
 31
0.0
  0
LINE
  5
352E
330
351E
100
AcDbEntity
  8
0
 62
     0
380
     1
100
AcDbLine
 10
405.0
 20
440.0
 30
0.0
 11
405.0
 21
440.0
 31
0.0
  0
LINE
  5
352F
330
351E
100
AcDbEntity
  8
0
 62
     0
380
     1
100
AcDbLine
 10
407.5
 20
440.0
 30
0.0
 11
407.5
 21
440.0
 31
0.0
  0
LINE
  5
3530
330
351E
100
AcDbEntity
  8
0
 62
     0
380
     1
100
AcDbLine
 10
410.0
 20
440.0
 30
0.0
 11
410.0
 21
440.0
 31
0.0
  0
LINE
  5
3531
330
351E
100
AcDbEntity
  8
0
 62
     0
380
     1
100
AcDbLine
 10
412.5
 20
440.0
 30
0.0
 11
412.5
 21
440.0
 31
0.0
  0
LINE
  5
3532
330
351E
100
AcDbEntity
  8
0
 62
     0
380
     1
100
AcDbLine
 10
415.0
 20
440.0
 30
0.0
 11
415.0
 21
440.0
 31
0.0
  0
LINE
  5
3533
330
351E
100
AcDbEntity
  8
0
 62
     0
380
     1
100
AcDbLine
 10
417.4999999999999
 20
440.0
 30
0.0
 11
417.4999999999999
 21
440.0
 31
0.0
  0
LINE
  5
3534
330
351E
100
AcDbEntity
  8
0
 62
     0
380
     1
100
AcDbLine
 10
420.0
 20
440.0
 30
0.0
 11
420.0
 21
440.0
 31
0.0
  0
LINE
  5
3535
330
351E
100
AcDbEntity
  8
0
 62
     0
380
     1
100
AcDbLine
 10
422.4999999999999
 20
440.0
 30
0.0
 11
422.4999999999999
 21
440.0
 31
0.0
  0
LINE
  5
3536
330
351E
100
AcDbEntity
  8
0
 62
     0
380
     1
100
AcDbLine
 10
368.75
 20
442.4999999999999
 30
0.0
 11
368.75
 21
442.4999999999999
 31
0.0
  0
LINE
  5
3537
330
351E
100
AcDbEntity
  8
0
 62
     0
380
     1
100
AcDbLine
 10
371.25
 20
442.4999999999999
 30
0.0
 11
371.25
 21
442.4999999999999
 31
0.0
  0
LINE
  5
3538
330
351E
100
AcDbEntity
  8
0
 62
     0
380
     1
100
AcDbLine
 10
373.75
 20
442.4999999999999
 30
0.0
 11
373.75
 21
442.4999999999999
 31
0.0
  0
LINE
  5
3539
330
351E
100
AcDbEntity
  8
0
 62
     0
380
     1
100
AcDbLine
 10
376.25
 20
442.4999999999999
 30
0.0
 11
376.25
 21
442.4999999999999
 31
0.0
  0
LINE
  5
353A
330
351E
100
AcDbEntity
  8
0
 62
     0
380
     1
100
AcDbLine
 10
378.75
 20
442.4999999999999
 30
0.0
 11
378.75
 21
442.4999999999999
 31
0.0
  0
LINE
  5
353B
330
351E
100
AcDbEntity
  8
0
 62
     0
380
     1
100
AcDbLine
 10
381.25
 20
442.4999999999999
 30
0.0
 11
381.25
 21
442.4999999999999
 31
0.0
  0
LINE
  5
353C
330
351E
100
AcDbEntity
  8
0
 62
     0
380
     1
100
AcDbLine
 10
383.75
 20
442.4999999999999
 30
0.0
 11
383.75
 21
442.4999999999999
 31
0.0
  0
LINE
  5
353D
330
351E
100
AcDbEntity
  8
0
 62
     0
380
     1
100
AcDbLine
 10
386.25
 20
442.4999999999999
 30
0.0
 11
386.25
 21
442.4999999999999
 31
0.0
  0
LINE
  5
353E
330
351E
100
AcDbEntity
  8
0
 62
     0
380
     1
100
AcDbLine
 10
388.75
 20
442.4999999999999
 30
0.0
 11
388.75
 21
442.4999999999999
 31
0.0
  0
LINE
  5
353F
330
351E
100
AcDbEntity
  8
0
 62
     0
380
     1
100
AcDbLine
 10
391.25
 20
442.4999999999999
 30
0.0
 11
391.25
 21
442.4999999999999
 31
0.0
  0
LINE
  5
3540
330
351E
100
AcDbEntity
  8
0
 62
     0
380
     1
100
AcDbLine
 10
393.75
 20
442.4999999999999
 30
0.0
 11
393.75
 21
442.4999999999999
 31
0.0
  0
LINE
  5
3541
330
351E
100
AcDbEntity
  8
0
 62
     0
380
     1
100
AcDbLine
 10
396.25
 20
442.4999999999999
 30
0.0
 11
396.25
 21
442.4999999999999
 31
0.0
  0
LINE
  5
3542
330
351E
100
AcDbEntity
  8
0
 62
     0
380
     1
100
AcDbLine
 10
398.75
 20
442.4999999999999
 30
0.0
 11
398.75
 21
442.4999999999999
 31
0.0
  0
LINE
  5
3543
330
351E
100
AcDbEntity
  8
0
 62
     0
380
     1
100
AcDbLine
 10
401.25
 20
442.4999999999999
 30
0.0
 11
401.25
 21
442.4999999999999
 31
0.0
  0
LINE
  5
3544
330
351E
100
AcDbEntity
  8
0
 62
     0
380
     1
100
AcDbLine
 10
403.7499999999999
 20
442.4999999999999
 30
0.0
 11
403.7499999999999
 21
442.4999999999999
 31
0.0
  0
LINE
  5
3545
330
351E
100
AcDbEntity
  8
0
 62
     0
380
     1
100
AcDbLine
 10
406.25
 20
442.4999999999999
 30
0.0
 11
406.25
 21
442.4999999999999
 31
0.0
  0
LINE
  5
3546
330
351E
100
AcDbEntity
  8
0
 62
     0
380
     1
100
AcDbLine
 10
408.75
 20
442.4999999999999
 30
0.0
 11
408.75
 21
442.4999999999999
 31
0.0
  0
LINE
  5
3547
330
351E
100
AcDbEntity
  8
0
 62
     0
380
     1
100
AcDbLine
 10
411.2499999999999
 20
442.4999999999999
 30
0.0
 11
411.2499999999999
 21
442.4999999999999
 31
0.0
  0
LINE
  5
3548
330
351E
100
AcDbEntity
  8
0
 62
     0
380
     1
100
AcDbLine
 10
413.75
 20
442.4999999999999
 30
0.0
 11
413.75
 21
442.4999999999999
 31
0.0
  0
LINE
  5
3549
330
351E
100
AcDbEntity
  8
0
 62
     0
380
     1
100
AcDbLine
 10
416.2499999999999
 20
442.4999999999999
 30
0.0
 11
416.2499999999999
 21
442.4999999999999
 31
0.0
  0
LINE
  5
354A
330
351E
100
AcDbEntity
  8
0
 62
     0
380
     1
100
AcDbLine
 10
418.75
 20
442.4999999999999
 30
0.0
 11
418.75
 21
442.4999999999999
 31
0.0
  0
LINE
  5
354B
330
351E
100
AcDbEntity
  8
0
 62
     0
380
     1
100
AcDbLine
 10
421.25
 20
442.4999999999999
 30
0.0
 11
421.25
 21
442.4999999999999
 31
0.0
  0
LINE
  5
354C
330
351E
100
AcDbEntity
  8
0
 62
     0
380
     1
100
AcDbLine
 10
367.5
 20
445.0
 30
0.0
 11
367.5
 21
445.0
 31
0.0
  0
LINE
  5
354D
330
351E
100
AcDbEntity
  8
0
 62
     0
380
     1
100
AcDbLine
 10
370.0
 20
445.0
 30
0.0
 11
370.0
 21
445.0
 31
0.0
  0
LINE
  5
354E
330
351E
100
AcDbEntity
  8
0
 62
     0
380
     1
100
AcDbLine
 10
372.5
 20
445.0
 30
0.0
 11
372.5
 21
445.0
 31
0.0
  0
LINE
  5
354F
330
351E
100
AcDbEntity
  8
0
 62
     0
380
     1
100
AcDbLine
 10
375.0
 20
445.0
 30
0.0
 11
375.0
 21
445.0
 31
0.0
  0
LINE
  5
3550
330
351E
100
AcDbEntity
  8
0
 62
     0
380
     1
100
AcDbLine
 10
377.5
 20
445.0
 30
0.0
 11
377.5
 21
445.0
 31
0.0
  0
LINE
  5
3551
330
351E
100
AcDbEntity
  8
0
 62
     0
380
     1
100
AcDbLine
 10
380.0
 20
445.0
 30
0.0
 11
380.0
 21
445.0
 31
0.0
  0
LINE
  5
3552
330
351E
100
AcDbEntity
  8
0
 62
     0
380
     1
100
AcDbLine
 10
382.5
 20
445.0
 30
0.0
 11
382.5
 21
445.0
 31
0.0
  0
LINE
  5
3553
330
351E
100
AcDbEntity
  8
0
 62
     0
380
     1
100
AcDbLine
 10
385.0
 20
445.0
 30
0.0
 11
385.0
 21
445.0
 31
0.0
  0
LINE
  5
3554
330
351E
100
AcDbEntity
  8
0
 62
     0
380
     1
100
AcDbLine
 10
387.5
 20
445.0
 30
0.0
 11
387.5
 21
445.0
 31
0.0
  0
LINE
  5
3555
330
351E
100
AcDbEntity
  8
0
 62
     0
380
     1
100
AcDbLine
 10
390.0
 20
445.0
 30
0.0
 11
390.0
 21
445.0
 31
0.0
  0
LINE
  5
3556
330
351E
100
AcDbEntity
  8
0
 62
     0
380
     1
100
AcDbLine
 10
392.5
 20
445.0
 30
0.0
 11
392.5
 21
445.0
 31
0.0
  0
LINE
  5
3557
330
351E
100
AcDbEntity
  8
0
 62
     0
380
     1
100
AcDbLine
 10
395.0
 20
445.0
 30
0.0
 11
395.0
 21
445.0
 31
0.0
  0
LINE
  5
3558
330
351E
100
AcDbEntity
  8
0
 62
     0
380
     1
100
AcDbLine
 10
397.5
 20
445.0
 30
0.0
 11
397.5
 21
445.0
 31
0.0
  0
LINE
  5
3559
330
351E
100
AcDbEntity
  8
0
 62
     0
380
     1
100
AcDbLine
 10
400.0
 20
445.0
 30
0.0
 11
400.0
 21
445.0
 31
0.0
  0
LINE
  5
355A
330
351E
100
AcDbEntity
  8
0
 62
     0
380
     1
100
AcDbLine
 10
402.5
 20
445.0
 30
0.0
 11
402.5
 21
445.0
 31
0.0
  0
LINE
  5
355B
330
351E
100
AcDbEntity
  8
0
 62
     0
380
     1
100
AcDbLine
 10
405.0
 20
445.0
 30
0.0
 11
405.0
 21
445.0
 31
0.0
  0
LINE
  5
355C
330
351E
100
AcDbEntity
  8
0
 62
     0
380
     1
100
AcDbLine
 10
407.5
 20
445.0
 30
0.0
 11
407.5
 21
445.0
 31
0.0
  0
LINE
  5
355D
330
351E
100
AcDbEntity
  8
0
 62
     0
380
     1
100
AcDbLine
 10
410.0
 20
445.0
 30
0.0
 11
410.0
 21
445.0
 31
0.0
  0
LINE
  5
355E
330
351E
100
AcDbEntity
  8
0
 62
     0
380
     1
100
AcDbLine
 10
412.5
 20
445.0
 30
0.0
 11
412.5
 21
445.0
 31
0.0
  0
LINE
  5
355F
330
351E
100
AcDbEntity
  8
0
 62
     0
380
     1
100
AcDbLine
 10
415.0
 20
445.0
 30
0.0
 11
415.0
 21
445.0
 31
0.0
  0
LINE
  5
3560
330
351E
100
AcDbEntity
  8
0
 62
     0
380
     1
100
AcDbLine
 10
417.4999999999999
 20
445.0
 30
0.0
 11
417.4999999999999
 21
445.0
 31
0.0
  0
LINE
  5
3561
330
351E
100
AcDbEntity
  8
0
 62
     0
380
     1
100
AcDbLine
 10
420.0
 20
445.0
 30
0.0
 11
420.0
 21
445.0
 31
0.0
  0
LINE
  5
3562
330
351E
100
AcDbEntity
  8
0
 62
     0
380
     1
100
AcDbLine
 10
422.4999999999999
 20
445.0
 30
0.0
 11
422.4999999999999
 21
445.0
 31
0.0
  0
LINE
  5
3563
330
351E
100
AcDbEntity
  8
0
 62
     0
380
     1
100
AcDbLine
 10
368.75
 20
447.5
 30
0.0
 11
368.75
 21
447.5
 31
0.0
  0
LINE
  5
3564
330
351E
100
AcDbEntity
  8
0
 62
     0
380
     1
100
AcDbLine
 10
371.25
 20
447.5
 30
0.0
 11
371.25
 21
447.5
 31
0.0
  0
LINE
  5
3565
330
351E
100
AcDbEntity
  8
0
 62
     0
380
     1
100
AcDbLine
 10
373.75
 20
447.5
 30
0.0
 11
373.75
 21
447.5
 31
0.0
  0
LINE
  5
3566
330
351E
100
AcDbEntity
  8
0
 62
     0
380
     1
100
AcDbLine
 10
376.25
 20
447.5
 30
0.0
 11
376.25
 21
447.5
 31
0.0
  0
LINE
  5
3567
330
351E
100
AcDbEntity
  8
0
 62
     0
380
     1
100
AcDbLine
 10
378.75
 20
447.5
 30
0.0
 11
378.75
 21
447.5
 31
0.0
  0
LINE
  5
3568
330
351E
100
AcDbEntity
  8
0
 62
     0
380
     1
100
AcDbLine
 10
381.25
 20
447.5
 30
0.0
 11
381.25
 21
447.5
 31
0.0
  0
LINE
  5
3569
330
351E
100
AcDbEntity
  8
0
 62
     0
380
     1
100
AcDbLine
 10
383.75
 20
447.5
 30
0.0
 11
383.75
 21
447.5
 31
0.0
  0
LINE
  5
356A
330
351E
100
AcDbEntity
  8
0
 62
     0
380
     1
100
AcDbLine
 10
386.25
 20
447.5
 30
0.0
 11
386.25
 21
447.5
 31
0.0
  0
LINE
  5
356B
330
351E
100
AcDbEntity
  8
0
 62
     0
380
     1
100
AcDbLine
 10
388.75
 20
447.5
 30
0.0
 11
388.75
 21
447.5
 31
0.0
  0
LINE
  5
356C
330
351E
100
AcDbEntity
  8
0
 62
     0
380
     1
100
AcDbLine
 10
391.25
 20
447.5
 30
0.0
 11
391.25
 21
447.5
 31
0.0
  0
LINE
  5
356D
330
351E
100
AcDbEntity
  8
0
 62
     0
380
     1
100
AcDbLine
 10
393.75
 20
447.5
 30
0.0
 11
393.75
 21
447.5
 31
0.0
  0
LINE
  5
356E
330
351E
100
AcDbEntity
  8
0
 62
     0
380
     1
100
AcDbLine
 10
396.25
 20
447.5
 30
0.0
 11
396.25
 21
447.5
 31
0.0
  0
LINE
  5
356F
330
351E
100
AcDbEntity
  8
0
 62
     0
380
     1
100
AcDbLine
 10
398.75
 20
447.5
 30
0.0
 11
398.75
 21
447.5
 31
0.0
  0
LINE
  5
3570
330
351E
100
AcDbEntity
  8
0
 62
     0
380
     1
100
AcDbLine
 10
401.25
 20
447.5
 30
0.0
 11
401.25
 21
447.5
 31
0.0
  0
LINE
  5
3571
330
351E
100
AcDbEntity
  8
0
 62
     0
380
     1
100
AcDbLine
 10
403.7499999999999
 20
447.5
 30
0.0
 11
403.7499999999999
 21
447.5
 31
0.0
  0
LINE
  5
3572
330
351E
100
AcDbEntity
  8
0
 62
     0
380
     1
100
AcDbLine
 10
406.25
 20
447.5
 30
0.0
 11
406.25
 21
447.5
 31
0.0
  0
LINE
  5
3573
330
351E
100
AcDbEntity
  8
0
 62
     0
380
     1
100
AcDbLine
 10
408.75
 20
447.5
 30
0.0
 11
408.75
 21
447.5
 31
0.0
  0
LINE
  5
3574
330
351E
100
AcDbEntity
  8
0
 62
     0
380
     1
100
AcDbLine
 10
411.2499999999999
 20
447.5
 30
0.0
 11
411.2499999999999
 21
447.5
 31
0.0
  0
LINE
  5
3575
330
351E
100
AcDbEntity
  8
0
 62
     0
380
     1
100
AcDbLine
 10
413.75
 20
447.5
 30
0.0
 11
413.75
 21
447.5
 31
0.0
  0
LINE
  5
3576
330
351E
100
AcDbEntity
  8
0
 62
     0
380
     1
100
AcDbLine
 10
416.2499999999999
 20
447.5
 30
0.0
 11
416.2499999999999
 21
447.5
 31
0.0
  0
LINE
  5
3577
330
351E
100
AcDbEntity
  8
0
 62
     0
380
     1
100
AcDbLine
 10
418.75
 20
447.5
 30
0.0
 11
418.75
 21
447.5
 31
0.0
  0
LINE
  5
3578
330
351E
100
AcDbEntity
  8
0
 62
     0
380
     1
100
AcDbLine
 10
421.25
 20
447.5
 30
0.0
 11
421.25
 21
447.5
 31
0.0
  0
LINE
  5
3579
330
351E
100
AcDbEntity
  8
0
 62
     0
380
     1
100
AcDbLine
 10
367.5
 20
450.0
 30
0.0
 11
367.5
 21
450.0
 31
0.0
  0
LINE
  5
357A
330
351E
100
AcDbEntity
  8
0
 62
     0
380
     1
100
AcDbLine
 10
370.0
 20
450.0
 30
0.0
 11
370.0
 21
450.0
 31
0.0
  0
LINE
  5
357B
330
351E
100
AcDbEntity
  8
0
 62
     0
380
     1
100
AcDbLine
 10
372.5
 20
450.0
 30
0.0
 11
372.5
 21
450.0
 31
0.0
  0
LINE
  5
357C
330
351E
100
AcDbEntity
  8
0
 62
     0
380
     1
100
AcDbLine
 10
375.0
 20
450.0
 30
0.0
 11
375.0
 21
450.0
 31
0.0
  0
LINE
  5
357D
330
351E
100
AcDbEntity
  8
0
 62
     0
380
     1
100
AcDbLine
 10
377.5
 20
450.0
 30
0.0
 11
377.5
 21
450.0
 31
0.0
  0
LINE
  5
357E
330
351E
100
AcDbEntity
  8
0
 62
     0
380
     1
100
AcDbLine
 10
380.0
 20
450.0
 30
0.0
 11
380.0
 21
450.0
 31
0.0
  0
LINE
  5
357F
330
351E
100
AcDbEntity
  8
0
 62
     0
380
     1
100
AcDbLine
 10
382.5
 20
450.0
 30
0.0
 11
382.5
 21
450.0
 31
0.0
  0
LINE
  5
3580
330
351E
100
AcDbEntity
  8
0
 62
     0
380
     1
100
AcDbLine
 10
385.0
 20
450.0
 30
0.0
 11
385.0
 21
450.0
 31
0.0
  0
LINE
  5
3581
330
351E
100
AcDbEntity
  8
0
 62
     0
380
     1
100
AcDbLine
 10
387.5
 20
450.0
 30
0.0
 11
387.5
 21
450.0
 31
0.0
  0
LINE
  5
3582
330
351E
100
AcDbEntity
  8
0
 62
     0
380
     1
100
AcDbLine
 10
390.0
 20
450.0
 30
0.0
 11
390.0
 21
450.0
 31
0.0
  0
LINE
  5
3583
330
351E
100
AcDbEntity
  8
0
 62
     0
380
     1
100
AcDbLine
 10
392.5
 20
450.0
 30
0.0
 11
392.5
 21
450.0
 31
0.0
  0
LINE
  5
3584
330
351E
100
AcDbEntity
  8
0
 62
     0
380
     1
100
AcDbLine
 10
395.0
 20
450.0
 30
0.0
 11
395.0
 21
450.0
 31
0.0
  0
LINE
  5
3585
330
351E
100
AcDbEntity
  8
0
 62
     0
380
     1
100
AcDbLine
 10
397.5
 20
450.0
 30
0.0
 11
397.5
 21
450.0
 31
0.0
  0
LINE
  5
3586
330
351E
100
AcDbEntity
  8
0
 62
     0
380
     1
100
AcDbLine
 10
400.0
 20
450.0
 30
0.0
 11
400.0
 21
450.0
 31
0.0
  0
LINE
  5
3587
330
351E
100
AcDbEntity
  8
0
 62
     0
380
     1
100
AcDbLine
 10
402.5
 20
450.0
 30
0.0
 11
402.5
 21
450.0
 31
0.0
  0
LINE
  5
3588
330
351E
100
AcDbEntity
  8
0
 62
     0
380
     1
100
AcDbLine
 10
405.0
 20
450.0
 30
0.0
 11
405.0
 21
450.0
 31
0.0
  0
LINE
  5
3589
330
351E
100
AcDbEntity
  8
0
 62
     0
380
     1
100
AcDbLine
 10
407.5
 20
450.0
 30
0.0
 11
407.5
 21
450.0
 31
0.0
  0
LINE
  5
358A
330
351E
100
AcDbEntity
  8
0
 62
     0
380
     1
100
AcDbLine
 10
410.0
 20
450.0
 30
0.0
 11
410.0
 21
450.0
 31
0.0
  0
LINE
  5
358B
330
351E
100
AcDbEntity
  8
0
 62
     0
380
     1
100
AcDbLine
 10
412.5
 20
450.0
 30
0.0
 11
412.5
 21
450.0
 31
0.0
  0
LINE
  5
358C
330
351E
100
AcDbEntity
  8
0
 62
     0
380
     1
100
AcDbLine
 10
415.0
 20
450.0
 30
0.0
 11
415.0
 21
450.0
 31
0.0
  0
LINE
  5
358D
330
351E
100
AcDbEntity
  8
0
 62
     0
380
     1
100
AcDbLine
 10
417.4999999999999
 20
450.0
 30
0.0
 11
417.4999999999999
 21
450.0
 31
0.0
  0
LINE
  5
358E
330
351E
100
AcDbEntity
  8
0
 62
     0
380
     1
100
AcDbLine
 10
420.0
 20
450.0
 30
0.0
 11
420.0
 21
450.0
 31
0.0
  0
LINE
  5
358F
330
351E
100
AcDbEntity
  8
0
 62
     0
380
     1
100
AcDbLine
 10
422.4999999999999
 20
450.0
 30
0.0
 11
422.4999999999999
 21
450.0
 31
0.0
  0
LINE
  5
3590
330
351E
100
AcDbEntity
  8
0
 62
     0
380
     1
100
AcDbLine
 10
368.75
 20
437.5
 30
0.0
 11
368.75
 21
437.5
 31
0.0
  0
LINE
  5
3591
330
351E
100
AcDbEntity
  8
0
 62
     0
380
     1
100
AcDbLine
 10
371.25
 20
437.5
 30
0.0
 11
371.25
 21
437.5
 31
0.0
  0
LINE
  5
3592
330
351E
100
AcDbEntity
  8
0
 62
     0
380
     1
100
AcDbLine
 10
373.75
 20
437.5
 30
0.0
 11
373.75
 21
437.5
 31
0.0
  0
LINE
  5
3593
330
351E
100
AcDbEntity
  8
0
 62
     0
380
     1
100
AcDbLine
 10
376.25
 20
437.5
 30
0.0
 11
376.25
 21
437.5
 31
0.0
  0
LINE
  5
3594
330
351E
100
AcDbEntity
  8
0
 62
     0
380
     1
100
AcDbLine
 10
378.75
 20
437.5
 30
0.0
 11
378.75
 21
437.5
 31
0.0
  0
LINE
  5
3595
330
351E
100
AcDbEntity
  8
0
 62
     0
380
     1
100
AcDbLine
 10
381.25
 20
437.5
 30
0.0
 11
381.25
 21
437.5
 31
0.0
  0
LINE
  5
3596
330
351E
100
AcDbEntity
  8
0
 62
     0
380
     1
100
AcDbLine
 10
383.75
 20
437.5
 30
0.0
 11
383.75
 21
437.5
 31
0.0
  0
LINE
  5
3597
330
351E
100
AcDbEntity
  8
0
 62
     0
380
     1
100
AcDbLine
 10
386.25
 20
437.5
 30
0.0
 11
386.25
 21
437.5
 31
0.0
  0
LINE
  5
3598
330
351E
100
AcDbEntity
  8
0
 62
     0
380
     1
100
AcDbLine
 10
388.75
 20
437.5
 30
0.0
 11
388.75
 21
437.5
 31
0.0
  0
LINE
  5
3599
330
351E
100
AcDbEntity
  8
0
 62
     0
380
     1
100
AcDbLine
 10
391.25
 20
437.5
 30
0.0
 11
391.25
 21
437.5
 31
0.0
  0
LINE
  5
359A
330
351E
100
AcDbEntity
  8
0
 62
     0
380
     1
100
AcDbLine
 10
393.75
 20
437.5
 30
0.0
 11
393.75
 21
437.5
 31
0.0
  0
LINE
  5
359B
330
351E
100
AcDbEntity
  8
0
 62
     0
380
     1
100
AcDbLine
 10
396.25
 20
437.5
 30
0.0
 11
396.25
 21
437.5
 31
0.0
  0
LINE
  5
359C
330
351E
100
AcDbEntity
  8
0
 62
     0
380
     1
100
AcDbLine
 10
398.75
 20
437.5
 30
0.0
 11
398.75
 21
437.5
 31
0.0
  0
LINE
  5
359D
330
351E
100
AcDbEntity
  8
0
 62
     0
380
     1
100
AcDbLine
 10
401.25
 20
437.5
 30
0.0
 11
401.25
 21
437.5
 31
0.0
  0
LINE
  5
359E
330
351E
100
AcDbEntity
  8
0
 62
     0
380
     1
100
AcDbLine
 10
403.7499999999999
 20
437.5
 30
0.0
 11
403.7499999999999
 21
437.5
 31
0.0
  0
LINE
  5
359F
330
351E
100
AcDbEntity
  8
0
 62
     0
380
     1
100
AcDbLine
 10
406.25
 20
437.5
 30
0.0
 11
406.25
 21
437.5
 31
0.0
  0
LINE
  5
35A0
330
351E
100
AcDbEntity
  8
0
 62
     0
380
     1
100
AcDbLine
 10
408.75
 20
437.5
 30
0.0
 11
408.75
 21
437.5
 31
0.0
  0
LINE
  5
35A1
330
351E
100
AcDbEntity
  8
0
 62
     0
380
     1
100
AcDbLine
 10
411.2499999999999
 20
437.5
 30
0.0
 11
411.2499999999999
 21
437.5
 31
0.0
  0
LINE
  5
35A2
330
351E
100
AcDbEntity
  8
0
 62
     0
380
     1
100
AcDbLine
 10
413.75
 20
437.5
 30
0.0
 11
413.75
 21
437.5
 31
0.0
  0
LINE
  5
35A3
330
351E
100
AcDbEntity
  8
0
 62
     0
380
     1
100
AcDbLine
 10
416.2499999999999
 20
437.5
 30
0.0
 11
416.2499999999999
 21
437.5
 31
0.0
  0
LINE
  5
35A4
330
351E
100
AcDbEntity
  8
0
 62
     0
380
     1
100
AcDbLine
 10
418.75
 20
437.5
 30
0.0
 11
418.75
 21
437.5
 31
0.0
  0
LINE
  5
35A5
330
351E
100
AcDbEntity
  8
0
 62
     0
380
     1
100
AcDbLine
 10
421.25
 20
437.5
 30
0.0
 11
421.25
 21
437.5
 31
0.0
  0
LINE
  5
35A6
330
351E
100
AcDbEntity
  8
0
 62
     0
380
     1
100
AcDbLine
 10
367.5
 20
435.0
 30
0.0
 11
367.5
 21
435.0
 31
0.0
  0
LINE
  5
35A7
330
351E
100
AcDbEntity
  8
0
 62
     0
380
     1
100
AcDbLine
 10
370.0
 20
435.0
 30
0.0
 11
370.0
 21
435.0
 31
0.0
  0
LINE
  5
35A8
330
351E
100
AcDbEntity
  8
0
 62
     0
380
     1
100
AcDbLine
 10
372.5
 20
435.0
 30
0.0
 11
372.5
 21
435.0
 31
0.0
  0
LINE
  5
35A9
330
351E
100
AcDbEntity
  8
0
 62
     0
380
     1
100
AcDbLine
 10
375.0
 20
435.0
 30
0.0
 11
375.0
 21
435.0
 31
0.0
  0
LINE
  5
35AA
330
351E
100
AcDbEntity
  8
0
 62
     0
380
     1
100
AcDbLine
 10
377.5
 20
435.0
 30
0.0
 11
377.5
 21
435.0
 31
0.0
  0
LINE
  5
35AB
330
351E
100
AcDbEntity
  8
0
 62
     0
380
     1
100
AcDbLine
 10
380.0
 20
435.0
 30
0.0
 11
380.0
 21
435.0
 31
0.0
  0
LINE
  5
35AC
330
351E
100
AcDbEntity
  8
0
 62
     0
380
     1
100
AcDbLine
 10
382.5
 20
435.0
 30
0.0
 11
382.5
 21
435.0
 31
0.0
  0
LINE
  5
35AD
330
351E
100
AcDbEntity
  8
0
 62
     0
380
     1
100
AcDbLine
 10
385.0
 20
435.0
 30
0.0
 11
385.0
 21
435.0
 31
0.0
  0
LINE
  5
35AE
330
351E
100
AcDbEntity
  8
0
 62
     0
380
     1
100
AcDbLine
 10
387.5
 20
435.0
 30
0.0
 11
387.5
 21
435.0
 31
0.0
  0
LINE
  5
35AF
330
351E
100
AcDbEntity
  8
0
 62
     0
380
     1
100
AcDbLine
 10
390.0
 20
435.0
 30
0.0
 11
390.0
 21
435.0
 31
0.0
  0
LINE
  5
35B0
330
351E
100
AcDbEntity
  8
0
 62
     0
380
     1
100
AcDbLine
 10
392.5
 20
435.0
 30
0.0
 11
392.5
 21
435.0
 31
0.0
  0
LINE
  5
35B1
330
351E
100
AcDbEntity
  8
0
 62
     0
380
     1
100
AcDbLine
 10
395.0
 20
435.0
 30
0.0
 11
395.0
 21
435.0
 31
0.0
  0
LINE
  5
35B2
330
351E
100
AcDbEntity
  8
0
 62
     0
380
     1
100
AcDbLine
 10
397.5
 20
435.0
 30
0.0
 11
397.5
 21
435.0
 31
0.0
  0
LINE
  5
35B3
330
351E
100
AcDbEntity
  8
0
 62
     0
380
     1
100
AcDbLine
 10
400.0
 20
435.0
 30
0.0
 11
400.0
 21
435.0
 31
0.0
  0
LINE
  5
35B4
330
351E
100
AcDbEntity
  8
0
 62
     0
380
     1
100
AcDbLine
 10
402.5
 20
435.0
 30
0.0
 11
402.5
 21
435.0
 31
0.0
  0
LINE
  5
35B5
330
351E
100
AcDbEntity
  8
0
 62
     0
380
     1
100
AcDbLine
 10
405.0
 20
435.0
 30
0.0
 11
405.0
 21
435.0
 31
0.0
  0
LINE
  5
35B6
330
351E
100
AcDbEntity
  8
0
 62
     0
380
     1
100
AcDbLine
 10
407.5
 20
435.0
 30
0.0
 11
407.5
 21
435.0
 31
0.0
  0
LINE
  5
35B7
330
351E
100
AcDbEntity
  8
0
 62
     0
380
     1
100
AcDbLine
 10
410.0
 20
435.0
 30
0.0
 11
410.0
 21
435.0
 31
0.0
  0
LINE
  5
35B8
330
351E
100
AcDbEntity
  8
0
 62
     0
380
     1
100
AcDbLine
 10
412.5
 20
435.0
 30
0.0
 11
412.5
 21
435.0
 31
0.0
  0
LINE
  5
35B9
330
351E
100
AcDbEntity
  8
0
 62
     0
380
     1
100
AcDbLine
 10
415.0
 20
435.0
 30
0.0
 11
415.0
 21
435.0
 31
0.0
  0
LINE
  5
35BA
330
351E
100
AcDbEntity
  8
0
 62
     0
380
     1
100
AcDbLine
 10
417.4999999999999
 20
435.0
 30
0.0
 11
417.4999999999999
 21
435.0
 31
0.0
  0
LINE
  5
35BB
330
351E
100
AcDbEntity
  8
0
 62
     0
380
     1
100
AcDbLine
 10
420.0
 20
435.0
 30
0.0
 11
420.0
 21
435.0
 31
0.0
  0
LINE
  5
35BC
330
351E
100
AcDbEntity
  8
0
 62
     0
380
     1
100
AcDbLine
 10
422.4999999999999
 20
435.0
 30
0.0
 11
422.4999999999999
 21
435.0
 31
0.0
  0
LINE
  5
35BD
330
351E
100
AcDbEntity
  8
0
 62
     0
380
     1
100
AcDbLine
 10
368.75
 20
432.5
 30
0.0
 11
368.75
 21
432.5
 31
0.0
  0
LINE
  5
35BE
330
351E
100
AcDbEntity
  8
0
 62
     0
380
     1
100
AcDbLine
 10
371.25
 20
432.5
 30
0.0
 11
371.25
 21
432.5
 31
0.0
  0
LINE
  5
35BF
330
351E
100
AcDbEntity
  8
0
 62
     0
380
     1
100
AcDbLine
 10
373.75
 20
432.5
 30
0.0
 11
373.75
 21
432.5
 31
0.0
  0
LINE
  5
35C0
330
351E
100
AcDbEntity
  8
0
 62
     0
380
     1
100
AcDbLine
 10
376.25
 20
432.5
 30
0.0
 11
376.25
 21
432.5
 31
0.0
  0
LINE
  5
35C1
330
351E
100
AcDbEntity
  8
0
 62
     0
380
     1
100
AcDbLine
 10
378.75
 20
432.5
 30
0.0
 11
378.75
 21
432.5
 31
0.0
  0
LINE
  5
35C2
330
351E
100
AcDbEntity
  8
0
 62
     0
380
     1
100
AcDbLine
 10
381.25
 20
432.5
 30
0.0
 11
381.25
 21
432.5
 31
0.0
  0
LINE
  5
35C3
330
351E
100
AcDbEntity
  8
0
 62
     0
380
     1
100
AcDbLine
 10
383.75
 20
432.5
 30
0.0
 11
383.75
 21
432.5
 31
0.0
  0
LINE
  5
35C4
330
351E
100
AcDbEntity
  8
0
 62
     0
380
     1
100
AcDbLine
 10
386.25
 20
432.5
 30
0.0
 11
386.25
 21
432.5
 31
0.0
  0
LINE
  5
35C5
330
351E
100
AcDbEntity
  8
0
 62
     0
380
     1
100
AcDbLine
 10
388.75
 20
432.5
 30
0.0
 11
388.75
 21
432.5
 31
0.0
  0
LINE
  5
35C6
330
351E
100
AcDbEntity
  8
0
 62
     0
380
     1
100
AcDbLine
 10
391.25
 20
432.5
 30
0.0
 11
391.25
 21
432.5
 31
0.0
  0
LINE
  5
35C7
330
351E
100
AcDbEntity
  8
0
 62
     0
380
     1
100
AcDbLine
 10
393.75
 20
432.5
 30
0.0
 11
393.75
 21
432.5
 31
0.0
  0
LINE
  5
35C8
330
351E
100
AcDbEntity
  8
0
 62
     0
380
     1
100
AcDbLine
 10
396.25
 20
432.5
 30
0.0
 11
396.25
 21
432.5
 31
0.0
  0
LINE
  5
35C9
330
351E
100
AcDbEntity
  8
0
 62
     0
380
     1
100
AcDbLine
 10
398.75
 20
432.5
 30
0.0
 11
398.75
 21
432.5
 31
0.0
  0
LINE
  5
35CA
330
351E
100
AcDbEntity
  8
0
 62
     0
380
     1
100
AcDbLine
 10
401.25
 20
432.5
 30
0.0
 11
401.25
 21
432.5
 31
0.0
  0
LINE
  5
35CB
330
351E
100
AcDbEntity
  8
0
 62
     0
380
     1
100
AcDbLine
 10
403.7499999999999
 20
432.5
 30
0.0
 11
403.7499999999999
 21
432.5
 31
0.0
  0
LINE
  5
35CC
330
351E
100
AcDbEntity
  8
0
 62
     0
380
     1
100
AcDbLine
 10
406.25
 20
432.5
 30
0.0
 11
406.25
 21
432.5
 31
0.0
  0
LINE
  5
35CD
330
351E
100
AcDbEntity
  8
0
 62
     0
380
     1
100
AcDbLine
 10
408.75
 20
432.5
 30
0.0
 11
408.75
 21
432.5
 31
0.0
  0
LINE
  5
35CE
330
351E
100
AcDbEntity
  8
0
 62
     0
380
     1
100
AcDbLine
 10
411.2499999999999
 20
432.5
 30
0.0
 11
411.2499999999999
 21
432.5
 31
0.0
  0
LINE
  5
35CF
330
351E
100
AcDbEntity
  8
0
 62
     0
380
     1
100
AcDbLine
 10
413.75
 20
432.5
 30
0.0
 11
413.75
 21
432.5
 31
0.0
  0
LINE
  5
35D0
330
351E
100
AcDbEntity
  8
0
 62
     0
380
     1
100
AcDbLine
 10
416.2499999999999
 20
432.5
 30
0.0
 11
416.2499999999999
 21
432.5
 31
0.0
  0
LINE
  5
35D1
330
351E
100
AcDbEntity
  8
0
 62
     0
380
     1
100
AcDbLine
 10
418.75
 20
432.5
 30
0.0
 11
418.75
 21
432.5
 31
0.0
  0
LINE
  5
35D2
330
351E
100
AcDbEntity
  8
0
 62
     0
380
     1
100
AcDbLine
 10
421.25
 20
432.5
 30
0.0
 11
421.25
 21
432.5
 31
0.0
  0
LINE
  5
35D3
330
351E
100
AcDbEntity
  8
0
 62
     0
380
     1
100
AcDbLine
 10
367.5
 20
430.0
 30
0.0
 11
367.5
 21
430.0
 31
0.0
  0
LINE
  5
35D4
330
351E
100
AcDbEntity
  8
0
 62
     0
380
     1
100
AcDbLine
 10
370.0
 20
430.0
 30
0.0
 11
370.0
 21
430.0
 31
0.0
  0
LINE
  5
35D5
330
351E
100
AcDbEntity
  8
0
 62
     0
380
     1
100
AcDbLine
 10
372.5
 20
430.0
 30
0.0
 11
372.5
 21
430.0
 31
0.0
  0
LINE
  5
35D6
330
351E
100
AcDbEntity
  8
0
 62
     0
380
     1
100
AcDbLine
 10
375.0
 20
430.0
 30
0.0
 11
375.0
 21
430.0
 31
0.0
  0
LINE
  5
35D7
330
351E
100
AcDbEntity
  8
0
 62
     0
380
     1
100
AcDbLine
 10
377.5
 20
430.0
 30
0.0
 11
377.5
 21
430.0
 31
0.0
  0
LINE
  5
35D8
330
351E
100
AcDbEntity
  8
0
 62
     0
380
     1
100
AcDbLine
 10
380.0
 20
430.0
 30
0.0
 11
380.0
 21
430.0
 31
0.0
  0
LINE
  5
35D9
330
351E
100
AcDbEntity
  8
0
 62
     0
380
     1
100
AcDbLine
 10
382.5
 20
430.0
 30
0.0
 11
382.5
 21
430.0
 31
0.0
  0
LINE
  5
35DA
330
351E
100
AcDbEntity
  8
0
 62
     0
380
     1
100
AcDbLine
 10
385.0
 20
430.0
 30
0.0
 11
385.0
 21
430.0
 31
0.0
  0
LINE
  5
35DB
330
351E
100
AcDbEntity
  8
0
 62
     0
380
     1
100
AcDbLine
 10
387.5
 20
430.0
 30
0.0
 11
387.5
 21
430.0
 31
0.0
  0
LINE
  5
35DC
330
351E
100
AcDbEntity
  8
0
 62
     0
380
     1
100
AcDbLine
 10
390.0
 20
430.0
 30
0.0
 11
390.0
 21
430.0
 31
0.0
  0
LINE
  5
35DD
330
351E
100
AcDbEntity
  8
0
 62
     0
380
     1
100
AcDbLine
 10
392.5
 20
430.0
 30
0.0
 11
392.5
 21
430.0
 31
0.0
  0
LINE
  5
35DE
330
351E
100
AcDbEntity
  8
0
 62
     0
380
     1
100
AcDbLine
 10
395.0
 20
430.0
 30
0.0
 11
395.0
 21
430.0
 31
0.0
  0
LINE
  5
35DF
330
351E
100
AcDbEntity
  8
0
 62
     0
380
     1
100
AcDbLine
 10
397.5
 20
430.0
 30
0.0
 11
397.5
 21
430.0
 31
0.0
  0
LINE
  5
35E0
330
351E
100
AcDbEntity
  8
0
 62
     0
380
     1
100
AcDbLine
 10
400.0
 20
430.0
 30
0.0
 11
400.0
 21
430.0
 31
0.0
  0
LINE
  5
35E1
330
351E
100
AcDbEntity
  8
0
 62
     0
380
     1
100
AcDbLine
 10
402.5
 20
430.0
 30
0.0
 11
402.5
 21
430.0
 31
0.0
  0
LINE
  5
35E2
330
351E
100
AcDbEntity
  8
0
 62
     0
380
     1
100
AcDbLine
 10
405.0
 20
430.0
 30
0.0
 11
405.0
 21
430.0
 31
0.0
  0
LINE
  5
35E3
330
351E
100
AcDbEntity
  8
0
 62
     0
380
     1
100
AcDbLine
 10
407.5
 20
430.0
 30
0.0
 11
407.5
 21
430.0
 31
0.0
  0
LINE
  5
35E4
330
351E
100
AcDbEntity
  8
0
 62
     0
380
     1
100
AcDbLine
 10
410.0
 20
430.0
 30
0.0
 11
410.0
 21
430.0
 31
0.0
  0
LINE
  5
35E5
330
351E
100
AcDbEntity
  8
0
 62
     0
380
     1
100
AcDbLine
 10
412.5
 20
430.0
 30
0.0
 11
412.5
 21
430.0
 31
0.0
  0
LINE
  5
35E6
330
351E
100
AcDbEntity
  8
0
 62
     0
380
     1
100
AcDbLine
 10
415.0
 20
430.0
 30
0.0
 11
415.0
 21
430.0
 31
0.0
  0
LINE
  5
35E7
330
351E
100
AcDbEntity
  8
0
 62
     0
380
     1
100
AcDbLine
 10
417.4999999999999
 20
430.0
 30
0.0
 11
417.4999999999999
 21
430.0
 31
0.0
  0
LINE
  5
35E8
330
351E
100
AcDbEntity
  8
0
 62
     0
380
     1
100
AcDbLine
 10
420.0
 20
430.0
 30
0.0
 11
420.0
 21
430.0
 31
0.0
  0
LINE
  5
35E9
330
351E
100
AcDbEntity
  8
0
 62
     0
380
     1
100
AcDbLine
 10
422.4999999999999
 20
430.0
 30
0.0
 11
422.4999999999999
 21
430.0
 31
0.0
  0
ENDBLK
  5
35EB
330
351E
100
AcDbEntity
  8
0
100
AcDbBlockEnd
  0
BLOCK
  5
360F
330
35EC
100
AcDbEntity
  8
0
 62
     6
 48
10.0
100
AcDbBlockBegin
  2
e140
 70
     0
 10
0.0
 20
0.0
 30
0.0
  3
e140
  1

  0
LINE
  5
35ED
330
35EC
100
AcDbEntity
  8
0
 62
     3
100
AcDbLine
 10
1.761882177941579
 20
146.0000000000004
 30
0.0
 11
25.48733180248865
 21
11.0
 31
0.0
  0
LINE
  5
35EE
330
35EC
100
AcDbEntity
  8
0
 62
     3
100
AcDbLine
 10
-1.761882177942503
 20
146.0000000000001
 30
0.0
 11
-25.48733180248864
 21
11.0
 31
0.0
  0
LINE
  5
35EF
330
35EC
100
AcDbEntity
  8
0
 62
     3
100
AcDbLine
 10
-4.705591908087658
 20
12.70737123184409
 30
0.0
 11
-2.000000000000454
 21
29.0
 31
0.0
  0
LINE
  5
35F0
330
35EC
100
AcDbEntity
  8
0
 62
     3
100
AcDbLine
 10
4.705591908087637
 20
12.70737123184401
 30
0.0
 11
1.999999999999545
 21
29.0
 31
0.0
  0
LINE
  5
35F1
330
35EC
100
AcDbEntity
  8
0
 62
     4
100
AcDbLine
 10
-21.99999999999864
 20
18.45272980605568
 30
0.0
 11
-21.99999999999973
 21
-19.91791965098093
 31
0.0
  0
LINE
  5
35F2
330
35EC
100
AcDbEntity
  8
0
 62
     4
100
AcDbLine
 10
21.99999999999954
 20
18.45272980605341
 30
0.0
 11
21.99999999999954
 21
-19.91791965098093
 31
0.0
  0
LINE
  5
35F3
330
35EC
100
AcDbEntity
  8
0
 62
     3
100
AcDbLine
 10
-32.50000000000046
 20
0.0
 30
0.0
 11
32.50000000000046
 21
0.0
 31
0.0
  0
LINE
  5
35F4
330
35EC
100
AcDbEntity
  8
0
 62
     3
100
AcDbLine
 10
-6.684068191505676
 20
10.99999999999997
 30
0.0
 11
-32.00000000000045
 21
11.0
 31
0.0
  0
LINE
  5
35F5
330
35EC
100
AcDbEntity
  8
0
 62
     3
100
AcDbLine
 10
-32.50000000000046
 20
10.5
 30
0.0
 11
-32.50000000000046
 21
0.0
 31
0.0
  0
ARC
  5
35F6
330
35EC
100
AcDbEntity
  8
0
 62
     3
100
AcDbCircle
 10
-32.00000000000045
 20
10.5
 30
0.0
 40
0.5
100
AcDbArc
 50
90.0
 51
180.0
  0
LINE
  5
35F7
330
35EC
100
AcDbEntity
  8
0
 62
     3
100
AcDbLine
 10
6.684068191505641
 20
10.99999999999997
 30
0.0
 11
32.00000000000045
 21
11.0
 31
0.0
  0
ARC
  5
35F8
330
35EC
100
AcDbEntity
  8
0
 62
     3
100
AcDbCircle
 10
-6.684068191505676
 20
12.99999999999997
 30
0.0
 40
2.0
100
AcDbArc
 50
270.0
 51
351.5866003291716
  0
ARC
  5
35F9
330
35EC
100
AcDbEntity
  8
0
 62
     3
100
AcDbCircle
 10
6.684068191505641
 20
12.99999999999997
 30
0.0
 40
2.0
100
AcDbArc
 50
188.4133996708317
 51
270.0
  0
LINE
  5
35FA
330
35EC
100
AcDbEntity
  8
0
 62
     3
100
AcDbLine
 10
32.50000000000046
 20
10.5
 30
0.0
 11
32.50000000000046
 21
0.0
 31
0.0
  0
ARC
  5
35FB
330
35EC
100
AcDbEntity
  8
0
 62
     3
100
AcDbCircle
 10
32.00000000000045
 20
10.5
 30
0.0
 40
0.5
100
AcDbArc
 50
0.0
 51
90.0
  0
LINE
  5
35FC
330
35EC
100
AcDbEntity
  8
0
 62
     3
100
AcDbLine
 10
1.761882177941579
 20
146.0000000000004
 30
0.0
 11
1.999999999999545
 21
29.0
 31
0.0
  0
LINE
  5
35FD
330
35EC
100
AcDbEntity
  8
0
 62
     3
100
AcDbLine
 10
-1.761882177942503
 20
146.0000000000001
 30
0.0
 11
-2.000000000000454
 21
29.0
 31
0.0
  0
ARC
  5
35FE
330
35EC
100
AcDbEntity
  8
0
 62
     3
100
AcDbCircle
 10
-2.549919279120675
 20
189.2
 30
0.0
 40
0.8
100
AcDbArc
 50
359.9768564758476
 51
90.0
  0
ARC
  5
35FF
330
35EC
100
AcDbEntity
  8
0
 62
     3
100
AcDbCircle
 10
2.54991927911977
 20
189.2
 30
0.0
 40
0.8
100
AcDbArc
 50
90.0
 51
180.0231435241524
  0
LINE
  5
3600
330
35EC
100
AcDbEntity
  8
0
 62
     3
100
AcDbLine
 10
1.749919344383773
 20
189.1996768554512
 30
0.0
 11
1.761882177941579
 21
146.0000000000004
 31
0.0
  0
LINE
  5
3601
330
35EC
100
AcDbEntity
  8
0
 62
     3
100
AcDbLine
 10
-1.749919344384679
 20
189.1996768554512
 30
0.0
 11
-1.761882177942503
 21
146.0000000000001
 31
0.0
  0
ARC
  5
3602
330
35EC
100
AcDbEntity
  8
0
 62
     3
100
AcDbCircle
 10
-0.0000000000004547
 20
198.0
 30
0.0
 40
3.0
100
AcDbArc
 50
0.0
 51
180.0
  0
LINE
  5
3603
330
35EC
100
AcDbEntity
  8
0
 62
     3
100
AcDbLine
 10
-2.549919279120675
 20
190.0
 30
0.0
 11
-6.000000000000454
 21
190.0
 31
0.0
  0
LINE
  5
3604
330
35EC
100
AcDbEntity
  8
0
 62
     3
100
AcDbLine
 10
-5.597271020094954
 20
193.5344394073002
 30
0.0
 11
-3.100682244976724
 21
196.847524613036
 31
0.0
  0
ARC
  5
3605
330
35EC
100
AcDbEntity
  8
0
 62
     3
100
AcDbCircle
 10
-4.000000000000451
 20
192.330809360996
 30
0.0
 40
2.0
100
AcDbArc
 50
142.9999999999953
 51
180.0
  0
LINE
  5
3606
330
35EC
100
AcDbEntity
  8
0
 62
     3
100
AcDbLine
 10
-6.000000000000454
 20
190.0
 30
0.0
 11
-6.000000000000451
 21
192.330809360996
 31
0.0
  0
LINE
  5
3607
330
35EC
100
AcDbEntity
  8
0
 62
     3
100
AcDbLine
 10
-3.000000000000454
 20
197.1484321246121
 30
0.0
 11
-3.000000000000454
 21
198.0
 31
0.0
  0
ARC
  5
3608
330
35EC
100
AcDbEntity
  8
0
 62
     3
100
AcDbCircle
 10
-3.500000000000454
 20
197.1484321246121
 30
0.0
 40
0.5
100
AcDbArc
 50
322.9999999999953
 51
0.0000000000032569
  0
ARC
  5
3609
330
35EC
100
AcDbEntity
  8
0
 62
     3
100
AcDbCircle
 10
3.999999999999545
 20
192.330809360996
 30
0.0
 40
2.0
100
AcDbArc
 50
0.0
 51
37.00000000000466
  0
LINE
  5
360A
330
35EC
100
AcDbEntity
  8
0
 62
     3
100
AcDbLine
 10
2.54991927911977
 20
190.0
 30
0.0
 11
5.999999999999545
 21
190.0
 31
0.0
  0
LINE
  5
360B
330
35EC
100
AcDbEntity
  8
0
 62
     3
100
AcDbLine
 10
5.597271020094048
 20
193.5344394073003
 30
0.0
 11
3.100682244975814
 21
196.847524613036
 31
0.0
  0
ARC
  5
360C
330
35EC
100
AcDbEntity
  8
0
 62
     3
100
AcDbCircle
 10
3.499999999999545
 20
197.1484321246121
 30
0.0
 40
0.5
100
AcDbArc
 50
179.9999999999967
 51
217.0000000000047
  0
LINE
  5
360D
330
35EC
100
AcDbEntity
  8
0
 62
     3
100
AcDbLine
 10
2.999999999999545
 20
197.1484321246121
 30
0.0
 11
2.999999999999545
 21
198.0
 31
0.0
  0
LINE
  5
360E
330
35EC
100
AcDbEntity
  8
0
 62
     3
100
AcDbLine
 10
5.999999999999545
 20
190.0
 30
0.0
 11
5.999999999999545
 21
192.330809360996
 31
0.0
  0
ENDBLK
  5
3610
330
35EC
100
AcDbEntity
  8
0
 62
     6
 48
10.0
100
AcDbBlockEnd
  0
ENDSEC
  0
SECTION
  2
ENTITIES
  0
LINE
  5
1BDB
330
18
100
AcDbEntity
  8
TXT-D
100
AcDbLine
 10
687.0190473212278
 20
1078.126074664378
 30
0.0
 11
672.0777056856324
 21
1078.126074664378
 31
0.0
  0
LINE
  5
1BE1
330
18
100
AcDbEntity
  8
TXT-D
100
AcDbLine
 10
672.0777056856324
 20
813.6079380889139
 30
0.0
 11
672.0777056856324
 21
1078.126074664378
 31
0.0
  0
LINE
  5
1C15
330
18
100
AcDbEntity
  8
TXT-D
100
AcDbLine
 10
729.9081852037337
 20
734.8906214851547
 30
0.0
 11
729.9081852037341
 21
998.9408465496277
 31
0.0
  0
LINE
  5
1C18
330
18
100
AcDbEntity
  8
TXT-D
100
AcDbLine
 10
777.5221357934368
 20
998.9408465496277
 30
0.0
 11
729.9081852037341
 21
998.9408465496277
 31
0.0
  0
LWPOLYLINE
  5
1C21
330
18
100
AcDbEntity
  8
V5
 62
     7
100
AcDbPolyline
 90
       33
 70
     0
 43
0.0
 10
361.5938657690969
 20
803.6787227717914
 42
-0.8518717637873237
 10
368.321728718002
 20
823.9916455027211
 42
-0.3441842485073744
 10
371.6693320700615
 20
820.3810869374414
 10
371.6990374599177
 20
820.0256828171072
 42
0.3077507175483973
 10
374.5441994337444
 20
816.5418505596035
 42
-0.3559174951861054
 10
377.3900222860825
 20
812.3647375788417
 42
-0.2401758746392449
 10
372.1845056918443
 20
804.0106331041075
 42
0.2629884054316376
 10
370.732405162796
 20
801.4408068010581
 10
370.7324051628265
 20
769.7014224622781
 42
0.2931365125316157
 10
371.326705131503
 20
768.7897467069917
 10
371.5909533528501
 20
768.6694862101478
 42
-0.2939859278524366
 10
374.8127175571766
 20
763.6636255005553
 42
0.4142135623730951
 10
378.9127175571766
 20
759.5636255005551
 10
458.6523992928997
 20
759.5636255005551
 42
0.2446984432290329
 10
462.0109226744844
 20
761.3119621115161
 10
464.6763316744844
 20
765.1185611115161
 42
-0.5205670505517518
 10
473.6870041616632
 20
765.1185623696433
 10
476.3524141616634
 20
761.3119633696433
 42
0.2446984432290355
 10
479.710936693582
 20
759.5636271264888
 10
560.6509366935821
 20
759.5636271264888
 42
0.2446984432290357
 10
564.0094592255005
 20
761.3119633696433
 10
566.6748692255006
 20
765.1185623696433
 42
-0.5205670505517466
 10
575.6855417126795
 20
765.1185611115161
 10
578.3509507126795
 20
761.3119621115161
 42
0.2446984432290353
 10
581.7094740942645
 20
759.5636255005551
 10
659.2734980563851
 20
759.5636255005551
 42
0.4142135623731031
 10
663.373398056385
 20
763.6635255005553
 42
-0.2939817751607098
 10
666.5951622619399
 20
768.6694862101478
 10
666.859410483287
 20
768.7897467069917
 42
0.2931365125316157
 10
667.4537104519635
 20
769.7014224622781
 10
667.4537104519919
 20
796.7569916444138
 42
0.2992947414849744
 10
665.642815376848
 20
799.5112664087939
 42
-3.892127811935753
 10
680.0495714219474
 20
800.8901572062011
  0
LINE
  5
1C23
330
18
100
AcDbEntity
  8
TXT-D
100
AcDbLine
 10
188.0952032158768
 20
793.7107201695506
 30
0.0
 11
188.0952032158768
 21
1078.126074664378
 31
0.0
  0
LINE
  5
1CAB
330
18
100
AcDbEntity
  8
TXT-D
100
AcDbLine
 10
370.4196009798147
 20
1078.126074664378
 30
0.0
 11
188.0952032158768
 21
1078.126074664378
 31
0.0
  0
TEXT
  5
1CAC
330
18
100
AcDbEntity
  8
TXT-D
 62
     7
100
AcDbText
 10
382.5403798540778
 20
1072.773195340251
 30
0.0
 40
14.0
  1
Kalzip - částečný profil
  7
ROMANS
100
AcDbText
  0
TEXT
  5
1CAD
330
18
100
AcDbEntity
  8
TXT-D
 62
     7
100
AcDbText
 10
789.0150003043284
 20
932.1412431157154
 30
0.0
 40
14.0
  1
konvexně ohýbaný Kalzip
  7
ROMANS
100
AcDbText
  0
TEXT
  5
1CAE
330
18
100
AcDbEntity
  8
TXT-D
 62
     7
100
AcDbText
 10
382.5403798540778
 20
972.4565932437414
 30
0.0
 40
14.0
  1
vnitřní výztužné oplechování
  7
ROMANS
100
AcDbText
  0
LINE
  5
1CAF
330
18
100
AcDbEntity
  8
TXT-D
100
AcDbLine
 10
370.4196009798147
 20
977.8094725678686
 30
0.0
 11
322.053522477349
 21
977.8094725678686
 31
0.0
  0
LINE
  5
1CB0
330
18
100
AcDbEntity
  8
TXT-D
100
AcDbLine
 10
777.5221357934368
 20
938.4371655165475
 30
0.0
 11
762.1924998670199
 21
938.4371655165477
 31
0.0
  0
ARC
  5
1CB1
330
18
100
AcDbEntity
  8
3D
 62
     7
100
AcDbCircle
 10
507.254395815901
 20
723.0574973241739
 30
0.0
 40
182.1520269202175
100
AcDbArc
 50
101.342364309992
 51
134.8511373162889
  0
ARC
  5
1CB2
330
18
100
AcDbEntity
  8
3D
100
AcDbCircle
 10
547.5603352300006
 20
656.8895336174639
 30
0.0
 40
200.0
100
AcDbArc
 50
108.2264144090285
 51
148.8316142067834
  0
ARC
  5
1CB3
330
18
100
AcDbEntity
  8
3D
100
AcDbCircle
 10
542.7133684264325
 20
666.69183047828
 30
0.0
 40
200.0
100
AcDbArc
 50
108.3453762262689
 51
149.1961769761268
  0
ARC
  5
1CB4
330
18
100
AcDbEntity
  8
3D
 62
     7
100
AcDbCircle
 10
524.8125598944852
 20
699.5413508288026
 30
0.0
 40
180.0270487267946
100
AcDbArc
 50
103.105824685985
 51
104.4910823197204
  0
ARC
  5
1CB5
330
18
100
AcDbEntity
  8
3D
 62
     7
100
AcDbCircle
 10
829.8125598944855
 20
699.5413508288024
 30
0.0
 40
180.0270487267949
100
AcDbArc
 50
103.0722573765128
 51
104.4910823197206
  0
ARC
  5
1CB6
330
18
100
AcDbEntity
  8
3D
 62
     7
100
AcDbCircle
 10
635.6652401263255
 20
662.1643441475571
 30
0.0
 40
200.0
100
AcDbArc
 50
107.2544393117277
 51
113.4730979984762
  0
ARC
  5
1CB7
330
18
100
AcDbEntity
  8
3D
100
AcDbCircle
 10
649.2058998832561
 20
656.8895336174639
 30
0.0
 40
200.0
100
AcDbArc
 50
108.4162956181872
 51
148.9609360389053
  0
ARC
  5
1CB8
330
18
100
AcDbEntity
  8
3D
 62
     7
100
AcDbCircle
 10
737.616740374841
 20
662.1643441475571
 30
0.0
 40
200.0
100
AcDbArc
 50
107.2544393117277
 51
113.473096829071
  0
ARC
  5
1CB9
330
18
100
AcDbEntity
  8
3D
100
AcDbCircle
 10
954.2058998832562
 20
656.8895336174639
 30
0.0
 40
200.0
100
AcDbArc
 50
108.4162956181872
 51
148.9609360389053
  0
ARC
  5
1CBA
330
18
100
AcDbEntity
  8
3D
 62
     7
100
AcDbCircle
 10
940.6652401263256
 20
662.1643441475571
 30
0.0
 40
200.0
100
AcDbArc
 50
107.2544393117277
 51
113.4730979984762
  0
ARC
  5
1CBB
330
18
100
AcDbEntity
  8
3D
 62
     7
100
AcDbCircle
 10
432.7025000037247
 20
662.1643441475571
 30
0.0
 40
200.0
100
AcDbArc
 50
107.2544393117277
 51
113.473096829071
  0
LWPOLYLINE
  5
1CBC
330
18
100
AcDbEntity
  8
V5
 62
     7
100
AcDbPolyline
 90
        2
 70
     0
 43
0.0
 10
372.9692544550404
 20
853.035869986852
 42
-0.2897081814176186
 10
378.7885400906209
 20
852.1926390320574
  0
ARC
  5
1CBD
330
18
100
AcDbEntity
  8
3D
100
AcDbCircle
 10
446.2431597606553
 20
656.8895336174639
 30
0.0
 40
200.0
100
AcDbArc
 50
112.8363649585228
 51
148.9659644223489
  0
LWPOLYLINE
  5
1CBE
330
18
100
AcDbEntity
  8
V5
 62
     7
100
AcDbPolyline
 90
        2
 70
     0
 43
0.0
 10
471.4018221644884
 20
901.7493004421035
 42
-0.8576350602298967
 10
483.9913688768515
 20
874.8792207747488
  0
LWPOLYLINE
  5
1CBF
330
18
100
AcDbEntity
  8
V5
 62
     7
100
AcDbPolyline
 90
        7
 70
     0
 43
0.0
 10
479.7645146781646
 20
873.841126776645
 10
479.7645146781937
 20
855.7515805782953
 42
0.2931365125316157
 10
480.3588146468702
 20
854.839904823009
 10
480.6230628682173
 20
854.719644326165
 42
-0.2939859278524366
 10
483.8448270725439
 20
849.7137836165725
 42
0.4142135623730951
 10
487.9448270725439
 20
845.6137836165723
 10
556.0015522974025
 20
845.6137836165723
 42
0.259329767263718
  0
LWPOLYLINE
  5
1CC0
330
18
100
AcDbEntity
  8
V5
 62
     7
100
AcDbPolyline
 90
        5
 70
     0
 43
0.0
 10
576.0695988013913
 20
853.0788787830054
 42
-0.3538495221949612
 10
582.7191136770304
 20
851.1687204856604
 10
585.3845236770306
 20
847.3621214856605
 42
0.2446984432290355
 10
588.7430462089493
 20
845.613785242506
 10
657.953056290116
 20
845.613785242506
 42
0.2446984432290357
  0
LWPOLYLINE
  5
1CC1
330
18
100
AcDbEntity
  8
V5
 62
     7
100
AcDbPolyline
 90
        2
 70
     0
 43
0.0
 10
678.2243490027735
 20
853.1422063387211
 42
-0.2761387653262642
 10
683.7885400906209
 20
852.1926390320574
  0
ARC
  5
1CC2
330
18
100
AcDbEntity
  8
3D
100
AcDbCircle
 10
751.1574001317716
 20
656.8895336174639
 30
0.0
 40
200.0
100
AcDbArc
 50
112.7948032469994
 51
148.9609360389053
  0
ARC
  5
1CC3
330
18
100
AcDbEntity
  8
3D
100
AcDbCircle
 10
847.7133684264325
 20
666.69183047828
 30
0.0
 40
200.0
100
AcDbArc
 50
108.3453762262689
 51
149.1961769761268
  0
ARC
  5
1CC4
330
18
100
AcDbEntity
  8
3D
100
AcDbCircle
 10
852.5603352300006
 20
656.8895336174639
 30
0.0
 40
200.0
100
AcDbArc
 50
108.2264144090285
 51
148.8316142067834
  0
LWPOLYLINE
  5
1CC5
330
18
100
AcDbEntity
  8
V5
 62
     7
100
AcDbPolyline
 90
        7
 70
     0
 43
0.0
 10
784.7645146781644
 20
873.841126776645
 10
784.7645146781936
 20
855.7515805782953
 42
0.2931365125316157
 10
785.3588146468702
 20
854.839904823009
 10
785.6230628682173
 20
854.719644326165
 42
-0.2939859278524366
 10
788.8448270725437
 20
849.7137836165725
 42
0.4142135623730951
 10
792.9448270725439
 20
845.6137836165723
 10
861.0015522974014
 20
845.6137836165723
 42
0.2593297672637184
  0
ARC
  5
1CC6
330
18
100
AcDbEntity
  8
3D
100
AcDbCircle
 10
1042.19723810496
 20
658.5493970770682
 30
0.0
 40
200.0
100
AcDbArc
 50
110.8495011302123
 51
149.6645592908309
  0
LINE
  5
1CC7
330
18
100
AcDbEntity
  8
TXT-D
100
AcDbLine
 10
322.0535224773489
 20
787.4434030282839
 30
0.0
 11
322.053522477349
 21
977.8094725678686
 31
0.0
  0
LINE
  5
1CC8
330
18
100
AcDbEntity
  8
TXT-D
100
AcDbLine
 10
762.1924998670199
 20
797.1392493883565
 30
0.0
 11
762.1924998670199
 21
938.4371655165477
 31
0.0
  0
TEXT
  5
1CCC
330
18
100
AcDbEntity
  8
TXT-D
 62
     7
100
AcDbText
 10
382.5403798540778
 20
1045.54728810134
 30
0.0
 40
14.0
  1
- ohýbaný
  7
ROMANS
100
AcDbText
  0
ARC
  5
1CCD
330
18
100
AcDbEntity
  8
3D
  6
VERDECKT
100
AcDbCircle
 10
345.6787035634006
 20
648.2269789478602
 30
0.0
 40
200.0
100
AcDbArc
 50
135.8864889387717
 51
146.2213773477742
  0
ARC
  5
1CCE
330
18
100
AcDbEntity
  8
3D
  6
VERDECKT
100
AcDbCircle
 10
494.2901472517251
 20
653.9623784878688
 30
0.0
 40
200.0
100
AcDbArc
 50
138.1328945439984
 51
148.1291571177339
  0
LINE
  5
1CCF
330
18
100
AcDbEntity
  8
V25
  6
VERDECKT
100
AcDbLine
 10
202.0862689915901
 20
787.4434030282839
 30
0.0
 11
345.3511795916762
 21
787.4434030282839
 31
0.0
  0
LINE
  5
1CD0
330
18
100
AcDbEntity
  8
V25
  6
VERDECKT
100
AcDbLine
 10
345.3511795916761
 20
787.4434030282836
 30
0.0
 11
345.3511795916761
 21
759.5636255005549
 31
0.0
  0
LWPOLYLINE
  5
1D2C
330
18
100
AcDbEntity
  8
V5
 62
     7
100
AcDbPolyline
 90
       21
 70
     0
 43
0.0
 10
666.5938657690968
 20
803.6787227717914
 42
-0.8518717637873237
 10
673.3217287180019
 20
823.9916455027211
 42
-0.3441842485073744
 10
676.6693320700615
 20
820.3810869374414
 10
676.6990374599177
 20
820.0256828171072
 42
0.3077507175483973
 10
679.5441994337444
 20
816.5418505596035
 42
-0.3559174951861054
 10
682.3900222860824
 20
812.3647375788417
 42
-0.2401758746392449
 10
677.1845056918443
 20
804.0106331041075
 42
0.2629884054316376
 10
675.732405162796
 20
801.4408068010581
 10
675.7324051628264
 20
769.7014224622781
 42
0.2931365125316157
 10
676.326705131503
 20
768.7897467069917
 10
676.5909533528501
 20
768.6694862101478
 42
-0.2939859278524366
 10
679.8127175571766
 20
763.6636255005553
 42
0.4142135623730951
 10
683.9127175571766
 20
759.5636255005551
 10
763.6523992928998
 20
759.5636255005551
 42
0.2446984432290329
 10
767.0109226744845
 20
761.3119621115161
 10
769.6763316744844
 20
765.1185611115161
 42
-0.5205670505517518
 10
778.6870041616631
 20
765.1185623696433
 10
781.3524141616634
 20
761.3119633696433
 42
0.2446984432290355
 10
784.710936693582
 20
759.5636271264888
 10
869.7998160864941
 20
759.5636271264887
 10
869.7998160864944
 20
652.4435377272084
  0
ARC
  5
1D30
330
18
100
AcDbEntity
  8
3D
100
AcDbCircle
 10
432.7025000037247
 20
662.1643441475571
 30
0.0
 40
200.0
100
AcDbArc
 50
113.473096829071
 51
150.2850061802705
  0
ARC
  5
1D31
330
18
100
AcDbEntity
  8
3D
 62
     7
100
AcDbCircle
 10
507.254395815901
 20
723.0574973241739
 30
0.0
 40
182.1520269202175
100
AcDbArc
 50
134.8511373162889
 51
147.4936160501302
  0
ARC
  5
1D32
330
18
100
AcDbEntity
  8
3D
100
AcDbCircle
 10
524.8125598944852
 20
699.5413508288026
 30
0.0
 40
180.0270487267946
100
AcDbArc
 50
104.4910823197204
 51
143.9163755925965
  0
ARC
  5
1D33
330
18
100
AcDbEntity
  8
3D
100
AcDbCircle
 10
635.6652401263255
 20
662.1643441475571
 30
0.0
 40
200.0
100
AcDbArc
 50
113.4730979984762
 51
150.213020333402
  0
ARC
  5
1D34
330
18
100
AcDbEntity
  8
3D
100
AcDbCircle
 10
737.616740374841
 20
662.1643441475571
 30
0.0
 40
200.0
100
AcDbArc
 50
113.473096829071
 51
150.213020333402
  0
ARC
  5
1D35
330
18
100
AcDbEntity
  8
3D
 62
     7
100
AcDbCircle
 10
812.254395815901
 20
723.0574973241739
 30
0.0
 40
182.1520269202175
100
AcDbArc
 50
101.6218930860454
 51
134.8511373162889
  0
LWPOLYLINE
  5
1D36
330
18
100
AcDbEntity
  8
V5
 62
     7
100
AcDbPolyline
 90
        2
 70
     0
 43
0.0
 10
775.5594677166314
 20
901.4751062167187
 42
-0.8803442790059378
 10
789.0816809373147
 20
874.9403153222184
  0
ARC
  5
1D37
330
18
100
AcDbEntity
  8
3D
100
AcDbCircle
 10
829.8125598944855
 20
699.5413508288024
 30
0.0
 40
180.0270487267949
100
AcDbArc
 50
104.4910823197206
 51
143.9163755925965
  0
ARC
  5
1D38
330
18
100
AcDbEntity
  8
3D
 62
     7
100
AcDbCircle
 10
812.254395815901
 20
723.0574973241739
 30
0.0
 40
182.1520269202175
100
AcDbArc
 50
134.8511373162889
 51
147.4936160501302
  0
ARC
  5
1D39
330
18
100
AcDbEntity
  8
3D
100
AcDbCircle
 10
940.6652401263256
 20
662.1643441475571
 30
0.0
 40
200.0
100
AcDbArc
 50
113.4730979984762
 51
150.213020333402
  0
ARC
  5
1D61
330
18
100
AcDbEntity
  8
V5
100
AcDbCircle
 10
494.2901472517251
 20
653.9623784878688
 30
0.0
 40
200.0
100
AcDbArc
 50
148.1291571177339
 51
150.4153680910823
  0
LWPOLYLINE
  5
1DC6
330
18
100
AcDbEntity
  8
V5
 62
     7
100
AcDbPolyline
 90
        6
 70
     0
 43
0.0
 10
881.3350439731795
 20
853.1832233684458
 42
-0.3393260131569857
 10
887.7191136770303
 20
851.1687204856604
 10
890.3845236770306
 20
847.3621214856605
 42
0.2446984432290355
 10
893.7430462089492
 20
845.613785242506
 10
971.0141806100082
 20
845.613785242506
 10
971.1384370640418
 20
722.0402257433371
  0
ARC
  5
1DFF
330
18
100
AcDbEntity
  8
V5
  6
Continuous
100
AcDbCircle
 10
345.6787035634006
 20
648.2269789478602
 30
0.0
 40
200.0
100
AcDbArc
 50
146.2213773477742
 51
148.5075888696075
  0
LINE
  5
1E01
330
18
100
AcDbEntity
  8
TXT-D
100
AcDbLine
 10
231.3238649561144
 20
747.8078777387511
 30
0.0
 11
231.3238649561144
 21
1014.982358783926
 31
0.0
  0
TEXT
  5
1E02
330
18
100
AcDbEntity
  8
TXT-D
 62
     7
100
AcDbText
 10
381.9124654907064
 20
1008.877529634758
 30
0.0
 40
14.0
  1
perforované uzavírací oplech.
  7
ROMANS
100
AcDbText
  0
LINE
  5
1E03
330
18
100
AcDbEntity
  8
TXT-D
100
AcDbLine
 10
370.4196009798147
 20
1014.982358783926
 30
0.0
 11
231.3238649561144
 21
1014.982358783926
 31
0.0
  0
LWPOLYLINE
  5
1E0F
330
18
100
AcDbEntity
  8
V5
 62
     7
100
AcDbPolyline
 90
       16
 70
     0
 43
0.0
 10
173.0114538993846
 20
755.5698137647071
 10
177.0052672611654
 20
759.5636271264884
 10
255.6509366935821
 20
759.5636271264888
 42
0.2446984432290357
 10
259.0094592255006
 20
761.3119633696433
 10
261.6748692255006
 20
765.1185623696433
 42
-0.5205670505517466
 10
270.6855417126795
 20
765.1185611115161
 10
273.3509507126795
 20
761.3119621115161
 42
0.2446984432290353
 10
276.7094740942645
 20
759.5636255005551
 10
354.2734980563852
 20
759.5636255005551
 42
0.4142135623731031
 10
358.3733980563851
 20
763.6635255005553
 42
-0.2939817751607098
 10
361.5951622619399
 20
768.6694862101478
 10
361.859410483287
 20
768.7897467069917
 42
0.2931365125316157
 10
362.4537104519635
 20
769.7014224622781
 10
362.4537104519919
 20
796.7569916444138
 42
0.2992947414849744
 10
360.642815376848
 20
799.5112664087939
 42
-3.892127811935753
 10
375.0495714219475
 20
800.8901572062011
  0
LWPOLYLINE
  5
1E4D
330
18
100
AcDbEntity
  8
V5
 62
     7
100
AcDbPolyline
 90
        2
 70
     0
 43
0.0
 10
273.310596649695
 20
846.0182259141168
 10
353.9767090622064
 20
846.0182259141173
  0
LWPOLYLINE
  5
23CF
330
18
100
AcDbEntity
  8
V35
100
AcDbPolyline
 90
        2
 70
     1
 43
2.9
 10
320.503522477349
 20
787.4434030282839
 42
1.0
 10
323.6035224773489
 20
787.4434030282839
 42
1.0
  0
LWPOLYLINE
  5
23D0
330
18
100
AcDbEntity
  8
V35
100
AcDbPolyline
 90
        2
 70
     1
 43
2.9
 10
760.6424998670199
 20
797.1392493883565
 42
1.0
 10
763.7424998670199
 20
797.1392493883565
 42
1.0
  0
LWPOLYLINE
  5
23D1
330
18
100
AcDbEntity
  8
V35
100
AcDbPolyline
 90
        2
 70
     1
 43
2.9
 10
670.5277056856324
 20
813.6079380889139
 42
1.0
 10
673.6277056856323
 20
813.6079380889139
 42
1.0
  0
LWPOLYLINE
  5
23D2
330
18
100
AcDbEntity
  8
V35
100
AcDbPolyline
 90
        2
 70
     1
 43
2.9
 10
728.3115589112464
 20
734.8906214851547
 42
1.0
 10
731.4115589112462
 20
734.8906214851547
 42
1.0
  0
ARC
  5
2D3D
330
18
100
AcDbEntity
  8
ISO10TES
100
AcDbCircle
 10
306.1255771043188
 20
736.7718567084129
 30
0.0
 40
9.331199999999441
100
AcDbArc
 50
270.0
 51
0.0
  0
ARC
  5
2D3E
330
18
100
AcDbEntity
  8
V25
 48
5.0
100
AcDbCircle
 10
435.1574306440795
 20
531.2161477241227
 30
0.0
 40
283.9370481377341
100
AcDbArc
 50
135.3165059624181
 51
136.2262748652135
  0
LINE
  5
2D3F
330
18
100
AcDbEntity
  8
ISO10TES
100
AcDbLine
 10
306.1255790068342
 20
727.4406567084131
 30
0.0
 11
250.1383771043206
 21
736.7718567084129
 31
0.0
  0
INSERT
  5
2D40
330
18
100
AcDbEntity
  8
TXT-D
100
AcDbBlockReference
  2
wädä
 10
315.4584981670305
 20
718.1094571842179
 30
0.0
 41
1.079999999999927
 42
1.079999999999927
 43
1.079999999999927
  0
LWPOLYLINE
  5
2D42
330
18
100
AcDbEntity
  8
V30
  6
VERDECKT
 48
2.0
100
AcDbPolyline
 90
        3
 70
     0
 43
1.5
 10
239.9372097290373
 20
747.8078777387511
 10
216.6091621936123
 20
747.8078777387511
 10
216.6091621936123
 20
684.415842487632
  0
ARC
  5
2D43
330
18
100
AcDbEntity
  8
V5
  6
PUNKT
 48
0.05
100
AcDbCircle
 10
209.5963407420645
 20
711.8722447736768
 30
0.0
 40
24.5943124524506
100
AcDbArc
 50
0.0
 51
180.0
  0
LINE
  5
2D44
330
18
100
AcDbEntity
  8
0
100
AcDbLine
 10
219.3674339408619
 20
257.0503749753091
 30
0.0
 11
219.3674339408622
 21
715.7559120785712
 31
0.0
  0
LWPOLYLINE
  5
2D45
330
18
100
AcDbEntity
  8
0
100
AcDbPolyline
 90
       18
 70
     0
 43
0.0
 10
207.3395490503862
 20
710.3145564114129
 42
0.2243326451183195
 10
198.3395490503862
 20
691.264556411413
 42
0.2243326451183195
 10
207.3395490503862
 20
672.2145564114129
 42
-0.4724409448818896
 10
207.3395490503862
 20
634.1145564114131
 42
0.2243326451183194
 10
198.3395490503862
 20
615.0645564114129
 42
0.2243326451183195
 10
207.3395490503862
 20
596.0145564114129
 42
-0.4724409448818896
 10
207.3395490503862
 20
557.914556411413
 42
0.2243326451183196
 10
198.3395490503862
 20
538.864556411413
 42
0.2243326451183195
 10
207.3395490503862
 20
519.8145564114131
 42
-0.4724409448818895
 10
207.3395490503862
 20
481.7145564114131
 42
0.2243326451183194
 10
198.3395490503862
 20
462.664556411413
 42
0.2243326451183195
 10
207.3395490503862
 20
443.6145564114131
 42
-0.4724409448818895
 10
207.3395490503862
 20
405.514556411413
 42
0.2243326451183194
 10
198.3395490503862
 20
386.464556411413
 42
0.2243326451183195
 10
207.3395490503862
 20
367.4145564114131
 42
-0.4724409448818895
 10
207.3395490503862
 20
329.314556411413
 42
0.2243326451183196
 10
198.3395490503862
 20
310.2645564114131
 42
0.1425995398918649
 10
202.1930553095617
 20
297.0276741509005
 42
0.1425995398918649
  0
LINE
  5
2D46
330
18
100
AcDbEntity
  8
V25
 48
5.0
100
AcDbLine
 10
222.3113157345335
 20
257.0503749753091
 30
0.0
 11
222.3113157345335
 21
719.1437366329424
 31
0.0
  0
LINE
  5
2D47
330
18
100
AcDbEntity
  8
V25
  6
VERDECKTX2
 48
5.0
100
AcDbLine
 10
209.7688106147971
 20
696.3866673188361
 30
0.0
 11
228.5673244157197
 21
696.3866673188361
 31
0.0
  0
LINE
  5
2D49
330
18
100
AcDbEntity
  8
V5
  6
PUNKT
 48
0.05
100
AcDbLine
 10
185.0020282896139
 20
711.8722447736768
 30
0.0
 11
185.0020282896139
 21
674.0382441649519
 31
0.0
  0
INSERT
  5
2D4A
330
18
100
AcDbEntity
  8
TXT-D
100
AcDbBlockReference
  2
wädä
 10
315.4619402924552
 20
680.7846568674847
 30
0.0
 41
1.079999999999927
 42
1.079999999999927
 43
1.079999999999927
  0
INSERT
  5
2D4B
330
18
100
AcDbEntity
  8
TXT-D
100
AcDbBlockReference
  2
wädä
 10
315.4602192297427
 20
699.4470570258513
 30
0.0
 41
1.079999999999927
 42
1.079999999999927
 43
1.079999999999927
  0
LINE
  5
2D4D
330
18
100
AcDbEntity
  8
V25
 48
5.0
100
AcDbLine
 10
222.3113157345335
 20
719.1437366329424
 30
0.0
 11
248.3674339408622
 21
719.1437366329424
 31
0.0
  0
ARC
  5
2D4E
330
18
100
AcDbEntity
  8
V25
 48
5.0
100
AcDbCircle
 10
435.1574306440795
 20
531.2161477241227
 30
0.0
 40
283.9370481377341
100
AcDbArc
 50
136.822463697577
 51
139.4635272855817
  0
LINE
  5
2D4F
330
18
100
AcDbEntity
  8
V5
  6
PUNKT
 48
0.05
100
AcDbLine
 10
234.1906531945151
 20
711.8722447736768
 30
0.0
 11
234.1906531945151
 21
683.2109351822801
 31
0.0
  0
LWPOLYLINE
  5
2D50
330
18
100
AcDbEntity
  8
ISO10TES
100
AcDbPolyline
 90
        2
 70
     0
 43
0.0
 10
250.1383771043208
 20
736.7718567084128
 10
306.1255790068342
 20
746.1030567084121
  0
ARC
  5
2D51
330
18
100
AcDbEntity
  8
ISO10TES
100
AcDbCircle
 10
250.1383771043208
 20
746.1030567084123
 30
0.0
 40
9.331199999999618
100
AcDbArc
 50
134.9748736698157
 51
270.0
  0
LWPOLYLINE
  5
2D53
330
18
100
AcDbEntity
  8
ISO10TES
100
AcDbPolyline
 90
        2
 70
     0
 43
0.0
 10
306.1255771043186
 20
746.1030567084123
 42
-0.4142135623730951
 10
315.4567771043182
 20
736.7718567084128
 42
-0.4142135623730951
  0
LINE
  5
2D54
330
18
100
AcDbEntity
  8
ISO10TES
100
AcDbLine
 10
306.1255790068342
 20
746.1030567084121
 30
0.0
 11
266.5192914710301
 21
752.7041044067342
 31
0.0
  0
LINE
  5
2D55
330
18
100
AcDbEntity
  8
V5
100
AcDbLine
 10
162.0522582468175
 20
756.5108880434247
 30
0.0
 11
162.0522582468175
 21
673.3948245915121
 31
0.0
  0
LINE
  5
2D56
330
18
100
AcDbEntity
  8
V25
  6
VERDECKT
 48
4.0
100
AcDbLine
 10
248.3674339408619
 20
257.0503749753091
 30
0.0
 11
248.3674339408622
 21
719.0066646947944
 31
0.0
  0
LINE
  5
2D57
330
18
100
AcDbEntity
  8
V25
  6
VERDECKTX2
 48
5.0
100
AcDbLine
 10
209.7688106147971
 20
577.6435263744851
 30
0.0
 11
228.5673244157197
 21
577.6435263744851
 31
0.0
  0
LWPOLYLINE
  5
2D58
330
18
100
AcDbEntity
  8
V25
  6
VERDECKTX2
 48
5.0
100
AcDbPolyline
 90
        3
 70
     1
 43
0.0
 10
212.7030670546712
 20
579.0577399368583
 10
212.7030670546712
 20
576.2293128121121
 10
214.1172806170443
 20
577.6435263744851
  0
INSERT
  5
2D59
330
18
100
AcDbEntity
  8
TXT-D
100
AcDbBlockReference
  2
wädä
 10
315.4653862229204
 20
531.4854578191034
 30
0.0
 41
1.079999999999927
 42
1.079999999999927
 43
1.079999999999927
  0
INSERT
  5
2D5A
330
18
100
AcDbEntity
  8
TXT-D
100
AcDbBlockReference
  2
wädä
 10
315.4653824178797
 20
643.4598571849233
 30
0.0
 41
1.079999999999927
 42
1.079999999999927
 43
1.079999999999927
  0
INSERT
  5
2D5B
330
18
100
AcDbEntity
  8
TXT-D
100
AcDbBlockReference
  2
wädä
 10
315.4636613551675
 20
662.1222573432898
 30
0.0
 41
1.079999999999927
 42
1.079999999999927
 43
1.079999999999927
  0
INSERT
  5
2D5C
330
18
100
AcDbEntity
  8
TXT-D
100
AcDbBlockReference
  2
wädä
 10
315.4653843204
 20
550.1478575020167
 30
0.0
 41
1.079999999999927
 42
1.079999999999927
 43
1.079999999999927
  0
INSERT
  5
2D5D
330
18
100
AcDbEntity
  8
TXT-D
100
AcDbBlockReference
  2
wädä
 10
315.4653862229204
 20
568.8102571849283
 30
0.0
 41
1.079999999999927
 42
1.079999999999927
 43
1.079999999999927
  0
INSERT
  5
2D5E
330
18
100
AcDbEntity
  8
TXT-D
100
AcDbBlockReference
  2
wädä
 10
315.4653862229204
 20
587.4726571849266
 30
0.0
 41
1.079999999999927
 42
1.079999999999927
 43
1.079999999999927
  0
INSERT
  5
2D5F
330
18
100
AcDbEntity
  8
TXT-D
100
AcDbBlockReference
  2
wädä
 10
315.4653862229204
 20
606.135057184925
 30
0.0
 41
1.079999999999927
 42
1.079999999999927
 43
1.079999999999927
  0
INSERT
  5
2D60
330
18
100
AcDbEntity
  8
TXT-D
100
AcDbBlockReference
  2
wädä
 10
315.4653843204
 20
624.7974575020101
 30
0.0
 41
1.079999999999927
 42
1.079999999999927
 43
1.079999999999927
  0
LINE
  5
2D62
330
18
100
AcDbEntity
  8
ISO10TES
100
AcDbLine
 10
306.1341881254359
 20
447.5046578191035
 30
0.0
 11
250.1469862229203
 21
456.8358578191036
 31
0.0
  0
LWPOLYLINE
  5
2D63
330
18
100
AcDbEntity
  8
ISO10TES
100
AcDbPolyline
 90
        2
 70
     0
 43
0.0
 10
250.1469862229203
 20
438.1734578191036
 10
306.1341881254359
 20
447.5046578191035
  0
LWPOLYLINE
  5
2D67
330
18
100
AcDbEntity
  8
ISO10TES
100
AcDbPolyline
 90
        2
 70
     0
 43
0.0
 10
250.1469862229203
 20
419.5110578191036
 10
305.6538069563905
 20
428.7621942936499
  0
LINE
  5
2D68
330
18
100
AcDbEntity
  8
ISO10TES
100
AcDbLine
 10
305.6538069563905
 20
428.9223213445572
 30
0.0
 11
250.1469862229203
 21
438.1734578191036
 31
0.0
  0
LINE
  5
2D69
330
18
100
AcDbEntity
  8
ISO10TES
100
AcDbLine
 10
305.6538069563905
 20
428.9223213445573
 30
0.0
 11
250.1469862229203
 21
438.1734578191039
 31
0.0
  0
ARC
  5
2D6A
330
18
100
AcDbEntity
  8
ISO10TES
100
AcDbCircle
 10
250.1469862229203
 20
428.8422578191037
 30
0.0
 40
9.331200000000002
100
AcDbArc
 50
180.0
 51
270.0
  0
ARC
  5
2D6B
330
18
100
AcDbEntity
  8
ISO10TES
100
AcDbCircle
 10
250.1469862229203
 20
447.5046578191036
 30
0.0
 40
9.331200000000002
100
AcDbArc
 50
180.0
 51
270.0
  0
ARC
  5
2D6C
330
18
100
AcDbEntity
  8
ISO10TES
100
AcDbCircle
 10
250.1469862229203
 20
447.5046578191036
 30
0.0
 40
9.331200000000002
100
AcDbArc
 50
90.0
 51
180.0
  0
ARC
  5
2D6D
330
18
100
AcDbEntity
  8
ISO10TES
100
AcDbCircle
 10
250.1469862229203
 20
428.8422578191037
 30
0.0
 40
9.331200000000002
100
AcDbArc
 50
90.0
 51
180.0
  0
LWPOLYLINE
  5
2D6F
330
18
100
AcDbEntity
  8
V25
  6
VERDECKTX2
 48
5.0
100
AcDbPolyline
 90
        3
 70
     1
 43
0.0
 10
212.7030670546712
 20
425.2998000107133
 10
212.7030670546712
 20
422.4713728859671
 10
214.1172806170443
 20
423.8855864483402
  0
LINE
  5
2D70
330
18
100
AcDbEntity
  8
V25
  6
VERDECKTX2
 48
5.0
100
AcDbLine
 10
209.7688106147971
 20
423.8855864483402
 30
0.0
 11
228.5673244157197
 21
423.8855864483402
 31
0.0
  0
LINE
  5
2D71
330
18
100
AcDbEntity
  8
V25
  6
VERDECKT
 62
     6
 48
1.8
100
AcDbLine
 10
230.4139633293191
 20
365.9286928876765
 30
0.0
 11
230.4139633293191
 21
330.9286928876768
 31
0.0
  0
INSERT
  5
2D73
330
18
100
AcDbEntity
  8
TXT-D
100
AcDbBlockReference
  2
wädä
 10
315.4653862229204
 20
326.1990578191042
 30
0.0
 41
1.079999999999927
 42
1.079999999999927
 43
1.079999999999927
  0
LINE
  5
2D77
330
18
100
AcDbEntity
  8
V25
 62
     6
 48
5.0
100
AcDbLine
 10
259.4139633293191
 20
303.4286928876765
 30
0.0
 11
320.4139633293191
 21
303.4286928876765
 31
0.0
  0
LINE
  5
2D79
330
18
100
AcDbEntity
  8
V25
 62
     6
 48
5.0
100
AcDbLine
 10
230.4139633293191
 20
330.9286928876768
 30
0.0
 11
283.4139633293191
 21
330.9286928876766
 31
0.0
  0
LINE
  5
2D7A
330
18
100
AcDbEntity
  8
V25
  6
VERDECKT
 62
     6
 48
1.8
100
AcDbLine
 10
230.4139633293191
 20
303.4286928876768
 30
0.0
 11
259.4139633293191
 21
303.4286928876768
 31
0.0
  0
LINE
  5
2D7B
330
18
100
AcDbEntity
  8
V25
 62
     6
 48
5.0
100
AcDbLine
 10
230.4139633293191
 20
315.9286928876765
 30
0.0
 11
283.4139633293191
 21
315.9286928876768
 31
0.0
  0
CIRCLE
  5
2D7C
330
18
100
AcDbEntity
  8
V25
 62
     6
 48
5.0
100
AcDbCircle
 10
239.9139633293192
 20
309.6786928876768
 30
0.0
 40
3.0
  0
LINE
  5
2D7D
330
18
100
AcDbEntity
  8
V25
  6
VERDECKT
 62
     6
 48
1.8
100
AcDbLine
 10
230.4139633293191
 20
315.9286928876765
 30
0.0
 11
230.4139633293191
 21
303.4286928876768
 31
0.0
  0
LINE
  5
2D7E
330
18
100
AcDbEntity
  8
V25
 62
     6
 48
5.0
100
AcDbLine
 10
231.6216752148157
 20
330.9286928876768
 30
0.0
 11
231.6216752148157
 21
315.9286928876768
 31
0.0
  0
LWPOLYLINE
  5
2D7F
330
18
100
AcDbEntity
  8
V25
 62
     6
 48
5.0
100
AcDbPolyline
 90
        4
 70
     1
 43
0.0
 10
236.9139633293191
 20
353.4286928876765
 10
236.9139633293191
 20
343.4286928876766
 42
0.9999999999999998
 10
242.9139633293191
 20
343.4286928876766
 10
242.9139633293191
 20
353.4286928876765
 42
0.9999999999999998
  0
LINE
  5
2D80
330
18
100
AcDbEntity
  8
V25
 62
     6
 48
5.0
100
AcDbLine
 10
283.4139633293191
 20
330.9286928876766
 30
0.0
 11
283.4139633293191
 21
315.9286928876765
 31
0.0
  0
LINE
  5
2D81
330
18
100
AcDbEntity
  8
V25
 62
     6
 48
5.0
100
AcDbLine
 10
259.4139633293191
 20
393.4286928876768
 30
0.0
 11
320.4139633293191
 21
393.4286928876768
 31
0.0
  0
INSERT
  5
2D82
330
18
100
AcDbEntity
  8
TXT-D
100
AcDbBlockReference
  2
wädä
 10
315.4653862229204
 20
363.523857819104
 30
0.0
 41
1.079999999999927
 42
1.079999999999927
 43
1.079999999999927
  0
INSERT
  5
2D83
330
18
100
AcDbEntity
  8
TXT-D
100
AcDbBlockReference
  2
wädä
 10
315.4653862229204
 20
344.8614578191041
 30
0.0
 41
1.079999999999927
 42
1.079999999999927
 43
1.079999999999927
  0
LINE
  5
2D84
330
18
100
AcDbEntity
  8
V25
  6
VERDECKT
 62
     6
 48
1.8
100
AcDbLine
 10
230.4139633293191
 20
393.4286928876768
 30
0.0
 11
259.4139633293191
 21
393.4286928876768
 31
0.0
  0
LINE
  5
2D85
330
18
100
AcDbEntity
  8
V25
 62
     6
 48
5.0
100
AcDbLine
 10
230.4139633293191
 20
380.9286928876768
 30
0.0
 11
283.4139633293191
 21
380.9286928876766
 31
0.0
  0
LINE
  5
2D86
330
18
100
AcDbEntity
  8
V25
 62
     6
 48
5.0
100
AcDbLine
 10
230.4139633293191
 20
365.9286928876768
 30
0.0
 11
283.4139633293191
 21
365.9286928876768
 31
0.0
  0
LINE
  5
2D87
330
18
100
AcDbEntity
  8
V25
  6
VERDECKT
 62
     6
 48
1.8
100
AcDbLine
 10
230.4139633293191
 20
393.4286928876768
 30
0.0
 11
230.4139633293191
 21
380.9286928876768
 31
0.0
  0
CIRCLE
  5
2D88
330
18
100
AcDbEntity
  8
V25
 62
     6
 48
5.0
100
AcDbCircle
 10
239.9139633293192
 20
387.1786928876768
 30
0.0
 40
3.0
  0
LINE
  5
2D89
330
18
100
AcDbEntity
  8
V25
 62
     6
 48
5.0
100
AcDbLine
 10
231.6216752148159
 20
380.9286928876768
 30
0.0
 11
231.6216752148159
 21
365.9286928876768
 31
0.0
  0
LINE
  5
2D8A
330
18
100
AcDbEntity
  8
V25
 62
     6
 48
5.0
100
AcDbLine
 10
283.4139633293191
 20
380.9286928876766
 30
0.0
 11
283.4139633293191
 21
365.9286928876765
 31
0.0
  0
LINE
  5
2D8D
330
18
100
AcDbEntity
  8
V25
 62
     6
 48
5.0
100
AcDbLine
 10
320.4139633293191
 20
393.4286928876768
 30
0.0
 11
320.4139633293191
 21
303.4286928876765
 31
0.0
  0
LINE
  5
2D8E
330
18
100
AcDbEntity
  8
V25
 62
     6
 48
5.0
100
AcDbLine
 10
317.4139633293191
 20
393.4286928876768
 30
0.0
 11
317.4139633293191
 21
303.4286928876768
 31
0.0
  0
LWPOLYLINE
  5
2D8F
102
{ACAD_REACTORS
330
2D90
102
}
330
18
100
AcDbEntity
  8
V25
 48
5.0
100
AcDbPolyline
 90
        4
 70
     1
 43
0.0
 10
321.4139633293191
 20
393.4286928876768
 10
321.4139633293189
 20
303.4286928876768
 10
324.4139633293189
 20
303.4286928876768
 10
324.4139633293191
 20
393.4286928876768
  0
HATCH
  5
2D90
330
18
100
AcDbEntity
  8
WD
 48
5.0
100
AcDbHatch
 10
0.0
 20
0.0
 30
0.0
210
0.0
220
0.0
230
1.0
  2
ANSI37
 70
     0
 71
     1
 91
        1
 92
        1
 93
        4
 72
     1
 10
321.4139633293191
 20
393.4286928876768
 11
321.4139633293189
 21
303.4286928876768
 72
     1
 10
321.4139633293189
 20
303.4286928876768
 11
324.4139633293189
 21
303.4286928876768
 72
     1
 10
324.4139633293189
 20
303.4286928876768
 11
324.4139633293191
 21
393.4286928876768
 72
     1
 10
324.4139633293191
 20
393.4286928876768
 11
321.4139633293191
 21
393.4286928876768
 97
        1
330
2D8F
 75
     0
 76
     1
 52
0.0
 41
0.8
 77
     0
 78
     2
 53
45.00000000000001
 43
443.1948478257254
 44
-37.05563067303484
 45
-1.79605122421383
 46
1.79605122421383
 79
     0
 53
135.0
 43
443.1948478257254
 44
-37.05563067303484
 45
-1.79605122421383
 46
-1.79605122421383
 79
     0
 98
        1
 10
443.1948478257254
 20
-37.05563067303484
  0
LINE
  5
2D91
330
18
100
AcDbEntity
  8
V25
 48
5.0
100
AcDbLine
 10
314.7540401062749
 20
348.3718134558653
 30
0.0
 11
345.4680734598026
 21
348.3718134558654
 31
0.0
  0
LWPOLYLINE
  5
2D92
330
18
100
AcDbEntity
  8
V25
  6
VERDECKTX2
 62
     6
 48
5.0
100
AcDbPolyline
 90
        3
 70
     1
 43
0.0
 10
315.9997497669458
 20
349.8429064500499
 10
315.9997497669458
 20
347.0144793253037
 10
317.4139633293191
 20
348.4286928876768
  0
LINE
  5
2D98
330
18
100
AcDbEntity
  8
ISO10TES
100
AcDbLine
 10
305.6538069563905
 20
391.5975213445575
 30
0.0
 11
250.1469862229203
 21
400.8486578191041
 31
0.0
  0
LWPOLYLINE
  5
2D99
330
18
100
AcDbEntity
  8
ISO10TES
100
AcDbPolyline
 90
        2
 70
     0
 43
0.0
 10
250.1469862229203
 20
382.1862578191039
 10
305.6538069563905
 20
391.4373942936501
  0
LINE
  5
2D9A
330
18
100
AcDbEntity
  8
ISO10TES
100
AcDbLine
 10
305.6538069563905
 20
391.5975213445573
 30
0.0
 11
250.1469862229203
 21
400.8486578191037
 31
0.0
  0
ARC
  5
2D9C
330
18
100
AcDbEntity
  8
ISO10TES
100
AcDbCircle
 10
250.1469862229203
 20
410.1798578191037
 30
0.0
 40
9.331200000000002
100
AcDbArc
 50
180.0
 51
270.0
  0
ARC
  5
2D9D
330
18
100
AcDbEntity
  8
ISO10TES
100
AcDbCircle
 10
250.1469862229203
 20
391.5174578191038
 30
0.0
 40
9.331200000000002
100
AcDbArc
 50
90.0
 51
180.0
  0
LINE
  5
2D9E
330
18
100
AcDbEntity
  8
ISO10TES
100
AcDbLine
 10
305.6538069563905
 20
410.2599213445574
 30
0.0
 11
250.1469862229203
 21
419.511057819104
 31
0.0
  0
LWPOLYLINE
  5
2D9F
330
18
100
AcDbEntity
  8
ISO10TES
100
AcDbPolyline
 90
        2
 70
     0
 43
0.0
 10
250.1469862229203
 20
400.8486578191037
 10
305.6538069563905
 20
410.0997942936499
  0
LINE
  5
2DA0
330
18
100
AcDbEntity
  8
ISO10TES
100
AcDbLine
 10
305.6538069563905
 20
410.2599213445572
 30
0.0
 11
250.1469862229203
 21
419.5110578191036
 31
0.0
  0
ARC
  5
2DA1
330
18
100
AcDbEntity
  8
ISO10TES
100
AcDbCircle
 10
250.1469862229203
 20
410.1798578191037
 30
0.0
 40
9.331200000000002
100
AcDbArc
 50
90.0
 51
180.0
  0
LINE
  5
2DA2
330
18
100
AcDbEntity
  8
V5
  6
PUNKT
 48
0.05
100
AcDbLine
 10
155.9597175068966
 20
637.5400892595189
 30
0.0
 11
179.7299503509719
 21
661.310322103594
 31
0.0
  0
LINE
  5
2DA3
330
18
100
AcDbEntity
  8
V5
  6
PUNKT
 48
0.05
100
AcDbLine
 10
155.9597175068966
 20
637.5400892595189
 30
0.0
 11
166.0599255054624
 21
655.1993778477324
 31
0.0
  0
LINE
  5
2DA4
330
18
100
AcDbEntity
  8
V5
  6
PUNKT
 48
0.05
100
AcDbLine
 10
173.61900609511
 20
647.6402972580847
 30
0.0
 11
155.9597175068966
 21
637.5400892595189
 31
0.0
  0
LINE
  5
2DA5
330
18
100
AcDbEntity
  8
V5
  6
PUNKT
 48
0.05
100
AcDbLine
 10
166.0599255054624
 20
655.1993778477324
 30
0.0
 11
173.61900609511
 21
647.6402972580847
 31
0.0
  0
ARC
  5
2DA6
330
18
100
AcDbEntity
  8
V5
  6
PUNKT
 48
0.05
100
AcDbCircle
 10
167.0020282896139
 20
674.0382441649519
 30
0.0
 40
18.0
100
AcDbArc
 50
314.9999999999954
 51
0.0
  0
LINE
  5
2DA8
330
18
100
AcDbEntity
  8
V25
100
AcDbLine
 10
162.0522582468175
 20
759.5636271264883
 30
0.0
 11
129.6395924062538
 21
791.1878922515652
 31
0.0
  0
CIRCLE
  5
2DA9
330
18
100
AcDbEntity
  8
V25
380
     1
100
AcDbCircle
 10
107.5649700328513
 20
810.7458195991391
 30
0.0
 40
29.49239690261376
  0
LWPOLYLINE
  5
2DAA
330
18
100
AcDbEntity
  8
0
  6
ByBlock
 62
     0
380
     1
100
AcDbPolyline
 90
        4
 70
     0
 43
1.584
 10
90.337944261056
 20
786.8077524649866
 10
90.337944261056
 20
814.1618080837471
 42
-0.4142135623730951
 10
95.08994426105573
 20
818.9138080837471
 10
106.1779442610561
 20
818.9138080837471
  0
LWPOLYLINE
  5
2DAB
330
18
100
AcDbEntity
  8
0
  6
ByBlock
 62
     0
380
     1
100
AcDbPolyline
 90
       10
 70
     0
 43
1.584
 10
134.7917370120237
 20
822.0818080837471
 10
128.0086190892659
 20
822.0818080837471
 10
117.7359333924735
 20
811.809122386953
 10
97.05019052431476
 20
811.809122386953
 42
-0.9999999999999538
 10
97.05019052431476
 20
815.745808083747
 10
115.4177626714013
 20
815.745808083747
 42
1.0
 10
115.4177626714013
 20
822.0818080837471
 10
95.08994426105573
 20
822.0818080837471
 42
0.4142135623730951
 10
87.16994426105589
 20
814.1618080837471
 10
87.16994426105589
 20
802.3982512423419
  0
LWPOLYLINE
  5
2DAC
330
18
100
AcDbEntity
  8
ISO10TES
100
AcDbPolyline
 90
        2
 70
     0
 43
0.0
 10
250.146986222923
 20
512.8230578191034
 10
306.1341881254364
 20
522.1542578191028
  0
LINE
  5
2DAD
330
18
100
AcDbEntity
  8
ISO10TES
100
AcDbLine
 10
306.1341881254364
 20
522.1542578191028
 30
0.0
 11
250.1469862229228
 21
531.4854578191025
 31
0.0
  0
LINE
  5
2DAE
330
18
100
AcDbEntity
  8
ISO10TES
100
AcDbLine
 10
306.1341881254364
 20
503.4918578191038
 30
0.0
 11
250.1469862229228
 21
512.8230578191037
 31
0.0
  0
ARC
  5
2DAF
330
18
100
AcDbEntity
  8
ISO10TES
100
AcDbCircle
 10
250.146986222923
 20
522.1542578191028
 30
0.0
 40
9.331199999999618
100
AcDbArc
 50
90.0
 51
180.0
  0
ARC
  5
2DB0
330
18
100
AcDbEntity
  8
ISO10TES
100
AcDbCircle
 10
250.146986222923
 20
522.1542578191028
 30
0.0
 40
9.331199999999618
100
AcDbArc
 50
180.0
 51
270.0
  0
LWPOLYLINE
  5
2DB3
330
18
100
AcDbEntity
  8
ISO10TES
100
AcDbPolyline
 90
        2
 70
     0
 43
0.0
 10
250.146986222923
 20
494.1606578191034
 10
306.1341881254364
 20
503.4918578191029
  0
LINE
  5
2DB4
330
18
100
AcDbEntity
  8
ISO10TES
100
AcDbLine
 10
306.1341881254364
 20
503.4918578191029
 30
0.0
 11
250.1469862229228
 21
512.8230578191026
 31
0.0
  0
LINE
  5
2DB5
330
18
100
AcDbEntity
  8
ISO10TES
100
AcDbLine
 10
306.1341881254364
 20
484.8294578191039
 30
0.0
 11
250.1469862229228
 21
494.1606578191038
 31
0.0
  0
ARC
  5
2DB6
330
18
100
AcDbEntity
  8
ISO10TES
100
AcDbCircle
 10
250.146986222923
 20
503.491857819103
 30
0.0
 40
9.331199999999618
100
AcDbArc
 50
90.0
 51
180.0
  0
ARC
  5
2DB7
330
18
100
AcDbEntity
  8
ISO10TES
100
AcDbCircle
 10
250.146986222923
 20
503.491857819103
 30
0.0
 40
9.331199999999618
100
AcDbArc
 50
180.0
 51
270.0
  0
LWPOLYLINE
  5
2DBA
330
18
100
AcDbEntity
  8
ISO10TES
100
AcDbPolyline
 90
        2
 70
     0
 43
0.0
 10
250.146986222923
 20
475.4982578191035
 10
306.1341881254364
 20
484.8294578191029
  0
LINE
  5
2DBB
330
18
100
AcDbEntity
  8
ISO10TES
100
AcDbLine
 10
306.1341881254364
 20
484.8294578191029
 30
0.0
 11
250.1469862229228
 21
494.1606578191026
 31
0.0
  0
LINE
  5
2DBC
330
18
100
AcDbEntity
  8
ISO10TES
100
AcDbLine
 10
306.1341881254364
 20
466.1670578191039
 30
0.0
 11
250.1469862229228
 21
475.4982578191039
 31
0.0
  0
ARC
  5
2DBD
330
18
100
AcDbEntity
  8
ISO10TES
100
AcDbCircle
 10
250.146986222923
 20
484.8294578191031
 30
0.0
 40
9.331199999999618
100
AcDbArc
 50
90.0
 51
180.0
  0
ARC
  5
2DBE
330
18
100
AcDbEntity
  8
ISO10TES
100
AcDbCircle
 10
250.146986222923
 20
484.8294578191031
 30
0.0
 40
9.331199999999618
100
AcDbArc
 50
180.0
 51
270.0
  0
LWPOLYLINE
  5
2DBF
330
18
100
AcDbEntity
  8
ISO10TES
100
AcDbPolyline
 90
        2
 70
     0
 43
0.0
 10
306.1341881254357
 20
503.4117946107342
 42
-0.4142135623730951
 10
315.4653881254353
 20
494.0805946107346
 42
-0.4142135623730951
  0
ARC
  5
2DC0
330
18
100
AcDbEntity
  8
ISO10TES
100
AcDbCircle
 10
306.1341881254359
 20
494.0805946107349
 30
0.0
 40
9.331199999999441
100
AcDbArc
 50
270.0
 51
0.0
  0
LWPOLYLINE
  5
2DC1
330
18
100
AcDbEntity
  8
ISO10TES
100
AcDbPolyline
 90
        2
 70
     0
 43
0.0
 10
306.1341881254359
 20
484.7493946107354
 42
-0.4142135623730951
 10
315.4653881254355
 20
475.4181946107357
 42
-0.4142135623730951
  0
ARC
  5
2DC2
330
18
100
AcDbEntity
  8
ISO10TES
100
AcDbCircle
 10
306.1341862229213
 20
400.7685942936519
 30
0.0
 40
9.331199999999441
100
AcDbArc
 50
270.0
 51
0.0
  0
LWPOLYLINE
  5
2DC3
330
18
100
AcDbEntity
  8
ISO10TES
100
AcDbPolyline
 90
        2
 70
     0
 43
0.0
 10
306.1341862229213
 20
391.4373942936525
 42
-0.4142135623730951
 10
315.4653862229209
 20
382.1061942936529
 42
-0.4142135623730951
  0
ARC
  5
2DC4
330
18
100
AcDbEntity
  8
ISO10TES
100
AcDbCircle
 10
306.1341862229215
 20
382.1061942936531
 30
0.0
 40
9.331199999999441
100
AcDbArc
 50
270.0
 51
0.0
  0
ARC
  5
2DC6
330
18
100
AcDbEntity
  8
ISO10TES
100
AcDbCircle
 10
306.1341881254364
 20
512.8230578191023
 30
0.0
 40
9.331199999999441
100
AcDbArc
 50
270.0
 51
0.0
  0
ARC
  5
2DCC
330
18
100
AcDbEntity
  8
V5
 62
     7
100
AcDbCircle
 10
332.6444887840533
 20
655.0221808132081
 30
0.0
 40
200.0
100
AcDbArc
 50
107.2576725759063
 51
148.8316142067834
  0
LINE
  5
2DCF
330
18
100
AcDbEntity
  8
ISO10TES
100
AcDbLine
 10
306.1341881254364
 20
298.2054578191036
 30
0.0
 11
250.1469862229228
 21
307.5366578191033
 31
0.0
  0
MTEXT
  5
2DE6
102
{ACAD_XDICTIONARY
360
4185
102
}
330
18
100
AcDbEntity
  8
TXT-D
 62
     7
100
AcDbMText
 10
789.8838664836596
 20
1005.613535133963
 30
0.0
 40
14.0
 41
204.6511
 71
     1
 72
     5
  1
miner\U+00E1ln\U+00ED tepeln\U+00E1 izolace
  7
ROMANS
 73
     1
 44
1.0
  0
TEXT
  5
2DF9
330
18
100
AcDbEntity
  8
TXT-D
 62
     7
100
AcDbText
 10
25.51345523661848
 20
352.4753664016737
 30
0.0
 40
14.0
  1
trapézový
  7
ROMANS
100
AcDbText
  0
TEXT
  5
2DFB
330
18
100
AcDbEntity
  8
TXT-D
 62
     7
100
AcDbText
 10
25.51345523661848
 20
440.5937154184933
 30
0.0
 40
14.0
  1
parotěsná vrstva
  7
ROMANS
100
AcDbText
  0
LINE
  5
2DFC
330
18
100
AcDbEntity
  8
TXT-D
100
AcDbLine
 10
199.6867959583587
 20
445.1962751264423
 30
0.0
 11
310.7826745663417
 21
445.1962751264423
 31
0.0
  0
LINE
  5
2DFD
330
18
100
AcDbEntity
  8
TXT-D
100
AcDbLine
 10
117.2068057029901
 20
360.626316408418
 30
0.0
 11
213.6181993911346
 21
360.6263164084179
 31
0.0
  0
TEXT
  5
2DFE
330
18
100
AcDbEntity
  8
TXT-D
 62
     7
100
AcDbText
 10
25.51345523661848
 20
330.7729252703595
 30
0.0
 40
14.0
  1
plech
  7
ROMANS
100
AcDbText
  0
LWPOLYLINE
  5
2E05
330
18
100
AcDbEntity
  8
V35
100
AcDbPolyline
 90
        2
 70
     1
 43
2.9
 10
229.7738649561145
 20
747.8078777387511
 42
1.0
 10
232.8738649561144
 20
747.8078777387511
 42
1.0
  0
LWPOLYLINE
  5
2E06
330
18
100
AcDbEntity
  8
V35
100
AcDbPolyline
 90
        2
 70
     1
 43
2.9
 10
186.5452032158769
 20
793.7107201695506
 42
1.0
 10
189.6452032158768
 20
793.7107201695506
 42
1.0
  0
ARC
  5
2E2D
330
18
100
AcDbEntity
  8
3D
100
AcDbCircle
 10
853.0165641597854
 20
32.506801523327
 30
0.0
 40
942.4272545708955
100
AcDbArc
 50
135.3399359897421
 51
136.6523657516967
  0
ARC
  5
2E2E
330
18
100
AcDbEntity
  8
3D
100
AcDbCircle
 10
861.0165641602579
 20
32.50680152285804
 30
0.0
 40
942.4272545715611
100
AcDbArc
 50
136.0361792059804
 51
137.153248311836
  0
LINE
  5
2E2F
330
18
100
AcDbEntity
  8
V5
100
AcDbLine
 10
162.0522582468175
 20
673.3948245915121
 30
0.0
 11
170.0522582468174
 21
673.3948245915121
 31
0.0
  0
ARC
  5
2E30
330
18
100
AcDbEntity
  8
3D
100
AcDbCircle
 10
853.0165641602579
 20
32.50680152285804
 30
0.0
 40
942.4272545715611
100
AcDbArc
 50
133.5076160516805
 51
134.9906342239095
  0
ARC
  5
2E31
330
18
100
AcDbEntity
  8
3D
100
AcDbCircle
 10
861.0165641602579
 20
32.50680152285804
 30
0.0
 40
942.4272545715611
100
AcDbArc
 50
134.7379377054309
 51
135.6825428782613
  0
LWPOLYLINE
  5
2E43
330
18
100
AcDbEntity
  8
V35
100
AcDbPolyline
 90
        2
 70
     1
 43
2.9
 10
212.0681993911346
 20
360.6263164084179
 42
1.0
 10
215.1681993911345
 20
360.6263164084179
 42
1.0
  0
INSERT
  5
3EB9
330
18
100
AcDbEntity
  8
V35
  6
AUSGEZOGEN
 62
     6
 48
10.0
100
AcDbBlockReference
  2
e140
 10
671.1346981881602
 20
620.6331177093765
 30
0.0
  0
LWPOLYLINE
  5
3EBB
330
18
100
AcDbEntity
  8
ISO10TES
100
AcDbPolyline
 90
        2
 70
     0
 43
0.0
 10
701.1248807482529
 20
630.738331205044
 42
0.4142135623730951
 10
713.1248807482529
 20
618.738331205044
 42
0.4142135623730951
  0
ARC
  5
3EBC
330
18
100
AcDbEntity
  8
3D
  6
VERDECKT
 48
3.0
100
AcDbCircle
 10
689.1248807482529
 20
630.7383312050437
 30
0.0
 40
11.99999999999977
100
AcDbArc
 50
270.0
 51
0.0
  0
LWPOLYLINE
  5
3EBD
330
18
100
AcDbEntity
  8
3D
  6
VERDECKT
 48
3.0
100
AcDbPolyline
 90
        2
 70
     0
 43
0.0
 10
677.1248807482534
 20
630.738331205044
 42
0.4142135623730951
 10
689.1248807482534
 20
618.738331205044
 42
0.4142135623730951
  0
ARC
  5
3EBE
330
18
100
AcDbEntity
  8
ISO10TES
100
AcDbCircle
 10
737.124880748252
 20
630.7383312050437
 30
0.0
 40
11.99999999999977
100
AcDbArc
 50
270.0
 51
0.0
  0
LWPOLYLINE
  5
3EBF
330
18
100
AcDbEntity
  8
ISO10TES
100
AcDbPolyline
 90
        2
 70
     0
 43
0.0
 10
725.1248807482525
 20
630.738331205044
 42
0.4142135623730951
 10
737.1248807482524
 20
618.738331205044
 42
0.4142135623730951
  0
ARC
  5
3EC0
330
18
100
AcDbEntity
  8
ISO10TES
100
AcDbCircle
 10
713.1248807482525
 20
630.7383312050437
 30
0.0
 40
11.99999999999977
100
AcDbArc
 50
270.0
 51
0.0
  0
LWPOLYLINE
  5
3EC1
330
18
100
AcDbEntity
  8
ISO10TES
100
AcDbPolyline
 90
        2
 70
     0
 43
0.0
 10
749.124880748252
 20
630.738331205044
 42
0.4142135623730951
 10
761.124880748252
 20
618.738331205044
 42
0.4142135623730951
  0
ARC
  5
3EC2
330
18
100
AcDbEntity
  8
ISO10TES
100
AcDbCircle
 10
761.1248807482516
 20
630.7383312050437
 30
0.0
 40
11.99999999999977
100
AcDbArc
 50
270.0
 51
0.0
  0
LWPOLYLINE
  5
3EC3
330
18
100
AcDbEntity
  8
3D
  6
VERDECKT
 48
3.0
100
AcDbPolyline
 90
        2
 70
     0
 43
0.0
 10
677.1248807482686
 20
630.7383312051358
 42
0.2737506609733654
 10
683.3509450731839
 20
620.2187462884204
 42
0.4142135623730951
  0
LWPOLYLINE
  5
3EC4
330
18
100
AcDbEntity
  8
ISO10TES
100
AcDbPolyline
 90
        2
 70
     0
 43
0.0
 10
749.1248807482524
 20
630.738331205044
 42
0.4142135623730951
 10
761.1248807482525
 20
618.738331205044
 42
0.4142135623730951
  0
ARC
  5
3EC5
330
18
100
AcDbEntity
  8
ISO10TES
100
AcDbCircle
 10
761.1248807482516
 20
630.7383312050437
 30
0.0
 40
11.99999999999977
100
AcDbArc
 50
270.0
 51
0.0
  0
LINE
  5
3EC6
330
18
100
AcDbEntity
  8
SV35
 48
3.0
100
AcDbLine
 10
329.0233666791278
 20
601.3366909203364
 30
0.0
 11
869.7998160864941
 21
601.3366909203361
 31
0.0
  0
LINE
  5
3EC7
330
18
100
AcDbEntity
  8
V5
 62
     4
100
AcDbLine
 10
869.7998160864941
 20
529.8890352387866
 30
0.0
 11
328.4629391863987
 21
529.8890352387859
 31
0.0
  0
LINE
  5
3EC8
330
18
100
AcDbEntity
  8
V5
 62
     4
100
AcDbLine
 10
869.7998160864941
 20
569.8281726911147
 30
0.0
 11
328.4629391863987
 21
569.8281726911147
 31
0.0
  0
LWPOLYLINE
  5
3EC9
330
18
100
AcDbEntity
  8
V25
  6
Continuous
100
AcDbPolyline
 90
        4
 70
   128
 43
0.0
 10
869.4821522807151
 20
613.9090813308635
 10
323.7385156095192
 20
613.9090813308635
 42
0.4142135623730951
 10
315.7385156095192
 20
605.9090813308634
 10
315.7385156095192
 20
414.2278377183479
  0
LWPOLYLINE
  5
3ECA
330
18
100
AcDbEntity
  8
V25
  6
Continuous
100
AcDbPolyline
 90
        4
 70
   128
 43
0.0
 10
869.4821522807151
 20
609.9090813308635
 10
323.7385156095192
 20
609.9090813308635
 42
0.4142135623730951
 10
319.7385156095192
 20
605.9090813308634
 10
319.7385156095192
 20
414.2278377183479
  0
LWPOLYLINE
  5
3ECB
330
18
100
AcDbEntity
  8
V5
  6
GESTRICHELT
 48
5.0
100
AcDbPolyline
 90
        4
 70
   128
 43
4.0
 10
869.4821522807151
 20
611.9090813308635
 10
323.7385156095192
 20
611.9090813308635
 42
0.4142135623730951
 10
317.7385156095192
 20
605.9090813308634
 10
317.7385156095192
 20
414.2278377183479
  0
LINE
  5
3ECC
330
18
100
AcDbEntity
  8
V5
100
AcDbLine
 10
328.4629391863987
 20
496.3281726911147
 30
0.0
 11
869.7998160864941
 21
496.3281726911145
 31
0.0
  0
LINE
  5
3ECD
330
18
100
AcDbEntity
  8
V5
100
AcDbLine
 10
328.4629391863987
 20
604.8281726911148
 30
0.0
 11
869.7998160864941
 21
604.8281726911145
 31
0.0
  0
ARC
  5
3ECE
330
18
100
AcDbEntity
  8
ISO10TES
100
AcDbCircle
 10
785.1248807482516
 20
630.7383312050437
 30
0.0
 40
11.99999999999977
100
AcDbArc
 50
270.0
 51
0.0
  0
LWPOLYLINE
  5
3ECF
330
18
100
AcDbEntity
  8
ISO10TES
100
AcDbPolyline
 90
        2
 70
     0
 43
0.0
 10
773.1248807482516
 20
630.738331205044
 42
0.4142135623730951
 10
785.1248807482516
 20
618.738331205044
 42
0.4142135623730951
  0
LWPOLYLINE
  5
3ED0
330
18
100
AcDbEntity
  8
ISO10TES
100
AcDbPolyline
 90
        2
 70
     0
 43
0.0
 10
797.1248807482516
 20
630.738331205044
 42
0.4142135623730951
 10
809.1248807482516
 20
618.738331205044
 42
0.4142135623730951
  0
LWPOLYLINE
  5
3ED1
330
18
100
AcDbEntity
  8
ISO10TES
100
AcDbPolyline
 90
        2
 70
     0
 43
0.0
 10
821.1248807482506
 20
630.738331205044
 42
0.4142135623730951
 10
833.1248807482506
 20
618.738331205044
 42
0.4142135623730951
  0
ARC
  5
3ED2
330
18
100
AcDbEntity
  8
ISO10TES
100
AcDbCircle
 10
809.1248807482507
 20
630.7383312050437
 30
0.0
 40
11.99999999999977
100
AcDbArc
 50
270.0
 51
0.0
  0
LWPOLYLINE
  5
3ED3
330
18
100
AcDbEntity
  8
ISO10TES
100
AcDbPolyline
 90
        2
 70
     0
 43
0.0
 10
845.1248807482507
 20
630.738331205044
 42
0.4142135623730951
 10
857.1248807482506
 20
618.738331205044
 42
0.4142135623730951
  0
ARC
  5
3ED4
330
18
100
AcDbEntity
  8
ISO10TES
100
AcDbCircle
 10
833.1248807482506
 20
630.7383312050437
 30
0.0
 40
11.99999999999977
100
AcDbArc
 50
270.0
 51
0.0
  0
ARC
  5
3ED5
330
18
100
AcDbEntity
  8
ISO10TES
100
AcDbCircle
 10
857.1248807482497
 20
630.7383312050437
 30
0.0
 40
11.99999999999977
100
AcDbArc
 50
270.0
 51
0.0
  0
TEXT
  5
3ED6
330
18
100
AcDbEntity
  8
TXT-D
 62
     7
100
AcDbText
 10
933.6217196664419
 20
490.2478631278611
 30
0.0
 40
14.0
  1
Ri
 50
90.0
  7
ROMANS
100
AcDbText
  0
LINE
  5
3ED7
330
18
100
AcDbEntity
  8
TXT-D
  6
ByBlock
 62
     1
100
AcDbLine
 10
928.0284677375957
 20
565.8253982876749
 30
0.0
 11
928.0284677375957
 21
523.5163172276013
 31
0.0
  0
LINE
  5
3ED8
330
18
100
AcDbEntity
  8
3D
100
AcDbLine
 10
932.7484414754245
 20
575.045688365923
 30
0.0
 11
869.7998160864941
 21
575.045688365923
 31
0.0
  0
LINE
  5
3ED9
330
18
100
AcDbEntity
  8
3D
100
AcDbLine
 10
953.6152807949278
 20
594.5454667019657
 30
0.0
 11
923.3741520585608
 21
594.5454667019657
 31
0.0
  0
LINE
  5
3EDA
330
18
100
AcDbEntity
  8
TXT-D
  6
ByBlock
 62
     1
100
AcDbLine
 10
928.0284677375957
 20
231.113312801359
 30
0.0
 11
928.0284677375957
 21
476.8496505609348
 31
0.0
  0
LINE
  5
3EDB
330
18
100
AcDbEntity
  8
V25
100
AcDbLine
 10
869.7998160864944
 20
718.3420996366278
 30
0.0
 11
869.7998160864941
 21
496.3281726911145
 31
0.0
  0
LWPOLYLINE
  5
3EDC
330
18
100
AcDbEntity
  8
V5
100
AcDbPolyline
 90
        9
 70
     0
 43
0.0
 10
869.7998160864941
 20
604.8281726911145
 10
897.1721908323365
 20
642.0975577319643
 10
911.5395228228145
 20
612.3347381664257
 10
915.6444748200938
 20
610.6242312948429
 10
932.7484414754245
 20
575.045688365923
 10
953.6152807949278
 20
594.5454667019657
 10
958.0623121253143
 20
644.1501659778634
 10
959.4306294577409
 20
648.5974838439785
 10
967.4708687742242
 20
719.0723572941633
  0
LINE
  5
3EDD
330
18
100
AcDbEntity
  8
TXT-D
  6
ByBlock
 62
     1
100
AcDbLine
 10
928.0284677375957
 20
745.4971451028953
 30
0.0
 11
928.0284677375957
 21
603.3763397913134
 31
0.0
  0
LINE
  5
3EDE
330
18
100
AcDbEntity
  8
3D
100
AcDbLine
 10
955.0440006717558
 20
757.767871752972
 30
0.0
 11
946.6691691675096
 21
799.2289167259477
 31
0.0
  0
LINE
  5
3EDF
330
18
100
AcDbEntity
  8
3D
100
AcDbLine
 10
928.39048315639
 20
721.1502330972639
 30
0.0
 11
915.3602206575484
 21
787.2091248628001
 31
0.0
  0
LWPOLYLINE
  5
3EE0
330
18
100
AcDbEntity
  8
3D
100
AcDbPolyline
 90
       11
 70
     0
 43
0.0
 10
910.8823760697719
 20
747.5228326481128
 42
0.0124754322670138
 10
911.3818173599034
 20
749.2683768190325
 42
0.0503960549632957
 10
913.1877362234332
 20
760.9778498656273
 42
0.0503960549632957
 10
912.6146119833189
 20
772.8118952676021
 42
0.0642305461189375
 10
910.064958018756
 20
781.7667141806732
 42
0.1038665123742172
 10
905.121563421947
 20
788.7997178121695
 42
0.1765072904363173
 10
900.3718260383234
 20
790.817568587684
 42
0.1765072904362775
 10
895.4373221563004
 20
789.3068077184741
 42
0.1038665123742165
 10
889.7864455344002
 20
782.8285453260982
 42
0.0642305461189278
 10
886.315507706835
 20
774.1889789190332
 42
0.083876063453655
 10
884.6221318504426
 20
754.6312423981334
 42
0.0503960549632914
  0
LWPOLYLINE
  5
3EE2
330
18
100
AcDbEntity
  8
3D
100
AcDbPolyline
 90
       10
 70
     0
 43
0.0
 10
870.7496381535365
 20
674.7625606967821
 42
0.0503960549632914
 10
871.9407893153038
 20
662.9746745045762
 42
0.0642305461189343
 10
874.9552092292333
 20
654.165429946305
 42
0.1038665123742194
 10
880.2596017603805
 20
647.4005419135348
 42
0.1765072904363027
 10
885.1083559577064
 20
645.633819043486
 42
0.1765072904362921
 10
889.9571101550314
 20
647.4005419135344
 42
0.1038665123742211
 10
895.261502686179
 20
654.165429946305
 42
0.0642305461189371
 10
898.275922600108
 20
662.9746745045757
 42
0.0506315641161863
 10
900.5150097853293
 20
674.5529626529052
 42
0.0442639476739658
 10
899.5950324279093
 20
684.9245505560884
 42
0.0623115332502814
  0
LWPOLYLINE
  5
3EE3
330
18
100
AcDbEntity
  8
V5
  6
GESTRICHELT
 62
     4
 48
5.0
100
AcDbPolyline
 90
        2
 70
     0
 43
4.0
 10
963.8541254513667
 20
718.3124306982449
 42
0.0753157221373046
 10
868.1657008844068
 20
611.4016851716737
 42
0.0748345127997706
  0
ARC
  5
3EE4
330
18
100
AcDbEntity
  8
V25
100
AcDbCircle
 10
1267.399216815866
 20
349.8709911754668
 30
0.0
 40
479.273474424404
100
AcDbArc
 50
128.181539336974
 51
146.4611010395532
  0
ARC
  5
3EE5
330
18
100
AcDbEntity
  8
V25
100
AcDbCircle
 10
1270.77192263392
 20
348.0155883985134
 30
0.0
 40
479.2438367007775
100
AcDbArc
 50
128.6984368729675
 51
146.8035191321701
  0
LINE
  5
3EE6
330
18
100
AcDbEntity
  8
3D
100
AcDbLine
 10
911.8853119569703
 20
750.5292891272854
 30
0.0
 11
904.7792921275895
 21
725.9763851062805
 31
0.0
  0
LWPOLYLINE
  5
3EE7
330
18
100
AcDbEntity
  8
3D
100
AcDbPolyline
 90
       11
 70
     0
 43
0.0
 10
900.7884967078053
 20
708.1505344540964
 42
0.0503960549632914
 10
901.3616209479195
 20
696.3164890521233
 42
0.0642305461189343
 10
903.9112749124829
 20
687.3616701390512
 42
0.1038665123742194
 10
908.8546695092919
 20
680.3286665075546
 42
0.1765072904363027
 10
913.6044068929159
 20
678.31081573204
 42
0.1765072904362921
 10
918.5389107749383
 20
679.8215766012508
 42
0.1038665123742211
 10
924.1897873968387
 20
686.2998389936263
 42
0.0642305461189371
 10
927.6607252244039
 20
694.9394054006917
 42
0.0503960549632957
 10
929.4666440879337
 20
706.6488784472864
 42
0.0503960549632957
 10
928.8935198478194
 20
718.4829238492609
 42
0.0186545152184289
 10
928.39048315639
 20
721.1502330972637
 42
0.1038665123742172
  0
LINE
  5
3EE8
330
18
100
AcDbEntity
  8
TXT-D
  6
ByBlock
 62
     1
100
AcDbLine
 10
937.0072785257816
 20
759.502766319521
 30
0.0
 11
869.7998160864935
 21
759.502766319521
 31
0.0
  0
LWPOLYLINE
  5
3EE9
330
18
100
AcDbEntity
  8
3D
100
AcDbPolyline
 90
        3
 70
     0
 43
0.0
 10
904.7792921275895
 20
725.9763851062805
 42
0.0447105744104843
 10
902.5944155713396
 20
719.8600075007032
 42
0.0503960549632926
 10
900.7884967078098
 20
708.1505344541076
 42
0.0503960549632914
  0
LWPOLYLINE
  5
3EEA
330
18
100
AcDbEntity
  8
3D
100
AcDbPolyline
 90
        6
 70
     0
 43
0.0
 10
882.0254032887897
 20
719.9426922828222
 42
0.0393225304062445
 10
883.6048182717659
 20
725.4348915798994
 42
0.0503960549632957
 10
884.7959694335337
 20
737.2227777721059
 42
0.0503960549632957
 10
883.6048182717659
 20
749.0106639643117
 42
0.0642305461189375
 10
880.5903983578364
 20
757.8199085225828
 42
0.0931159909626153
 10
875.9555291171537
 20
763.9974305505561
 42
0.0931159909626153
  0
LINE
  5
3EEB
330
18
100
AcDbEntity
  8
3D
100
AcDbLine
 10
884.5806723955533
 20
755.1729776982698
 30
0.0
 11
899.595032427886
 21
684.9245505562187
 31
0.0
  0
LWPOLYLINE
  5
3EED
330
18
100
AcDbEntity
  8
3D
100
AcDbPolyline
 90
       11
 70
     0
 43
0.0
 10
930.086517772384
 20
733.3011192942016
 42
0.0346651702791544
 10
930.7370103455378
 20
725.1665487562811
 42
0.0642305461189343
 10
933.2866643101011
 20
716.2117298432089
 42
0.1038665123742194
 10
938.23005890691
 20
709.1787262117123
 42
0.1765072904363027
 10
942.979796290534
 20
707.1608754361976
 42
0.1765072904362921
 10
947.9143001725566
 20
708.6716363054086
 42
0.1038665123742211
 10
953.5651767944564
 20
715.1498986977841
 42
0.0642305461189371
 10
957.036114622022
 20
723.7894651048495
 42
0.0503960549632957
 10
958.8420334855518
 20
735.4989381514442
 42
0.0503960549632957
 10
958.2689092454375
 20
747.3329835534187
 42
0.0754627898508706
 10
955.0440006717558
 20
757.767871752972
  0
LWPOLYLINE
  5
3EEE
330
18
100
AcDbEntity
  8
3D
100
AcDbPolyline
 90
        3
 70
     0
 43
0.0
 10
934.1546732347683
 20
750.9633194011922
 42
0.0271549299979405
 10
932.7498288026282
 20
747.2719616455444
 42
0.0605643475922066
 10
930.086517772384
 20
733.3011192942069
 42
0.0503960549632914
  0
LWPOLYLINE
  5
3EEF
330
18
100
AcDbEntity
  8
3D
100
AcDbPolyline
 90
        4
 70
     0
 43
0.0
 10
959.5404764572235
 20
757.000621613477
 42
0.0503960549632914
 10
960.1136006973383
 20
745.166576211503
 42
0.0642305461189343
 10
962.6632546619006
 20
736.2117572984309
 42
0.1567943462160638
 10
971.073374767994
 20
726.5592689615681
 42
0.0608200929288625
  0
SOLID
  5
3EF0
330
18
100
AcDbEntity
  8
TXT-D
  6
ByBlock
 62
     1
100
AcDbTrace
 10
930.9451344042626
 20
743.6098086675676
 30
0.0
 11
925.1118010709287
 21
743.6098086675676
 31
0.0
 12
928.0284677375957
 22
759.4084535833433
 32
0.0
 13
928.0284677375957
 23
759.4084535833433
 33
0.0
  0
LINE
  5
3EF1
330
18
100
AcDbEntity
  8
3D
100
AcDbLine
 10
940.8066462906603
 20
773.295615554909
 30
0.0
 11
934.1546732347683
 21
750.9633194011922
 31
0.0
  0
LWPOLYLINE
  5
3EF2
330
18
100
AcDbEntity
  8
3D
100
AcDbPolyline
 90
        3
 70
     0
 43
0.0
 10
971.074586528956
 20
785.5398480194745
 42
0.1360216750966504
 10
961.3463953207538
 20
768.7100946600722
 42
0.0503960549632926
 10
959.5404764572235
 20
757.000621613477
 42
0.0503960549632914
  0
LINE
  5
3EF4
330
18
100
AcDbEntity
  8
3D
100
AcDbLine
 10
882.0254032887897
 20
719.9426922828219
 30
0.0
 11
874.2407847221498
 21
693.8209322295874
 31
0.0
  0
ARC
  5
3EF5
330
18
100
AcDbEntity
  8
ISO10TES
100
AcDbCircle
 10
845.1248807482507
 20
744.6857578532918
 30
0.0
 40
12.0
100
AcDbArc
 50
0.0
 51
90.0
  0
ARC
  5
3EF6
330
18
100
AcDbEntity
  8
ISO10TES
100
AcDbCircle
 10
821.1248807482506
 20
744.6857578532918
 30
0.0
 40
12.0
100
AcDbArc
 50
0.0
 51
90.0
  0
ARC
  5
3EF7
330
18
100
AcDbEntity
  8
ISO10TES
100
AcDbCircle
 10
845.1248807482507
 20
744.6857578532918
 30
0.0
 40
12.0
100
AcDbArc
 50
90.0
 51
180.0
  0
ARC
  5
3EF8
330
18
100
AcDbEntity
  8
ISO10TES
100
AcDbCircle
 10
869.1248807482498
 20
744.6857578532918
 30
0.0
 40
12.0
100
AcDbArc
 50
90.0
 51
180.0
  0
LWPOLYLINE
  5
3EFA
330
18
100
AcDbEntity
  8
3D
100
AcDbPolyline
 90
       11
 70
     0
 43
0.0
 10
940.8066462906603
 20
773.2956155549095
 42
0.0328827121875542
 10
942.3082162128052
 20
777.8348029950677
 42
0.0503960549632957
 10
944.1141350763356
 20
789.5442760416626
 42
0.0503960549632957
 10
943.5410108362207
 20
801.3783214436363
 42
0.0642305461189375
 10
940.9913568716584
 20
810.3331403567086
 42
0.1038665123742172
 10
936.0479622748488
 20
817.3661439882046
 42
0.1765072904363173
 10
931.2982248912254
 20
819.3839947637194
 42
0.1765072904362775
 10
926.3637210092028
 20
817.8732338945087
 42
0.1038665123742165
 10
920.7128443873026
 20
811.394971502133
 42
0.0642305461189278
 10
917.2419065597374
 20
802.7554050950683
 42
0.0667371444676558
 10
915.3602206575484
 20
787.2091248628005
 42
0.0667371444676558
  0
LWPOLYLINE
  5
3EFB
330
18
100
AcDbEntity
  8
3D
100
AcDbPolyline
 90
        6
 70
     0
 43
0.0
 10
965.1033491473281
 20
838.0272635097931
 42
0.1349226192701502
 10
961.3118850434348
 20
839.2859874529616
 42
0.1765072904362775
 10
956.3773811614119
 20
837.7752265837507
 42
0.1038665123742165
 10
950.7265045395115
 20
831.2969641913745
 42
0.0642305461189278
 10
947.2555667119463
 20
822.6573977843099
 42
0.0563022683658287
 10
945.3933969272323
 20
809.5609975703883
  0
LWPOLYLINE
  5
3EFC
330
18
100
AcDbEntity
  8
3D
100
AcDbPolyline
 90
        3
 70
     0
 43
0.0
 10
945.3933969272325
 20
809.5609975703849
 42
0.0300946695980976
 10
946.0227720885304
 20
802.5023105683242
 42
0.0229352539879982
 10
946.6691691675096
 20
799.2289167259477
  0
LWPOLYLINE
  5
3EFD
330
18
100
AcDbEntity
  8
3D
100
AcDbPolyline
 90
        3
 70
     0
 43
0.0
 10
874.2407847221594
 20
693.8209322296094
 42
0.0525341671341241
 10
871.9407893153038
 20
686.5504468889883
 42
0.0503960549632926
 10
870.7496381535365
 20
674.7625606967821
 42
0.0503960549632914
  0
LINE
  5
3EFE
330
18
100
AcDbEntity
  8
V25
 48
5.0
100
AcDbLine
 10
297.6606013150979
 20
456.2139360483788
 30
0.0
 11
343.8391551284594
 21
456.2139360483788
 31
0.0
  0
LWPOLYLINE
  5
3EFF
102
{ACAD_REACTORS
330
3F00
102
}
330
18
100
AcDbEntity
  8
SV35
  6
AUSGEZOGEN
 48
5.0
100
AcDbPolyline
 90
        4
 70
     1
 43
0.0
 10
319.7385156095192
 20
471.3438694314972
 10
319.7385156095192
 20
441.3438694314972
 10
324.7385156095193
 20
441.3438694314972
 10
324.7385156095193
 20
471.3438694314972
  0
HATCH
  5
3F00
330
18
100
AcDbEntity
  8
V25
 48
5.0
100
AcDbHatch
 10
0.0
 20
0.0
 30
0.0
210
0.0
220
0.0
230
1.0
  2
ANSI37
 70
     0
 71
     1
 91
        1
 92
        7
 72
     0
 73
     1
 93
        4
 10
324.7385156095193
 20
471.3438694314972
 10
319.7385156095193
 20
471.3438694314972
 10
319.7385156095192
 20
441.3438694314972
 10
324.7385156095193
 20
441.3438694314972
 97
        1
330
3EFF
 75
     0
 76
     1
 52
-90.00000000000001
 41
1.0
 77
     0
 78
     2
 53
315.0
 43
-332.4442493773436
 44
955.6598933994914
 45
2.245064030267288
 46
2.245064030267287
 79
     0
 53
44.99999999999999
 43
-332.4442493773436
 44
955.6598933994914
 45
-2.245064030267287
 46
2.245064030267288
 79
     0
 47
0.1149827854136383
 98
        1
 10
323.0690275919046
 20
453.0681057771364
  0
LWPOLYLINE
  5
3F01
330
18
100
AcDbEntity
  8
V5
  6
AUSGEZOGEN
 48
5.0
100
AcDbPolyline
 90
        4
 70
     1
 43
0.0
 10
309.2326745663418
 20
474.3438694314972
 10
309.2326745663418
 20
438.3438694314973
 10
315.2326745663418
 20
438.3438694314973
 10
315.2326745663418
 20
474.3438694314972
  0
LINE
  5
3F02
330
18
100
AcDbEntity
  8
V25
 62
     4
100
AcDbLine
 10
324.7385156095193
 20
454.4728403773217
 30
0.0
 11
336.660836594097
 21
466.3951613618997
 31
0.0
  0
LWPOLYLINE
  5
3F03
330
18
100
AcDbEntity
  8
V35
100
AcDbPolyline
 90
        2
 70
     1
 43
2.9
 10
307.6826745663418
 20
446.0355133684865
 42
1.0
 10
310.7826745663417
 20
446.0355133684865
 42
1.0
  0
LINE
  5
3F04
330
18
100
AcDbEntity
  8
SV35
  6
AUSGEZOGEN
 48
5.0
100
AcDbLine
 10
309.2326745663418
 20
452.9966732334303
 30
0.0
 11
315.2326745663418
 21
452.9966732334303
 31
0.0
  0
LINE
  5
3F05
330
18
100
AcDbEntity
  8
SV35
  6
AUSGEZOGEN
 48
5.0
100
AcDbLine
 10
309.2326745663418
 20
459.691065629564
 30
0.0
 11
315.2326745663418
 21
459.691065629564
 31
0.0
  0
LINE
  5
3F07
330
18
100
AcDbEntity
  8
V5
100
AcDbLine
 10
324.1780881167897
 20
496.219742514507
 30
0.0
 11
324.1780881167897
 21
607.799702227142
 31
0.0
  0
LINE
  5
3F08
330
18
100
AcDbEntity
  8
V5
100
AcDbLine
 10
328.4629391863987
 20
604.8281726911148
 30
0.0
 11
328.4629391863987
 21
496.3281726911147
 31
0.0
  0
LWPOLYLINE
  5
3F0A
330
18
100
AcDbEntity
  8
3D
  6
VERDECKT
 48
3.0
100
AcDbPolyline
 90
        2
 70
     0
 43
0.0
 10
365.1248807482596
 20
630.738331205044
 42
0.4142135623730951
 10
377.1248807482596
 20
618.738331205044
 42
0.4142135623730951
  0
LINE
  5
3F0B
330
18
100
AcDbEntity
  8
V25
100
AcDbLine
 10
353.9373003576386
 20
629.7239901532684
 30
0.0
 11
353.9373003576386
 21
590.2720779618038
 31
0.0
  0
LWPOLYLINE
  5
3F0C
330
18
100
AcDbEntity
  8
3D
  6
VERDECKT
 48
3.0
100
AcDbPolyline
 90
        2
 70
     0
 43
0.0
 10
341.12488074826
 20
630.738331205044
 42
0.4142135623730951
 10
353.12488074826
 20
618.738331205044
 42
0.4142135623730951
  0
LWPOLYLINE
  5
3F0D
330
18
100
AcDbEntity
  8
3D
  6
VERDECKT
 48
3.0
100
AcDbPolyline
 90
        2
 70
     0
 43
0.0
 10
365.1248807482596
 20
630.738331205044
 42
0.4142135623730951
 10
377.1248807482596
 20
618.738331205044
 42
0.4142135623730951
  0
ARC
  5
3F0E
330
18
100
AcDbEntity
  8
3D
  6
VERDECKT
 48
3.0
100
AcDbCircle
 10
353.1248807482596
 20
630.7383312050437
 30
0.0
 40
11.99999999999977
100
AcDbArc
 50
270.0
 51
0.0
  0
LINE
  5
3F0F
330
18
100
AcDbEntity
  8
V5
100
AcDbLine
 10
324.1780881167897
 20
607.799702227142
 30
0.0
 11
420.2345993857072
 21
607.7997022271422
 31
0.0
  0
LWPOLYLINE
  5
3F10
330
18
100
AcDbEntity
  8
ISO10TES
100
AcDbPolyline
 90
        2
 70
     0
 43
0.0
 10
413.1248807482584
 20
630.738331205044
 42
0.4142135623730951
 10
425.1248807482584
 20
618.738331205044
 42
0.4142135623730951
  0
ARC
  5
3F11
330
18
100
AcDbEntity
  8
3D
  6
VERDECKT
 48
3.0
100
AcDbCircle
 10
377.1248807482591
 20
630.7383312050437
 30
0.0
 40
11.99999999999977
100
AcDbArc
 50
270.0
 51
0.0
  0
LWPOLYLINE
  5
3F12
330
18
100
AcDbEntity
  8
3D
  6
VERDECKT
 48
3.0
100
AcDbPolyline
 90
        2
 70
     0
 43
0.0
 10
389.1248807482591
 20
630.738331205044
 42
0.4142135623730951
 10
401.1248807482591
 20
618.738331205044
 42
0.4142135623730951
  0
ARC
  5
3F13
330
18
100
AcDbEntity
  8
ISO10TES
100
AcDbCircle
 10
401.1248807482586
 20
630.7383312050437
 30
0.0
 40
11.99999999999977
100
AcDbArc
 50
270.0
 51
0.0
  0
ARC
  5
3F14
330
18
100
AcDbEntity
  8
ISO10TES
100
AcDbCircle
 10
425.1248807482579
 20
630.7383312050437
 30
0.0
 40
11.99999999999977
100
AcDbArc
 50
270.0
 51
0.0
  0
LWPOLYLINE
  5
3F15
330
18
100
AcDbEntity
  8
ISO10TES
100
AcDbPolyline
 90
        2
 70
     0
 43
0.0
 10
437.1248807482579
 20
630.738331205044
 42
0.4142135623730951
 10
449.124880748258
 20
618.738331205044
 42
0.4142135623730951
  0
LWPOLYLINE
  5
3F16
330
18
100
AcDbEntity
  8
ISO10TES
100
AcDbPolyline
 90
        2
 70
     0
 43
0.0
 10
446.6012967893248
 20
619.0066849436613
 42
0.053019708596025
 10
449.1248807482581
 20
618.738331205044
 42
0.4142135623730951
  0
INSERT
  5
3F17
330
18
100
AcDbEntity
  8
3D
  6
VERDECKT
 48
3.0
100
AcDbBlockReference
  2
e140
 10
364.9324317280266
 20
620.6331177093765
 30
0.0
  0
ARC
  5
3F18
330
18
100
AcDbEntity
  8
ISO10TES
100
AcDbCircle
 10
557.1248807482559
 20
744.6857578532918
 30
0.0
 40
12.0
100
AcDbArc
 50
90.0
 51
180.0
  0
ARC
  5
3F19
330
18
100
AcDbEntity
  8
ISO10TES
100
AcDbCircle
 10
773.1248807482516
 20
744.6857578532918
 30
0.0
 40
12.0
100
AcDbArc
 50
0.0
 51
90.0
  0
ARC
  5
3F1A
330
18
100
AcDbEntity
  8
ISO10TES
100
AcDbCircle
 10
797.1248807482516
 20
744.6857578532918
 30
0.0
 40
12.0
100
AcDbArc
 50
90.0
 51
180.0
  0
ARC
  5
3F1B
330
18
100
AcDbEntity
  8
ISO10TES
100
AcDbCircle
 10
653.124880748254
 20
744.6857578532918
 30
0.0
 40
12.0
100
AcDbArc
 50
0.0
 51
90.0
  0
ARC
  5
3F1C
330
18
100
AcDbEntity
  8
ISO10TES
100
AcDbCircle
 10
677.1248807482536
 20
744.6857578532918
 30
0.0
 40
12.0
100
AcDbArc
 50
90.0
 51
180.0
  0
ARC
  5
3F1D
330
18
100
AcDbEntity
  8
ISO10TES
100
AcDbCircle
 10
605.124880748255
 20
744.6857578532918
 30
0.0
 40
12.0
100
AcDbArc
 50
90.0
 51
180.0
  0
ARC
  5
3F1E
330
18
100
AcDbEntity
  8
ISO10TES
100
AcDbCircle
 10
557.1248807482559
 20
744.6857578532918
 30
0.0
 40
12.0
100
AcDbArc
 50
0.0
 51
90.0
  0
ARC
  5
3F1F
330
18
100
AcDbEntity
  8
ISO10TES
100
AcDbCircle
 10
581.1248807482554
 20
744.6857578532918
 30
0.0
 40
12.0
100
AcDbArc
 50
0.0
 51
90.0
  0
ARC
  5
3F20
330
18
100
AcDbEntity
  8
ISO10TES
100
AcDbCircle
 10
581.1248807482554
 20
744.6857578532918
 30
0.0
 40
12.0
100
AcDbArc
 50
90.0
 51
180.0
  0
ARC
  5
3F21
330
18
100
AcDbEntity
  8
ISO10TES
100
AcDbCircle
 10
605.124880748255
 20
744.6857578532918
 30
0.0
 40
12.0
100
AcDbArc
 50
0.0
 51
90.0
  0
ARC
  5
3F22
330
18
100
AcDbEntity
  8
ISO10TES
100
AcDbCircle
 10
629.1248807482546
 20
744.6857578532918
 30
0.0
 40
12.0
100
AcDbArc
 50
0.0
 51
90.0
  0
ARC
  5
3F23
330
18
100
AcDbEntity
  8
ISO10TES
100
AcDbCircle
 10
629.1248807482546
 20
744.6857578532918
 30
0.0
 40
12.0
100
AcDbArc
 50
90.0
 51
180.0
  0
ARC
  5
3F24
330
18
100
AcDbEntity
  8
ISO10TES
100
AcDbCircle
 10
653.124880748254
 20
744.6857578532918
 30
0.0
 40
12.0
100
AcDbArc
 50
90.0
 51
180.0
  0
ARC
  5
3F25
330
18
100
AcDbEntity
  8
ISO10TES
100
AcDbCircle
 10
725.1248807482527
 20
744.6857578532918
 30
0.0
 40
12.0
100
AcDbArc
 50
0.0
 51
90.0
  0
ARC
  5
3F26
330
18
100
AcDbEntity
  8
ISO10TES
100
AcDbCircle
 10
677.1248807482536
 20
744.6857578532918
 30
0.0
 40
12.0
100
AcDbArc
 50
0.0
 51
90.0
  0
ARC
  5
3F27
330
18
100
AcDbEntity
  8
ISO10TES
100
AcDbCircle
 10
701.1248807482531
 20
744.6857578532918
 30
0.0
 40
12.0
100
AcDbArc
 50
90.0
 51
180.0
  0
ARC
  5
3F28
330
18
100
AcDbEntity
  8
ISO10TES
100
AcDbCircle
 10
701.1248807482531
 20
744.6857578532918
 30
0.0
 40
12.0
100
AcDbArc
 50
0.0
 51
90.0
  0
ARC
  5
3F29
330
18
100
AcDbEntity
  8
3D
100
AcDbCircle
 10
725.1248807482527
 20
744.6857578532918
 30
0.0
 40
12.0
100
AcDbArc
 50
142.0445519943484
 51
180.0
  0
ARC
  5
3F2A
330
18
100
AcDbEntity
  8
3D
100
AcDbCircle
 10
725.1248807482527
 20
744.6857578532918
 30
0.0
 40
12.0
100
AcDbArc
 50
90.0
 51
180.0
  0
ARC
  5
3F2B
330
18
100
AcDbEntity
  8
ISO10TES
100
AcDbCircle
 10
749.1248807482524
 20
744.6857578532918
 30
0.0
 40
12.0
100
AcDbArc
 50
0.0
 51
90.0
  0
ARC
  5
3F2C
330
18
100
AcDbEntity
  8
ISO10TES
100
AcDbCircle
 10
749.1248807482524
 20
744.6857578532918
 30
0.0
 40
12.0
100
AcDbArc
 50
90.0
 51
180.0
  0
ARC
  5
3F2D
330
18
100
AcDbEntity
  8
ISO10TES
100
AcDbCircle
 10
773.1248807482516
 20
744.6857578532918
 30
0.0
 40
12.0
100
AcDbArc
 50
90.0
 51
180.0
  0
ARC
  5
3F2E
330
18
100
AcDbEntity
  8
ISO10TES
100
AcDbCircle
 10
797.1248807482516
 20
744.6857578532918
 30
0.0
 40
12.0
100
AcDbArc
 50
0.0
 51
90.0
  0
ARC
  5
3F2F
330
18
100
AcDbEntity
  8
ISO10TES
100
AcDbCircle
 10
821.1248807482506
 20
744.6857578532918
 30
0.0
 40
12.0
100
AcDbArc
 50
90.0
 51
180.0
  0
LINE
  5
3F31
330
18
100
AcDbEntity
  8
V25
 62
     4
100
AcDbLine
 10
513.4375318907341
 20
360.3291441839177
 30
0.0
 11
524.7385156095192
 21
371.630127902703
 31
0.0
  0
LINE
  5
3F32
330
18
100
AcDbEntity
  8
V25
 62
     4
100
AcDbLine
 10
363.1773408885927
 20
351.4903094190859
 30
0.0
 11
380.8550104182564
 21
369.1679789487496
 31
0.0
  0
LINE
  5
3F33
330
18
100
AcDbEntity
  8
V25
 62
     4
100
AcDbLine
 10
374.8034236821254
 20
257.0503749753091
 30
0.0
 11
524.7385156095192
 21
406.9854669027027
 31
0.0
  0
LINE
  5
3F34
330
18
100
AcDbEntity
  8
V5
100
AcDbLine
 10
524.7385156095192
 20
257.0503749753091
 30
0.0
 11
524.7385156095192
 21
492.4670926598707
 31
0.0
  0
LINE
  5
3F35
330
18
100
AcDbEntity
  8
V25
 62
     4
100
AcDbLine
 10
480.86944080078
 20
257.0503749753091
 30
0.0
 11
486.9210275962384
 21
263.1019617707673
 31
0.0
  0
LINE
  5
3F36
330
18
100
AcDbEntity
  8
V25
 62
     4
100
AcDbLine
 10
410.1587626821253
 20
257.0503749753091
 30
0.0
 11
425.0491842424155
 21
271.9407965355991
 31
0.0
  0
LINE
  5
3F37
330
18
100
AcDbEntity
  8
V25
 62
     4
100
AcDbLine
 10
516.2247799194349
 20
257.0503749753091
 30
0.0
 11
524.7385156095192
 21
265.5641106653933
 31
0.0
  0
LINE
  5
3F38
330
18
100
AcDbEntity
  8
V25
 62
     4
100
AcDbLine
 10
445.5141018007802
 20
257.0503749753091
 30
0.0
 11
524.7385156095192
 21
336.274788784048
 31
0.0
  0
LINE
  5
3F39
330
18
100
AcDbEntity
  8
V25
 62
     4
100
AcDbLine
 10
372.0161756534244
 20
289.6184660652629
 30
0.0
 11
389.6938451830883
 21
307.2961355949266
 31
0.0
  0
LINE
  5
3F3A
330
18
100
AcDbEntity
  8
V25
 62
     4
100
AcDbLine
 10
398.5326799479201
 20
316.1349703597584
 30
0.0
 11
416.2103494775838
 21
333.8126398894222
 31
0.0
  0
LINE
  5
3F3B
330
18
100
AcDbEntity
  8
V25
 62
     4
100
AcDbLine
 10
460.4045233017429
 20
307.2961355949266
 30
0.0
 11
478.0821928314066
 21
324.9738051245903
 31
0.0
  0
LINE
  5
3F3C
330
18
100
AcDbEntity
  8
V25
 62
     4
100
AcDbLine
 10
433.8880190072472
 20
280.779631300431
 30
0.0
 11
451.5656885369112
 21
298.4573008300947
 31
0.0
  0
LINE
  5
3F3D
330
18
100
AcDbEntity
  8
V25
 62
     4
100
AcDbLine
 10
495.7598623610701
 20
271.9407965355992
 30
0.0
 11
513.4375318907341
 21
289.618466065263
 31
0.0
  0
LINE
  5
3F3E
330
18
100
AcDbEntity
  8
V25
 62
     4
100
AcDbLine
 10
522.2763666555659
 20
298.4573008300947
 30
0.0
 11
524.7385156095192
 21
300.9194497840481
 31
0.0
  0
LINE
  5
3F3F
330
18
100
AcDbEntity
  8
V25
 62
     4
100
AcDbLine
 10
425.0491842424158
 20
342.651474654254
 30
0.0
 11
442.7268537720792
 21
360.3291441839177
 31
0.0
  0
LINE
  5
3F40
330
18
100
AcDbEntity
  8
V25
 62
     4
100
AcDbLine
 10
486.9210275962386
 20
333.8126398894222
 30
0.0
 11
504.5986971259021
 21
351.4903094190859
 31
0.0
  0
INSERT
  5
3F41
330
18
100
AcDbEntity
  8
V25
100
AcDbBlockReference
  2
HALFEN
 10
424.5998265503028
 20
492.5146510675765
 30
0.0
  0
LINE
  5
3F42
330
18
100
AcDbEntity
  8
V25
 62
     4
100
AcDbLine
 10
469.2433580665749
 20
457.556326597068
 30
0.0
 11
486.9210275962386
 21
475.2339961267317
 31
0.0
  0
LINE
  5
3F43
330
18
100
AcDbEntity
  8
V25
 62
     4
100
AcDbLine
 10
416.2103494775838
 20
404.5233180080769
 30
0.0
 11
433.8880190072475
 21
422.2009875377406
 31
0.0
  0
LINE
  5
3F44
330
18
100
AcDbEntity
  8
V25
 62
     4
100
AcDbLine
 10
354.3385061237609
 20
413.3621527729086
 30
0.0
 11
372.0161756534244
 21
431.0398223025723
 31
0.0
  0
LINE
  5
3F45
330
18
100
AcDbEntity
  8
V25
 62
     4
100
AcDbLine
 10
389.6938451830883
 20
378.0068137135813
 30
0.0
 11
407.3715147127518
 21
395.684483243245
 31
0.0
  0
LINE
  5
3F46
330
18
100
AcDbEntity
  8
V25
 62
     4
100
AcDbLine
 10
380.8550104182564
 20
439.8786570674042
 30
0.0
 11
398.5326799479201
 21
457.5563265970679
 31
0.0
  0
LINE
  5
3F47
330
18
100
AcDbEntity
  8
V25
 62
     4
100
AcDbLine
 10
478.0821928314066
 20
395.6844832432452
 30
0.0
 11
495.7598623610706
 21
413.3621527729088
 31
0.0
  0
LINE
  5
3F48
330
18
100
AcDbEntity
  8
V25
 62
     4
100
AcDbLine
 10
451.5656885369112
 20
369.1679789487496
 30
0.0
 11
469.2433580665749
 21
386.8456484784133
 31
0.0
  0
LINE
  5
3F49
330
18
100
AcDbEntity
  8
V25
 62
     4
100
AcDbLine
 10
442.7268537720792
 20
431.0398223025725
 30
0.0
 11
460.4045233017432
 21
448.7174918322361
 31
0.0
  0
LINE
  5
3F4A
330
18
100
AcDbEntity
  8
V25
 62
     4
100
AcDbLine
 10
504.5986971259024
 20
422.2009875377407
 30
0.0
 11
522.276366655566
 21
439.8786570674044
 31
0.0
  0
INSERT
  5
3F4B
330
18
100
AcDbEntity
  8
V25
100
AcDbBlockReference
  2
*X2
 10
29.7998160864945
 20
39.01388673260795
 30
0.0
  0
LINE
  5
3F4C
330
18
100
AcDbEntity
  8
V25
 62
     4
100
AcDbLine
 10
455.9420436978926
 20
479.6103512283857
 30
0.0
 11
468.7987851293776
 21
492.4670926598707
 31
0.0
  0
LINE
  5
3F4D
330
18
100
AcDbEntity
  8
V25
100
AcDbLine
 10
424.5820380761874
 20
466.5342226727059
 30
0.0
 11
424.5820380761874
 21
505.705368358703
 31
0.0
  0
LINE
  5
3F4E
330
18
100
AcDbEntity
  8
V25
100
AcDbLine
 10
424.5820380761874
 20
468.48273580201
 30
0.0
 11
424.5820380761874
 21
507.6538814880072
 31
0.0
  0
LINE
  5
3F4F
330
18
100
AcDbEntity
  8
V25
 62
     4
100
AcDbLine
 10
495.7598623610706
 20
484.0728308915636
 30
0.0
 11
504.1541241293775
 21
492.4670926598707
 31
0.0
  0
LINE
  5
3F50
330
18
100
AcDbEntity
  8
V25
 62
     4
100
AcDbLine
 10
324.7385156095193
 20
277.6961450213576
 30
0.0
 11
524.7385156095192
 21
477.6961450213575
 31
0.0
  0
LINE
  5
3F51
330
18
100
AcDbEntity
  8
ACHS
 62
     3
 48
3.5
100
AcDbLine
 10
178.6589593863273
 20
257.0503749753091
 30
0.0
 11
541.2283875150658
 21
257.0503749753091
 31
0.0
  0
LINE
  5
3F52
330
18
100
AcDbEntity
  8
V25
 62
     4
100
AcDbLine
 10
345.4996713589289
 20
263.1019617707673
 30
0.0
 11
363.1773408885927
 21
280.779631300431
 31
0.0
  0
LINE
  5
3F53
330
18
100
AcDbEntity
  8
V25
 62
     4
100
AcDbLine
 10
336.660836594097
 20
324.9738051245902
 30
0.0
 11
354.3385061237609
 21
342.6514746542539
 31
0.0
  0
LINE
  5
3F54
330
18
100
AcDbEntity
  8
V25
 62
     4
100
AcDbLine
 10
324.7385156095193
 20
348.4068231400123
 30
0.0
 11
442.4791414868659
 21
466.1474490173591
 31
0.0
  0
LINE
  5
3F55
330
18
100
AcDbEntity
  8
V25
 62
     4
100
AcDbLine
 10
324.7385156095193
 20
419.117501258667
 30
0.0
 11
398.0881070107228
 21
492.4670926598707
 31
0.0
  0
LINE
  5
3F56
330
18
100
AcDbEntity
  8
V25
 62
     4
100
AcDbLine
 10
327.8220018292652
 20
386.8456484784131
 30
0.0
 11
345.4996713589289
 21
404.5233180080767
 31
0.0
  0
LINE
  5
3F57
330
18
100
AcDbEntity
  8
V25
 62
     4
100
AcDbLine
 10
324.7385156095193
 20
454.4728403773217
 30
0.0
 11
336.660836594097
 21
466.3951613618997
 31
0.0
  0
LINE
  5
3F58
330
18
100
AcDbEntity
  8
V25
 62
     4
100
AcDbLine
 10
345.4996713589289
 20
474.6877007836323
 30
0.0
 11
362.7327678920681
 21
491.9207973167715
 31
0.0
  0
LINE
  5
3F59
330
18
100
AcDbEntity
  8
V5
100
AcDbLine
 10
324.7385156095193
 20
257.0503749753091
 30
0.0
 11
324.7385156095193
 21
492.4670926598707
 31
0.0
  0
LINE
  5
3F5A
330
18
100
AcDbEntity
  8
V5
100
AcDbLine
 10
324.7385156095193
 20
492.4670926598707
 30
0.0
 11
524.7385156095192
 21
492.4670926598707
 31
0.0
  0
LINE
  5
3F5B
330
18
100
AcDbEntity
  8
V25
 62
     4
100
AcDbLine
 10
324.7385156095193
 20
489.8281793773219
 30
0.0
 11
327.3774288920681
 21
492.4670926598707
 31
0.0
  0
INSERT
  5
3F5D
330
18
100
AcDbEntity
  8
TXT-D
100
AcDbBlockReference
  2
wädä
 10
313.3632086837514
 20
270.2118578191039
 30
0.0
 41
1.079999999999927
 42
1.079999999999927
 43
1.079999999999927
  0
ARC
  5
3F5F
330
18
100
AcDbEntity
  8
ISO10TES
100
AcDbCircle
 10
245.9426311445868
 20
260.8806578191034
 30
0.0
 40
9.331199999999618
100
AcDbArc
 50
90.0
 51
180.0
  0
LWPOLYLINE
  5
3F60
330
18
100
AcDbEntity
  8
0
100
AcDbPolyline
 90
        4
 70
     0
 43
0.0
 10
207.3395490503862
 20
329.314556411413
 42
0.2243326451183195
 10
198.3395490503862
 20
310.2645564114131
 42
0.2243326451183195
 10
207.3395490503862
 20
291.2145564114132
 42
-0.4059225485678908
 10
211.1651862076267
 20
257.0503749753091
 42
-0.4059225485678908
  0
LWPOLYLINE
  5
3F61
330
18
100
AcDbEntity
  8
ISO10TES
100
AcDbPolyline
 90
        2
 70
     0
 43
0.0
 10
248.044808683754
 20
288.8742578191036
 10
304.0320105862674
 20
298.2054578191032
  0
LINE
  5
3F63
330
18
100
AcDbEntity
  8
ISO10TES
100
AcDbLine
 10
304.0320105862674
 20
279.5430578191042
 30
0.0
 11
248.0448086837539
 21
288.874257819104
 31
0.0
  0
ARC
  5
3F64
330
18
100
AcDbEntity
  8
ISO10TES
100
AcDbCircle
 10
248.0448086837541
 20
298.2054578191033
 30
0.0
 40
9.331199999999618
100
AcDbArc
 50
90.0
 51
180.0
  0
ARC
  5
3F65
330
18
100
AcDbEntity
  8
ISO10TES
100
AcDbCircle
 10
248.0448086837541
 20
298.2054578191033
 30
0.0
 40
9.331199999999618
100
AcDbArc
 50
180.0
 51
270.0
  0
LWPOLYLINE
  5
3F66
330
18
100
AcDbEntity
  8
ISO10TES
100
AcDbPolyline
 90
        2
 70
     0
 43
0.0
 10
304.0320086837518
 20
298.2054578191034
 42
-0.4142135623730951
 10
313.3632086837514
 20
288.8742578191038
 42
-0.4142135623730951
  0
ARC
  5
3F67
330
18
100
AcDbEntity
  8
ISO10TES
100
AcDbCircle
 10
304.032008683752
 20
288.874257819104
 30
0.0
 40
9.331199999999441
100
AcDbArc
 50
270.0
 51
0.0
  0
LWPOLYLINE
  5
3F68
330
18
100
AcDbEntity
  8
ISO10TES
100
AcDbPolyline
 90
        2
 70
     0
 43
0.0
 10
250.146986222923
 20
307.5366578191041
 10
306.1341881254364
 20
316.8678578191036
  0
LINE
  5
3F69
330
18
100
AcDbEntity
  8
ISO10TES
100
AcDbLine
 10
306.1341881254364
 20
316.8678578191036
 30
0.0
 11
250.1469862229228
 21
326.1990578191033
 31
0.0
  0
ARC
  5
3F6B
330
18
100
AcDbEntity
  8
ISO10TES
100
AcDbCircle
 10
250.146986222923
 20
316.8678578191038
 30
0.0
 40
9.331199999999618
100
AcDbArc
 50
90.0
 51
180.0
  0
ARC
  5
3F6C
330
18
100
AcDbEntity
  8
ISO10TES
100
AcDbCircle
 10
250.146986222923
 20
316.8678578191038
 30
0.0
 40
9.331199999999618
100
AcDbArc
 50
180.0
 51
270.0
  0
LWPOLYLINE
  5
3F6D
330
18
100
AcDbEntity
  8
ISO10TES
100
AcDbPolyline
 90
        2
 70
     0
 43
0.0
 10
306.1341862229208
 20
316.8678578191038
 42
-0.4142135623730951
 10
315.4653862229204
 20
307.5366578191042
 42
-0.4142135623730951
  0
ARC
  5
3F6E
330
18
100
AcDbEntity
  8
ISO10TES
100
AcDbCircle
 10
306.134186222921
 20
307.5366578191045
 30
0.0
 40
9.331199999999441
100
AcDbArc
 50
270.0
 51
0.0
  0
ARC
  5
3F70
330
18
100
AcDbEntity
  8
ISO10TES
100
AcDbCircle
 10
305.6538069563905
 20
438.0933942936493
 30
0.0
 40
9.331199999999441
100
AcDbArc
 50
270.0
 51
0.0
  0
LWPOLYLINE
  5
3F71
330
18
100
AcDbEntity
  8
ISO10TES
100
AcDbPolyline
 90
        2
 70
     0
 43
0.0
 10
305.6538069563905
 20
428.7621942936499
 42
-0.4142135623730951
 10
314.9850069563902
 20
419.4309942936503
 42
-0.4142135623730951
  0
ARC
  5
3F72
330
18
100
AcDbEntity
  8
ISO10TES
100
AcDbCircle
 10
305.6538069563905
 20
419.5911213445569
 30
0.0
 40
9.331199999999441
100
AcDbArc
 50
270.0
 51
0.0
  0
LWPOLYLINE
  5
3F73
330
18
100
AcDbEntity
  8
ISO10TES
100
AcDbPolyline
 90
        2
 70
     0
 43
0.0
 10
305.6538069563905
 20
410.2599213445574
 42
-0.4142135623730951
 10
314.9850069563902
 20
400.9287213445579
 42
-0.4142135623730951
  0
LWPOLYLINE
  5
3F75
330
18
100
AcDbEntity
  8
ISO10TES
100
AcDbPolyline
 90
        2
 70
     0
 43
0.0
 10
250.146986222923
 20
456.8358578191036
 10
306.1341881254364
 20
466.167057819103
  0
LINE
  5
3F76
330
18
100
AcDbEntity
  8
ISO10TES
100
AcDbLine
 10
306.1341881254364
 20
466.167057819103
 30
0.0
 11
250.1469862229228
 21
475.4982578191027
 31
0.0
  0
LINE
  5
3F77
330
18
100
AcDbEntity
  8
ISO10TES
100
AcDbLine
 10
306.1341881254364
 20
447.504657819104
 30
0.0
 11
250.1469862229228
 21
456.8358578191038
 31
0.0
  0
ARC
  5
3F78
330
18
100
AcDbEntity
  8
ISO10TES
100
AcDbCircle
 10
250.146986222923
 20
466.1670578191031
 30
0.0
 40
9.331199999999618
100
AcDbArc
 50
90.0
 51
180.0
  0
ARC
  5
3F79
330
18
100
AcDbEntity
  8
ISO10TES
100
AcDbCircle
 10
250.146986222923
 20
466.1670578191031
 30
0.0
 40
9.331199999999618
100
AcDbArc
 50
180.0
 51
270.0
  0
LINE
  5
3F8D
330
18
100
AcDbEntity
  8
3D
  6
VERDECKT
 48
5.0
100
AcDbLine
 10
332.4539228998594
 20
711.8566461900777
 30
0.0
 11
313.9778417166638
 21
711.8566461900777
 31
0.0
  0
ARC
  5
3F90
330
18
100
AcDbEntity
  8
ISO10TES
100
AcDbCircle
 10
437.1248807482581
 20
744.6857578532918
 30
0.0
 40
12.0
100
AcDbArc
 50
0.0
 51
90.0
  0
ARC
  5
3F91
330
18
100
AcDbEntity
  8
ISO10TES
100
AcDbCircle
 10
437.1248807482581
 20
744.6857578532918
 30
0.0
 40
12.0
100
AcDbArc
 50
90.0
 51
180.0
  0
ARC
  5
3F92
330
18
100
AcDbEntity
  8
ISO10TES
100
AcDbCircle
 10
461.1248807482577
 20
744.6857578532918
 30
0.0
 40
12.0
100
AcDbArc
 50
0.0
 51
90.0
  0
ARC
  5
3F93
330
18
100
AcDbEntity
  8
ISO10TES
100
AcDbCircle
 10
461.1248807482577
 20
744.6857578532918
 30
0.0
 40
12.0
100
AcDbArc
 50
90.0
 51
180.0
  0
ARC
  5
3F94
330
18
100
AcDbEntity
  8
ISO10TES
100
AcDbCircle
 10
509.1248807482568
 20
744.6857578532918
 30
0.0
 40
12.0
100
AcDbArc
 50
0.0
 51
90.0
  0
ARC
  5
3F95
330
18
100
AcDbEntity
  8
ISO10TES
100
AcDbCircle
 10
509.1248807482568
 20
744.6857578532918
 30
0.0
 40
12.0
100
AcDbArc
 50
90.0
 51
180.0
  0
ARC
  5
3F96
330
18
100
AcDbEntity
  8
ISO10TES
100
AcDbCircle
 10
485.1248807482573
 20
744.6857578532918
 30
0.0
 40
12.0
100
AcDbArc
 50
0.0
 51
90.0
  0
ARC
  5
3F97
330
18
100
AcDbEntity
  8
ISO10TES
100
AcDbCircle
 10
485.1248807482573
 20
744.6857578532918
 30
0.0
 40
12.0
100
AcDbArc
 50
90.0
 51
180.0
  0
ARC
  5
3F98
330
18
100
AcDbEntity
  8
ISO10TES
100
AcDbCircle
 10
533.1248807482563
 20
744.6857578532918
 30
0.0
 40
12.0
100
AcDbArc
 50
90.0
 51
180.0
  0
ARC
  5
3F99
330
18
100
AcDbEntity
  8
ISO10TES
100
AcDbCircle
 10
533.1248807482563
 20
744.6857578532918
 30
0.0
 40
12.0
100
AcDbArc
 50
0.0
 51
90.0
  0
ARC
  5
3F9A
330
18
100
AcDbEntity
  8
ISO10TES
100
AcDbCircle
 10
341.12488074826
 20
744.6857578532918
 30
0.0
 40
12.0
100
AcDbArc
 50
90.0
 51
180.0
  0
ARC
  5
3F9F
330
18
100
AcDbEntity
  8
ISO10TES
100
AcDbCircle
 10
389.1248807482591
 20
744.6857578532918
 30
0.0
 40
12.0
100
AcDbArc
 50
0.0
 51
90.0
  0
ARC
  5
3FA0
330
18
100
AcDbEntity
  8
ISO10TES
100
AcDbCircle
 10
389.1248807482591
 20
744.6857578532918
 30
0.0
 40
12.0
100
AcDbArc
 50
90.0
 51
180.0
  0
ARC
  5
3FA1
330
18
100
AcDbEntity
  8
ISO10TES
100
AcDbCircle
 10
341.12488074826
 20
744.6857578532918
 30
0.0
 40
12.0
100
AcDbArc
 50
0.0
 51
90.0
  0
ARC
  5
3FA2
330
18
100
AcDbEntity
  8
ISO10TES
100
AcDbCircle
 10
365.1248807482596
 20
744.6857578532918
 30
0.0
 40
12.0
100
AcDbArc
 50
90.0
 51
180.0
  0
ARC
  5
3FA3
330
18
100
AcDbEntity
  8
ISO10TES
100
AcDbCircle
 10
365.1248807482596
 20
744.6857578532918
 30
0.0
 40
12.0
100
AcDbArc
 50
0.0
 51
90.0
  0
ARC
  5
3FA4
330
18
100
AcDbEntity
  8
ISO10TES
100
AcDbCircle
 10
413.1248807482586
 20
744.6857578532918
 30
0.0
 40
12.0
100
AcDbArc
 50
90.0
 51
180.0
  0
ARC
  5
3FA5
330
18
100
AcDbEntity
  8
ISO10TES
100
AcDbCircle
 10
413.1248807482586
 20
744.6857578532918
 30
0.0
 40
12.0
100
AcDbArc
 50
0.0
 51
90.0
  0
ARC
  5
3FA6
330
18
100
AcDbEntity
  8
ISO10TES
100
AcDbCircle
 10
449.1248807482575
 20
630.7383312050437
 30
0.0
 40
11.99999999999977
100
AcDbArc
 50
270.0
 51
0.0
  0
LWPOLYLINE
  5
3FA7
330
18
100
AcDbEntity
  8
ISO10TES
100
AcDbPolyline
 90
        2
 70
     0
 43
0.0
 10
461.1248807482574
 20
630.738331205044
 42
0.4142135623730951
 10
473.1248807482574
 20
618.738331205044
 42
0.4142135623730951
  0
ARC
  5
3FA8
330
18
100
AcDbEntity
  8
ISO10TES
100
AcDbCircle
 10
473.124880748257
 20
630.7383312050437
 30
0.0
 40
11.99999999999977
100
AcDbArc
 50
270.0
 51
0.0
  0
LWPOLYLINE
  5
3FA9
330
18
100
AcDbEntity
  8
ISO10TES
100
AcDbPolyline
 90
        2
 70
     0
 43
0.0
 10
485.124880748257
 20
630.738331205044
 42
0.4142135623730951
 10
497.124880748257
 20
618.738331205044
 42
0.4142135623730951
  0
ARC
  5
3FAA
330
18
100
AcDbEntity
  8
ISO10TES
100
AcDbCircle
 10
497.1248807482566
 20
630.7383312050437
 30
0.0
 40
11.99999999999977
100
AcDbArc
 50
270.0
 51
0.0
  0
LWPOLYLINE
  5
3FAB
330
18
100
AcDbEntity
  8
ISO10TES
100
AcDbPolyline
 90
        2
 70
     0
 43
0.0
 10
509.1248807482563
 20
630.738331205044
 42
0.4142135623730951
 10
521.1248807482563
 20
618.738331205044
 42
0.4142135623730951
  0
ARC
  5
3FAC
330
18
100
AcDbEntity
  8
ISO10TES
100
AcDbCircle
 10
521.1248807482559
 20
630.7383312050437
 30
0.0
 40
11.99999999999977
100
AcDbArc
 50
270.0
 51
0.0
  0
LWPOLYLINE
  5
3FAD
330
18
100
AcDbEntity
  8
ISO10TES
100
AcDbPolyline
 90
        2
 70
     0
 43
0.0
 10
533.1248807482559
 20
630.738331205044
 42
0.4142135623730951
 10
545.1248807482559
 20
618.738331205044
 42
0.4142135623730951
  0
ARC
  5
3FAE
330
18
100
AcDbEntity
  8
ISO10TES
100
AcDbCircle
 10
545.1248807482555
 20
630.7383312050437
 30
0.0
 40
11.99999999999977
100
AcDbArc
 50
270.0
 51
0.0
  0
LWPOLYLINE
  5
3FAF
330
18
100
AcDbEntity
  8
ISO10TES
100
AcDbPolyline
 90
        2
 70
     0
 43
0.0
 10
557.1248807482554
 20
630.738331205044
 42
0.4142135623730951
 10
569.1248807482554
 20
618.738331205044
 42
0.4142135623730951
  0
ARC
  5
3FB0
330
18
100
AcDbEntity
  8
ISO10TES
100
AcDbCircle
 10
569.124880748255
 20
630.7383312050437
 30
0.0
 40
11.99999999999977
100
AcDbArc
 50
270.0
 51
0.0
  0
LWPOLYLINE
  5
3FB1
330
18
100
AcDbEntity
  8
ISO10TES
100
AcDbPolyline
 90
        2
 70
     0
 43
0.0
 10
581.124880748255
 20
630.738331205044
 42
0.4142135623730951
 10
593.124880748255
 20
618.738331205044
 42
0.4142135623730951
  0
ARC
  5
3FB2
330
18
100
AcDbEntity
  8
ISO10TES
100
AcDbCircle
 10
593.1248807482545
 20
630.7383312050437
 30
0.0
 40
11.99999999999977
100
AcDbArc
 50
270.0
 51
0.0
  0
LWPOLYLINE
  5
3FB3
330
18
100
AcDbEntity
  8
ISO10TES
100
AcDbPolyline
 90
        2
 70
     0
 43
0.0
 10
605.1248807482543
 20
630.738331205044
 42
0.4142135623730951
 10
617.1248807482543
 20
618.738331205044
 42
0.4142135623730951
  0
ARC
  5
3FB4
330
18
100
AcDbEntity
  8
ISO10TES
100
AcDbCircle
 10
617.1248807482538
 20
630.7383312050437
 30
0.0
 40
11.99999999999977
100
AcDbArc
 50
270.0
 51
0.0
  0
LWPOLYLINE
  5
3FB5
330
18
100
AcDbEntity
  8
ISO10TES
100
AcDbPolyline
 90
        2
 70
     0
 43
0.0
 10
629.1248807482539
 20
630.738331205044
 42
0.4142135623730951
 10
641.1248807482539
 20
618.738331205044
 42
0.4142135623730951
  0
ARC
  5
3FB6
330
18
100
AcDbEntity
  8
3D
  6
VERDECKT
 48
3.0
100
AcDbCircle
 10
665.1248807482532
 20
630.7383312050437
 30
0.0
 40
11.99999999999977
100
AcDbArc
 50
270.0
 51
0.0
  0
ARC
  5
3FB7
330
18
100
AcDbEntity
  8
ISO10TES
100
AcDbCircle
 10
641.1248807482539
 20
630.7383312050437
 30
0.0
 40
11.99999999999977
100
AcDbArc
 50
270.0
 51
0.0
  0
LWPOLYLINE
  5
3FB8
330
18
100
AcDbEntity
  8
3D
  6
VERDECKT
100
AcDbPolyline
 90
        2
 70
     0
 43
0.0
 10
653.1248807482536
 20
630.738331205044
 42
0.4142135623730951
 10
665.1248807482536
 20
618.738331205044
 42
0.4142135623730951
  0
LINE
  5
3FBC
330
18
100
AcDbEntity
  8
0
  6
ByBlock
 62
     0
100
AcDbLine
 10
160.7850582468175
 20
756.5108880434247
 30
0.0
 11
160.7850582468175
 21
751.8054653068627
 31
0.0
  0
ARC
  5
3FBD
330
18
100
AcDbEntity
  8
0
  6
ByBlock
 62
     0
100
AcDbCircle
 10
164.7371567521211
 20
756.3571509040659
 30
0.0
 40
0.7873371393588059
100
AcDbArc
 50
90.0
 51
270.0
  0
ARC
  5
3FBE
330
18
100
AcDbEntity
  8
0
  6
ByBlock
 62
     0
100
AcDbCircle
 10
163.9530582468176
 20
756.5108880434247
 30
0.0
 40
3.167999999999983
100
AcDbArc
 50
90.0
 51
180.0
  0
ARC
  5
3FBF
330
18
100
AcDbEntity
  8
0
  6
ByBlock
 62
     0
100
AcDbCircle
 10
163.9530582468176
 20
756.5108880434247
 30
0.0
 40
1.900799999999981
100
AcDbArc
 50
90.0
 51
180.0000000000032
  0
LINE
  5
3FC0
330
18
100
AcDbEntity
  8
0
  6
ByBlock
 62
     0
100
AcDbLine
 10
164.7371567521211
 20
757.1444880434246
 30
0.0
 11
172.0841856109557
 21
757.1444880434246
 31
0.0
  0
LINE
  5
3FC1
330
18
100
AcDbEntity
  8
0
  6
ByBlock
 62
     0
100
AcDbLine
 10
172.0841856109557
 20
759.6788880434246
 30
0.0
 11
163.9530582468173
 21
759.6788880434246
 31
0.0
  0
LINE
  5
3FC2
330
18
100
AcDbEntity
  8
0
  6
ByBlock
 62
     0
100
AcDbLine
 10
163.9530582468173
 20
758.4116880434246
 30
0.0
 11
168.3882582468177
 21
758.4116880434246
 31
0.0
  0
ARC
  5
3FC3
330
18
100
AcDbEntity
  8
0
  6
ByBlock
 62
     0
100
AcDbCircle
 10
172.0841856109557
 20
758.4116880434246
 30
0.0
 40
1.267200000000002
100
AcDbArc
 50
270.0
 51
90.0
  0
LINE
  5
3FC4
330
18
100
AcDbEntity
  8
0
  6
ByBlock
 62
     0
100
AcDbLine
 10
173.0114538993846
 20
755.5698137647071
 30
0.0
 11
164.7371567521209
 21
755.5698137647071
 31
0.0
  0
ARC
  5
3FC9
330
18
100
AcDbEntity
  8
V5
  6
Continuous
100
AcDbCircle
 10
342.9741713323088
 20
651.0801265980628
 30
0.0
 40
200.0
100
AcDbArc
 50
148.5033685038497
 51
152.6946952471871
  0
ARC
  5
3FCC
330
18
100
AcDbEntity
  8
3D
  6
VERDECKT
100
AcDbCircle
 10
342.9741713323088
 20
651.0801265980628
 30
0.0
 40
200.0
100
AcDbArc
 50
141.6456243112755
 51
148.1872334094781
  0
LWPOLYLINE
  5
3FCE
330
18
100
AcDbEntity
  8
V5
100
AcDbPolyline
 90
        5
 70
     0
 43
2.0
 10
320.36467021468
 20
682.6729305762296
 10
320.36467021468
 20
752.7041044067341
 10
175.1368311219068
 20
752.7041044067342
 10
165.2592184137644
 20
742.826491698592
 10
165.2592184137644
 20
675.9670965014702
  0
LWPOLYLINE
  5
3FCF
330
18
100
AcDbEntity
  8
V5
100
AcDbPolyline
 90
        3
 70
     0
 43
2.0
 10
446.4210779995783
 20
617.4605876529656
 10
324.854406203551
 20
617.4605876529656
 10
324.854406203551
 20
738.3404513971741
  0
TEXT
  5
3FD0
330
18
100
AcDbEntity
  8
TXT-D
 62
     7
100
AcDbText
 10
682.9925039271952
 20
364.6599818635015
 30
0.0
 40
14.0
  1
trapézový plech
  7
ROMANS
100
AcDbText
  0
TEXT
  5
3FD1
330
18
100
AcDbEntity
  8
TXT-D
 62
     7
100
AcDbText
 10
682.5632657091082
 20
405.7868590820752
 30
0.0
 40
14.0
  1
parotěsná vrstva
  7
ROMANS
100
AcDbText
  0
LINE
  5
3FD2
330
18
100
AcDbEntity
  8
TXT-D
100
AcDbLine
 10
584.6845309632319
 20
535.8052841562448
 30
0.0
 11
584.6845309632319
 21
371.3132534792942
 31
0.0
  0
LINE
  5
3FD3
330
18
100
AcDbEntity
  8
TXT-D
100
AcDbLine
 10
626.8060172098262
 20
411.9521134063869
 30
0.0
 11
626.8060172098262
 21
610.12500757915
 31
0.0
  0
LINE
  5
3FD4
330
18
100
AcDbEntity
  8
TXT-D
100
AcDbLine
 10
677.6375575242982
 20
371.3132534792942
 30
0.0
 11
584.6845309632319
 21
371.3132534792942
 31
0.0
  0
LINE
  5
3FD5
330
18
100
AcDbEntity
  8
TXT-D
100
AcDbLine
 10
677.6375575242982
 20
411.9521134063869
 30
0.0
 11
626.8060172098262
 21
411.9521134063869
 31
0.0
  0
LWPOLYLINE
  5
3FD6
330
18
100
AcDbEntity
  8
V35
100
AcDbPolyline
 90
        2
 70
     1
 43
2.9
 10
583.134530963232
 20
535.8052841562448
 42
1.0
 10
586.2345309632319
 20
535.8052841562448
 42
1.0
  0
LWPOLYLINE
  5
3FD7
330
18
100
AcDbEntity
  8
V35
100
AcDbPolyline
 90
        2
 70
     1
 43
2.9
 10
625.2560172098262
 20
610.12500757915
 42
1.0
 10
628.3560172098262
 20
610.12500757915
 42
1.0
  0
TEXT
  5
3FD8
330
18
100
AcDbEntity
  8
TXT-D
 62
     7
100
AcDbText
 10
694.8317854717588
 20
1048.161786470322
 30
0.0
 40
14.0
  1
alternativa: Al - klipsa
  7
ROMANS
100
AcDbText
  0
TEXT
  5
3FD9
330
18
100
AcDbEntity
  8
TXT-D
 62
     7
100
AcDbText
 10
694.8317854717588
 20
1071.643004709248
 30
0.0
 40
14.0
  1
poplastovaná klipsa*
  7
ROMANS
100
AcDbText
  0
TEXT
  5
3FDA
330
18
100
AcDbEntity
  8
TXT-D
 62
     7
100
AcDbText
 10
796.6638777267116
 20
1027.811399850666
 30
0.0
 40
14.0
  1
s termopodložkou
  7
ROMANS
100
AcDbText
  0
ARC
  5
3FDD
330
18
100
AcDbEntity
  8
ISO10TES
100
AcDbCircle
 10
250.1469862229203
 20
391.5174578191038
 30
0.0
 40
9.331200000000002
100
AcDbArc
 50
180.0
 51
270.0
  0
LINE
  5
3FDE
330
18
100
AcDbEntity
  8
TXT-D
 62
     4
100
AcDbLine
 10
329.12488074826
 20
744.6857578532918
 30
0.0
 11
341.12488074826
 21
630.738331205044
 31
0.0
  0
LINE
  5
3FDF
330
18
100
AcDbEntity
  8
TXT-D
 62
     4
100
AcDbLine
 10
341.12488074826
 20
630.738331205044
 30
0.0
 11
353.1248807482596
 21
744.6857578532918
 31
0.0
  0
LINE
  5
3FE0
330
18
100
AcDbEntity
  8
TXT-D
 62
     4
100
AcDbLine
 10
353.1248807482596
 20
744.6857578532918
 30
0.0
 11
355.3349485041931
 21
723.699796727717
 31
0.0
  0
LINE
  5
3FE1
330
18
100
AcDbEntity
  8
3D
  6
VERDECKT
 48
3.0
100
AcDbLine
 10
365.1248807482596
 20
630.738331205044
 30
0.0
 11
373.7758341656811
 21
712.8844878691313
 31
0.0
  0
LINE
  5
3FE2
330
18
100
AcDbEntity
  8
TXT-D
 62
     4
100
AcDbLine
 10
377.1248807482596
 20
744.6857578532918
 30
0.0
 11
389.1248807482591
 21
630.738331205044
 31
0.0
  0
LINE
  5
3FE3
330
18
100
AcDbEntity
  8
TXT-D
 62
     4
100
AcDbLine
 10
389.1248807482591
 20
630.738331205044
 30
0.0
 11
401.1248807482591
 21
744.6857578532918
 31
0.0
  0
LINE
  5
3FE4
330
18
100
AcDbEntity
  8
TXT-D
 62
     4
100
AcDbLine
 10
401.1248807482591
 20
744.6857578532918
 30
0.0
 11
413.1248807482584
 21
630.738331205044
 31
0.0
  0
LINE
  5
3FE5
330
18
100
AcDbEntity
  8
TXT-D
 62
     4
100
AcDbLine
 10
413.1248807482584
 20
630.738331205044
 30
0.0
 11
425.1248807482586
 21
744.6857578532918
 31
0.0
  0
LINE
  5
3FE6
330
18
100
AcDbEntity
  8
TXT-D
 62
     4
100
AcDbLine
 10
425.1248807482586
 20
744.6857578532918
 30
0.0
 11
436.7397738314828
 21
631.6331177093766
 31
0.0
  0
LINE
  5
3FE7
330
18
100
AcDbEntity
  8
TXT-D
 62
     4
100
AcDbLine
 10
436.7397738314828
 20
631.6331177093766
 30
0.0
 11
449.1248807482577
 21
744.6857578532918
 31
0.0
  0
LINE
  5
3FE8
330
18
100
AcDbEntity
  8
TXT-D
 62
     4
100
AcDbLine
 10
449.1248807482577
 20
744.6857578532918
 30
0.0
 11
461.1248807482577
 21
630.738331205044
 31
0.0
  0
LINE
  5
3FE9
330
18
100
AcDbEntity
  8
TXT-D
 62
     4
100
AcDbLine
 10
461.1248807482577
 20
630.738331205044
 30
0.0
 11
473.1248807482577
 21
744.6857578532918
 31
0.0
  0
LINE
  5
3FEA
330
18
100
AcDbEntity
  8
TXT-D
 62
     4
100
AcDbLine
 10
473.1248807482577
 20
744.6857578532918
 30
0.0
 11
485.1248807482573
 21
630.738331205044
 31
0.0
  0
LINE
  5
3FEB
330
18
100
AcDbEntity
  8
TXT-D
 62
     4
100
AcDbLine
 10
485.1248807482573
 20
630.738331205044
 30
0.0
 11
497.1248807482573
 21
744.6857578532918
 31
0.0
  0
LINE
  5
3FEC
330
18
100
AcDbEntity
  8
TXT-D
 62
     4
100
AcDbLine
 10
497.1248807482573
 20
744.6857578532918
 30
0.0
 11
509.1248807482568
 21
630.738331205044
 31
0.0
  0
LINE
  5
3FED
330
18
100
AcDbEntity
  8
TXT-D
 62
     4
100
AcDbLine
 10
509.1248807482568
 20
630.738331205044
 30
0.0
 11
521.1248807482568
 21
744.6857578532918
 31
0.0
  0
LINE
  5
3FEE
330
18
100
AcDbEntity
  8
TXT-D
 62
     4
100
AcDbLine
 10
521.1248807482568
 20
744.6857578532918
 30
0.0
 11
533.1248807482563
 21
630.738331205044
 31
0.0
  0
LINE
  5
3FEF
330
18
100
AcDbEntity
  8
TXT-D
 62
     4
100
AcDbLine
 10
533.1248807482563
 20
630.738331205044
 30
0.0
 11
545.1248807482559
 21
744.6857578532918
 31
0.0
  0
LINE
  5
3FF0
330
18
100
AcDbEntity
  8
TXT-D
 62
     4
100
AcDbLine
 10
545.1248807482559
 20
744.6857578532918
 30
0.0
 11
557.1248807482559
 21
630.738331205044
 31
0.0
  0
LINE
  5
3FF1
330
18
100
AcDbEntity
  8
TXT-D
 62
     4
100
AcDbLine
 10
557.1248807482559
 20
630.738331205044
 30
0.0
 11
569.1248807482554
 21
744.6857578532918
 31
0.0
  0
LINE
  5
3FF2
330
18
100
AcDbEntity
  8
TXT-D
 62
     4
100
AcDbLine
 10
569.1248807482554
 20
744.6857578532918
 30
0.0
 11
581.1248807482552
 21
630.738331205044
 31
0.0
  0
LINE
  5
3FF3
330
18
100
AcDbEntity
  8
TXT-D
 62
     4
100
AcDbLine
 10
581.1248807482552
 20
630.738331205044
 30
0.0
 11
593.1248807482554
 21
744.6857578532918
 31
0.0
  0
LINE
  5
3FF4
330
18
100
AcDbEntity
  8
TXT-D
 62
     4
100
AcDbLine
 10
593.1248807482554
 20
744.6857578532918
 30
0.0
 11
605.124880748255
 21
630.738331205044
 31
0.0
  0
LINE
  5
3FF5
330
18
100
AcDbEntity
  8
TXT-D
 62
     4
100
AcDbLine
 10
605.124880748255
 20
630.738331205044
 30
0.0
 11
617.124880748255
 21
744.6857578532918
 31
0.0
  0
LINE
  5
3FF6
330
18
100
AcDbEntity
  8
TXT-D
 62
     4
100
AcDbLine
 10
617.124880748255
 20
744.6857578532918
 30
0.0
 11
629.1248807482543
 21
630.738331205044
 31
0.0
  0
LINE
  5
3FF7
330
18
100
AcDbEntity
  8
TXT-D
 62
     4
100
AcDbLine
 10
629.1248807482543
 20
630.738331205044
 30
0.0
 11
641.1248807482545
 21
744.6857578532918
 31
0.0
  0
LINE
  5
3FF8
330
18
100
AcDbEntity
  8
TXT-D
 62
     4
100
AcDbLine
 10
641.1248807482545
 20
744.6857578532918
 30
0.0
 11
653.124880748254
 21
630.738331205044
 31
0.0
  0
LINE
  5
3FF9
330
18
100
AcDbEntity
  8
3D
  6
VERDECKT
 48
3.0
100
AcDbLine
 10
653.124880748254
 20
630.738331205044
 30
0.0
 11
665.1248807482541
 21
744.6857578532918
 31
0.0
  0
LINE
  5
3FFA
330
18
100
AcDbEntity
  8
3D
  6
VERDECKT
 48
3.0
100
AcDbLine
 10
665.1248807482541
 20
744.6857578532918
 30
0.0
 11
677.1248807482534
 21
630.738331205044
 31
0.0
  0
LINE
  5
3FFB
330
18
100
AcDbEntity
  8
3D
  6
VERDECKT
 48
3.0
100
AcDbLine
 10
677.1248807482534
 20
630.738331205044
 30
0.0
 11
683.9430669519185
 21
695.4812288980638
 31
0.0
  0
LINE
  5
3FFC
330
18
100
AcDbEntity
  8
TXT-D
 62
     4
100
AcDbLine
 10
689.1248807482532
 20
744.6857578532918
 30
0.0
 11
701.1248807482529
 21
630.738331205044
 31
0.0
  0
LINE
  5
3FFD
330
18
100
AcDbEntity
  8
TXT-D
 62
     4
100
AcDbLine
 10
701.1248807482529
 20
630.738331205044
 30
0.0
 11
713.1248807482531
 21
744.6857578532918
 31
0.0
  0
LINE
  5
3FFE
330
18
100
AcDbEntity
  8
TXT-D
 62
     4
100
AcDbLine
 10
713.1248807482531
 20
744.6857578532918
 30
0.0
 11
725.1248807482522
 21
630.738331205044
 31
0.0
  0
LINE
  5
3FFF
330
18
100
AcDbEntity
  8
TXT-D
 62
     4
100
AcDbLine
 10
725.1248807482522
 20
630.738331205044
 30
0.0
 11
737.1248807482523
 21
744.6857578532918
 31
0.0
  0
LINE
  5
4000
330
18
100
AcDbEntity
  8
TXT-D
 62
     4
100
AcDbLine
 10
737.1248807482523
 20
744.6857578532918
 30
0.0
 11
749.1248807482516
 21
630.738331205044
 31
0.0
  0
LINE
  5
4001
330
18
100
AcDbEntity
  8
TXT-D
 62
     4
100
AcDbLine
 10
749.1248807482516
 20
630.738331205044
 30
0.0
 11
761.1248807482525
 21
744.6857578532918
 31
0.0
  0
LINE
  5
4002
330
18
100
AcDbEntity
  8
TXT-D
 62
     4
100
AcDbLine
 10
761.1248807482525
 20
744.6857578532918
 30
0.0
 11
773.1248807482516
 21
630.738331205044
 31
0.0
  0
LINE
  5
4003
330
18
100
AcDbEntity
  8
TXT-D
 62
     4
100
AcDbLine
 10
773.1248807482516
 20
630.738331205044
 30
0.0
 11
785.1248807482516
 21
744.6857578532918
 31
0.0
  0
LINE
  5
4004
330
18
100
AcDbEntity
  8
TXT-D
 62
     4
100
AcDbLine
 10
785.1248807482516
 20
744.6857578532918
 30
0.0
 11
797.1248807482516
 21
630.738331205044
 31
0.0
  0
LINE
  5
4005
330
18
100
AcDbEntity
  8
TXT-D
 62
     4
100
AcDbLine
 10
797.1248807482516
 20
630.738331205044
 30
0.0
 11
809.1248807482516
 21
744.6857578532918
 31
0.0
  0
LINE
  5
4006
330
18
100
AcDbEntity
  8
TXT-D
 62
     4
100
AcDbLine
 10
809.1248807482516
 20
744.6857578532918
 30
0.0
 11
821.1248807482506
 21
630.738331205044
 31
0.0
  0
LINE
  5
4007
330
18
100
AcDbEntity
  8
TXT-D
 62
     4
100
AcDbLine
 10
821.1248807482506
 20
630.738331205044
 30
0.0
 11
833.1248807482506
 21
744.6857578532918
 31
0.0
  0
LINE
  5
4008
330
18
100
AcDbEntity
  8
TXT-D
 62
     4
100
AcDbLine
 10
833.1248807482506
 20
744.6857578532918
 30
0.0
 11
845.1248807482507
 21
630.738331205044
 31
0.0
  0
LINE
  5
4009
330
18
100
AcDbEntity
  8
TXT-D
 62
     4
100
AcDbLine
 10
845.1248807482507
 20
630.738331205044
 30
0.0
 11
857.1248807482506
 21
744.6857578532918
 31
0.0
  0
LINE
  5
400A
330
18
100
AcDbEntity
  8
TXT-D
 62
     4
100
AcDbLine
 10
857.1248807482506
 20
744.6857578532918
 30
0.0
 11
869.1248807482498
 21
630.738331205044
 31
0.0
  0
LINE
  5
400B
330
18
100
AcDbEntity
  8
3D
  6
VERDECKT
 48
3.0
100
AcDbLine
 10
355.9998209695026
 20
717.3864211884431
 30
0.0
 11
365.1248807482596
 21
630.738331205044
 31
0.0
  0
LINE
  5
400C
330
18
100
AcDbEntity
  8
TXT-D
 62
     4
100
AcDbLine
 10
374.4974264990049
 20
719.7364536584109
 30
0.0
 11
377.1248807482596
 21
744.6857578532918
 31
0.0
  0
LINE
  5
400D
330
18
100
AcDbEntity
  8
TXT-D
 62
     4
100
AcDbLine
 10
684.3159234587407
 20
699.0217321865174
 30
0.0
 11
689.1248807482532
 21
744.6857578532918
 31
0.0
  0
ARC
  5
4010
330
18
100
AcDbEntity
  8
0
  6
VERDECKTX2
 62
     4
 48
5.0
100
AcDbCircle
 10
946.8971878637182
 20
813.8184884890009
 30
0.0
 40
30.29074275570256
100
AcDbArc
 50
37.19039420567899
 51
53.0550767500576
  0
LINE
  5
4020
330
18
100
AcDbEntity
  8
TXT-D
100
AcDbLine
 10
677.6375575242982
 20
333.4244833675287
 30
0.0
 11
555.8664956744634
 21
333.4244833675287
 31
0.0
  0
TEXT
  5
4021
330
18
100
AcDbEntity
  8
TXT-D
 62
     7
100
AcDbText
 10
682.9925039271952
 20
326.7712117517359
 30
0.0
 40
14.0
  1
uzavírací oplechování
  7
ROMANS
100
AcDbText
  0
LINE
  5
4022
330
18
100
AcDbEntity
  8
TXT-D
100
AcDbLine
 10
323.525872924296
 20
560.5853889625868
 30
0.0
 11
555.8664956744636
 21
511.5962185549475
 31
0.0
  0
LINE
  5
4023
330
18
100
AcDbEntity
  8
TXT-D
100
AcDbLine
 10
555.8664956744636
 20
511.5962185549475
 30
0.0
 11
555.8664956744634
 21
333.4244833675287
 31
0.0
  0
LWPOLYLINE
  5
4024
330
18
100
AcDbEntity
  8
V35
100
AcDbPolyline
 90
        2
 70
     1
 43
2.9
 10
322.3998867055521
 20
561.8624327861043
 42
1.0
 10
325.4998867055519
 20
561.8624327861043
 42
1.0
  0
VIEWPORT
  5
2659
330
2658
100
AcDbEntity
 67
     1
  8
0
100
AcDbViewport
 10
319.9712219101336
 20
121.8337426966968
 30
0.0
 40
980.4114170552274
 41
380.8084500222235
 68
     1
 69
     1
 12
319.9712219101336
 22
121.8337426966968
 13
0.0
 23
0.0
 14
10.0
 24
10.0
 15
10.0
 25
10.0
 16
0.0
 26
0.0
 36
1.0
 17
0.0
 27
0.0
 37
0.0
 42
50.0
 43
0.0
 44
0.0
 45
380.8084500222235
 50
0.0
 51
0.0
 72
   100
 90
    32800
  1

281
     0
 71
     1
 74
     0
110
0.0
120
0.0
130
0.0
111
1.0
121
0.0
131
0.0
112
0.0
122
1.0
132
0.0
 79
     0
146
0.0
170
     0
  0
LINE
  5
265A
330
2658
100
AcDbEntity
 67
     1
  8
V5
 62
     1
100
AcDbLine
 10
7.378457057812568
 20
270.0663649349316
 30
0.0
 11
196.0315659403611
 21
270.0663649349316
 31
0.0
  0
LINE
  5
265B
330
2658
100
AcDbEntity
 67
     1
  8
V5
 62
     1
100
AcDbLine
 10
7.378457057812568
 20
20.03769334085069
 30
0.0
 11
196.031565940361
 21
20.03769334085069
 31
0.0
  0
TEXT
  5
265D
330
2658
100
AcDbEntity
 67
     1
  8
0
 62
     7
100
AcDbText
 10
7.378457057812568
 20
273.0276699878348
 30
0.0
 40
2.872918975993215
  1
Ohýbaný štít s částečným profilem Kalzip
  7
Stil1
100
AcDbText
  0
TEXT
  5
265E
330
2658
100
AcDbEntity
 67
     1
  8
0
 62
     7
100
AcDbText
 10
7.378457057812568
 20
277.6427615215756
 30
0.0
 40
2.872918975993215
  1
Detail- Vazníková střecha
  7
Stil1
100
AcDbText
  0
LWPOLYLINE
  5
265F
330
2658
100
AcDbEntity
 67
     1
  8
0
 62
     1
100
AcDbPolyline
 90
        7
 70
     1
 43
0.0
 10
171.1422090408042
 20
12.63776080342012
 10
170.2050257024468
 20
12.63776080342012
 10
170.2050257024468
 20
6.734358271736043
 42
0.3265321329225733
 10
171.3488330778545
 20
5.70730316541911
 10
172.0238877247735
 20
5.707308068730622
 10
172.0238877247735
 20
6.444913155378106
 42
-0.4142135623730951
 10
171.1422090408042
 20
7.326591839347472
  0
HATCH
  5
2660
330
2658
100
AcDbEntity
 67
     1
  8
0
 62
     1
100
AcDbHatch
 10
0.0
 20
0.0
 30
0.0
210
0.0
220
0.0
230
1.0
  2
SOLID
 70
     1
 71
     0
 91
        5
 92
        7
 72
     1
 73
     1
 93
       12
 10
157.0209308317102
 20
14.89694922096763
 42
0.2659775848638656
 10
156.5396336498063
 20
14.05618615838462
 42
0.0
 10
156.5396336498064
 20
3.617657989685739
 42
0.4142135623731021
 10
157.5146336498064
 20
2.642657989685744
 42
0.0
 10
171.8796336498064
 20
2.642657989685745
 42
0.0
 10
171.8796336498063
 20
3.097657989685743
 42
0.0
 10
157.5146336498063
 20
3.097657989685743
 42
-0.4142135623730816
 10
156.9946336498063
 20
3.617657989685748
 42
0.0
 10
156.9946336498063
 20
14.05618615838461
 42
-0.2659775848638894
 10
157.2513254801551
 20
14.50459312509557
 42
-0.2516648824931138
 10
171.7804130818904
 20
15.05508074642154
 42
0.0
 10
171.9804581211609
 20
15.46374562411875
 42
0.2516648824931148
 97
        0
 92
       23
 72
     0
 73
     1
 93
       12
 10
160.709003277192
 20
12.41897150711669
 10
159.6804467456753
 20
12.41897150711669
 10
159.6804467456753
 20
5.707406646944892
 10
160.7090032771921
 20
5.707406646944893
 10
160.709003277192
 20
7.607080171612842
 10
161.5130431441546
 20
8.678332632823781
 10
163.4601919451483
 20
5.707406646944897
 10
164.5976752693911
 20
5.707406646944889
 10
162.1455188436231
 20
9.521003721101157
 10
164.3206192214516
 20
12.41897150711669
 10
163.1711954901292
 20
12.41897150711669
 10
160.709003277192
 20
8.991742055666072
 97
        0
 92
       23
 72
     1
 73
     1
 93
       18
 10
165.1445005508302
 20
10.23961706042952
 42
0.0
 10
165.5281195918805
 20
9.541100142545243
 42
-0.125089082906134
 10
166.8508947376822
 20
9.896315450135563
 42
-0.2678367822511334
 10
167.6514983513533
 20
9.489295003113456
 42
-0.1602289575784415
 10
167.7751725929877
 20
8.957038322130811
 42
-0.4569276421982519
 10
167.6737361473992
 20
8.87707596321626
 42
0.0541248642832566
 10
166.8545842281447
 20
8.87465310032838
 42
0.1876748474912706
 10
165.2217741497835
 20
8.053594607004125
 42
0.1827818212654542
 10
164.9299426038108
 20
6.861926575029807
 42
0.3920539506815877
 10
166.0924338422075
 20
5.710316639618223
 42
0.0
 10
166.8156929190153
 20
5.710316639618223
 42
0.1547524270167677
 10
167.769549789679
 20
6.015676490084731
 42
-0.3793030021022749
 10
168.0503005494261
 20
6.049341431860516
 42
0.2176802859589672
 10
169.1484662592781
 20
5.700801680734325
 42
0.6162695522438762
 10
169.2360421168715
 20
5.988683940490737
 42
-0.2171983840453288
 10
168.78703703196
 20
7.007375237320943
 42
0.0
 10
168.78703703196
 20
9.072944898722395
 42
0.2771818233459465
 10
167.7954665706382
 20
10.60509243797142
 42
0.2393084470231861
 97
        0
 92
       22
 72
     1
 73
     1
 93
        8
 10
166.878374397114
 20
8.181566853410675
 42
0.0
 10
167.6403751356195
 20
8.181566853410675
 42
-0.4387538430829223
 10
167.8564356003741
 20
7.951713556446768
 42
0.0
 10
167.8564356003743
 20
7.203942434941795
 42
-0.2149773677828588
 10
167.631958252342
 20
6.675082406628293
 42
-0.2311376311760497
 10
166.4019447442667
 20
6.327851333195364
 42
-0.2451258193605041
 10
165.8679663364297
 20
6.729499610924346
 42
-0.1420187448230565
 10
165.8819046685782
 20
7.550617961830784
 42
-0.2899718709828813
 97
        0
 92
        7
 72
     1
 73
     1
 93
        7
 10
171.1422090408042
 20
12.63776080342012
 42
0.0
 10
170.2050257024468
 20
12.63776080342012
 42
0.0
 10
170.2050257024468
 20
6.734358271736073
 42
0.3265321329225785
 10
171.3488330778545
 20
5.70730316541911
 42
0.0
 10
172.0238877247735
 20
5.707308068730623
 42
0.0
 10
172.0238877247735
 20
6.444913155378106
 42
-0.4142135623730958
 10
171.1422090408042
 20
7.326591839347473
 42
0.0
 97
        0
 75
     0
 76
     1
 47
0.2105755737740495
 98
        5
 10
169.2860972871858
 20
16.30532310860333
 10
160.2456532181561
 20
11.21360576732915
 10
166.8205216882655
 20
10.33761137006547
 10
166.8205216882655
 20
10.33761137006547
 10
170.7928380169379
 20
8.339249177091296
450
        0
451
        0
460
0.0
461
0.0
452
        0
462
0.0
453
        0
470

  0
LWPOLYLINE
  5
2661
330
2658
100
AcDbEntity
 67
     1
  8
0
 62
     1
100
AcDbPolyline
 90
       12
 70
     1
 43
0.0
 10
157.5146336498064
 20
2.642657989685744
 42
-0.4142135623730951
 10
156.5396336498064
 20
3.617657989685744
 10
156.5396336498063
 20
14.05618615838464
 42
-0.2659775848638765
 10
157.0209308317103
 20
14.89694922096765
 42
-0.2516648824931137
 10
171.9804581211609
 20
15.46374562411874
 10
171.7804130818904
 20
15.05508074642154
 42
0.2516648824931138
 10
157.2513254801551
 20
14.50459312509557
 42
0.2659775848638775
 10
156.9946336498063
 20
14.05618615838464
 10
156.9946336498063
 20
3.617657989685744
 42
0.4142135623730951
 10
157.5146336498064
 20
3.097657989685743
 10
171.8796336498064
 20
3.097657989685743
 10
171.8796336498064
 20
2.642657989685744
  0
LWPOLYLINE
  5
2662
330
2658
100
AcDbEntity
 67
     1
  8
0
 62
     1
100
AcDbPolyline
 90
       13
 70
     0
 43
0.0
 10
160.709003277192
 20
8.991742055666069
 10
160.709003277192
 20
12.41897150711669
 10
159.6804467456753
 20
12.41897150711669
 10
159.6804467456753
 20
5.707406646944892
 10
160.709003277192
 20
5.707406646944892
 10
160.709003277192
 20
7.6070801716128
 10
161.5130431441546
 20
8.678332632823778
 10
163.4601919451483
 20
5.707406646944896
 10
164.5976752693911
 20
5.707406646944889
 10
162.1455188436231
 20
9.521003721101163
 10
164.3206192214516
 20
12.41897150711669
 10
163.1711954901292
 20
12.41897150711668
 10
160.6977260448776
 20
8.976044799165943
  0
LWPOLYLINE
  5
2663
330
2658
100
AcDbEntity
 67
     1
  8
0
 62
     1
100
AcDbPolyline
 90
        8
 70
     1
 43
0.0
 10
166.401944744267
 20
6.327851333195315
 42
-0.2451258193606399
 10
165.8679663364297
 20
6.729499610924428
 42
-0.1420187448230164
 10
165.8819046685781
 20
7.550617961830644
 42
-0.2899718709829171
 10
166.878374397114
 20
8.181566853410675
 10
167.6449213242718
 20
8.181566853410675
 42
-0.3900918559591556
 10
167.8564356003741
 20
7.982744937864822
 10
167.8564356003743
 20
7.173048935136726
 42
-0.2034436104283782
 10
167.6319582523418
 20
6.675082406628096
 42
-0.2311376311759479
  0
LWPOLYLINE
  5
2664
330
2658
100
AcDbEntity
 67
     1
  8
0
 62
     1
100
AcDbPolyline
 90
       18
 70
     1
 43
0.0
 10
167.7751725929877
 20
8.957038322131019
 42
0.1602289575782981
 10
167.6514983513534
 20
9.48929500311322
 42
0.2678367822512051
 10
166.8508947376822
 20
9.896315450135563
 42
0.1250890829061368
 10
165.5281195918805
 20
9.541100142545236
 10
165.1445005508302
 20
10.23961706042952
 42
-0.2393084470231862
 10
167.7954665706382
 20
10.60509243797143
 42
-0.2771818233458632
 10
168.78703703196
 20
9.072944898722962
 10
168.78703703196
 20
6.97355132321682
 42
0.2106080285028759
 10
169.2360421168713
 20
5.988683940490972
 42
-0.655875337136226
 10
169.1296033642075
 20
5.698632480071225
 42
-0.2140955845208337
 10
168.0503005494262
 20
6.049341431860447
 42
0.3793030021024653
 10
167.769549789679
 20
6.015676490084718
 42
-0.1547524270167758
 10
166.8156929190153
 20
5.710316639618223
 10
166.0924338422075
 20
5.710316639618223
 42
-0.3920539506815679
 10
164.9299426038108
 20
6.86192657502975
 42
-0.1827818212654531
 10
165.2217741497834
 20
8.053594607004075
 42
-0.1876748474912757
 10
166.8545842281447
 20
8.874653100328377
 42
-0.0541248642832585
 10
167.6737361473992
 20
8.87707596321626
 42
0.4569276421989473
  0
HATCH
  5
2665
330
2658
100
AcDbEntity
 67
     1
  8
0
 62
     1
100
AcDbHatch
 10
0.0
 20
0.0
 30
0.0
210
0.0
220
0.0
230
1.0
  2
SOLID
 70
     1
 71
     0
 91
        9
 92
       23
 72
     1
 73
     1
 93
       12
 10
172.5653492253768
 20
10.77490737173337
 42
0.0
 10
172.5653492253769
 20
9.815300931198191
 42
0.0
 10
175.0872837779416
 20
9.815300931198191
 42
-0.7299518516212804
 10
175.1617893235822
 20
9.676068307280827
 42
0.0
 10
172.4914556324585
 20
6.020268981102183
 42
0.50718022741599
 10
172.644211845655
 20
5.707312574502982
 42
0.0
 10
176.8000291350547
 20
5.707342760602259
 42
0.0
 10
176.8000291350547
 20
6.670566757922292
 42
0.0
 10
174.218227789512
 20
6.670566757922292
 42
-0.6989832493953289
 10
174.1827769958388
 20
6.747219420546859
 42
0.0
 10
176.7537482928729
 20
10.30088496212113
 42
0.0
 10
176.753748292873
 20
10.77490737173337
 42
0.0
 97
        0
 92
       23
 72
     0
 73
     1
 93
        6
 10
178.9666074401292
 20
10.76669905952824
 10
177.2426526430076
 20
10.76669905952825
 10
177.2426526430076
 20
9.838115706771706
 10
177.8903677725763
 20
9.838115706771713
 10
177.8903677725763
 20
5.707350680361073
 10
178.9666074401292
 20
5.707358497710934
 97
        0
 92
       23
 72
     1
 73
     1
 93
       12
 10
180.1922008356549
 20
3.799755387185153
 42
0.0
 10
181.349217316878
 20
3.799755387185154
 42
0.0
 10
181.3492173168779
 20
5.717742550126925
 42
-0.5640200146066899
 10
181.4641258853013
 20
5.804282531762956
 42
0.1631429899295819
 10
183.1864652238147
 20
5.705950674351199
 42
0.2143211476369445
 10
184.5317686669931
 20
7.118160369269403
 42
0.1454787830754844
 10
184.5671690122602
 20
9.452852759694209
 42
0.2090289610022575
 10
183.4179929142678
 20
10.71591071200417
 42
0.2333951007067763
 10
181.4541309634565
 20
10.64075346765236
 42
0.0
 10
181.3269206730922
 20
10.64075346765235
 42
0.0
 10
181.3269206730922
 20
10.77826047763267
 42
0.0
 10
180.1922008356549
 20
10.77826047763267
 42
0.0
 97
        0
 92
       22
 72
     1
 73
     1
 93
        7
 10
181.3269206730922
 20
9.649303832430231
 42
-0.2989352106795097
 10
183.0383857367719
 20
9.813694992411338
 42
-0.1898212309736138
 10
183.6122246189639
 20
8.933127238281548
 42
-0.0659282931228529
 10
183.6127328290073
 20
7.566155516116743
 42
-0.1241286129051029
 10
183.2657642838722
 20
6.9662939946905
 42
-0.0600684322457551
 10
182.8753349192135
 20
6.666462805026003
 42
-0.2741033349168765
 10
181.3269206730922
 20
6.737411717605815
 42
0.0
 97
        0
 92
        7
 72
     1
 73
     1
 93
       14
 10
186.768432974293
 20
13.30265798968574
 42
0.0
 10
184.0996336498037
 20
13.30265798968571
 42
-0.0829624126767163
 10
172.6060630259369
 20
15.15561449868119
 42
0.0
 10
172.4606106007267
 20
14.72448970004339
 42
0.0829624126767251
 10
184.1022290769075
 20
12.84766539220951
 42
0.0
 10
186.7646336498064
 20
12.84766539220951
 42
-0.414213562373081
 10
187.2846336498064
 20
12.32766539220951
 42
0.0
 10
187.2846336498064
 20
3.617657989685748
 42
-0.4142135623730816
 10
186.7646336498064
 20
3.097657989685743
 42
0.0
 10
172.5296336498063
 20
3.097657989685743
 42
0.0
 10
172.5296336498063
 20
2.642657989685744
 42
0.0
 10
186.7646336498063
 20
2.642657989685744
 42
0.4142135623730996
 10
187.7396336498064
 20
3.617657989685759
 42
0.0
 10
187.7396336498063
 20
12.32766539220952
 42
0.4130726898721656
 97
        0
 92
        7
 72
     1
 73
     1
 93
        2
 10
189.230709588015
 20
14.48202895398631
 42
1.0
 10
187.5667493853671
 20
14.48202895398631
 42
1.0
 97
        0
 92
       22
 72
     1
 73
     1
 93
        2
 10
187.7057072441104
 20
14.48202895398631
 42
-1.0
 10
189.0917517292717
 20
14.48202895398631
 42
-1.0
 97
        0
 92
        6
 72
     1
 73
     1
 93
       16
 10
188.0891795167577
 20
14.04344269414814
 42
0.0
 10
188.0891795167577
 20
14.87685082043882
 42
-0.430292598095628
 10
188.1602238038721
 20
14.95062377538656
 42
0.0
 10
188.4261557316127
 20
14.95062377538655
 42
-0.1568897140508004
 10
188.7006785950414
 20
14.8834518751411
 42
-0.2411188226969702
 10
188.7752715668388
 20
14.77693979931692
 42
0.0
 10
188.7752715668388
 20
14.54460919492266
 42
-0.108022292716617
 10
188.7212103793381
 20
14.42411548719077
 42
-0.0878146924641597
 10
188.7752715668388
 20
14.29185258888383
 42
0.0
 10
188.7752715668388
 20
14.043442694148
 42
0.0
 10
188.6343570292176
 20
14.04344269414801
 42
0.0
 10
188.6343570292176
 20
14.20746020516914
 42
0.3344300509710908
 10
188.4816798184333
 20
14.34121969975355
 42
0.0
 10
188.3510013364867
 20
14.34121969975355
 42
0.33200365023858
 10
188.2485746924039
 20
14.2209106453635
 42
0.0
 10
188.2485746924039
 20
14.04344269414801
 42
0.0
 97
        0
 92
        6
 72
     1
 73
     1
 93
       10
 10
188.2730582352929
 20
14.60574623298982
 42
0.0
 10
188.2730582352929
 20
14.70635490265327
 42
-0.4700313181861818
 10
188.3508968496409
 20
14.78863575978702
 42
0.0
 10
188.4928765106515
 20
14.78863575978702
 42
-0.2024912017596684
 10
188.5749871489377
 20
14.72920109052658
 42
-0.1629090778538176
 10
188.5931590162751
 20
14.66258826751202
 42
0.0
 10
188.5931590162751
 20
14.57619629999126
 42
-0.2807969913979313
 10
188.5719823350275
 20
14.54091967679401
 42
-0.141313362400572
 10
188.4915967925482
 20
14.51927846821619
 42
0.0
 10
188.3630709943212
 20
14.51927846821619
 42
-0.4644547038390189
 97
        0
 75
     0
 76
     1
 47
0.2105755736759934
 98
        9
 10
175.6453618172754
 20
10.2800670495476
 10
178.4944714567078
 20
9.705195731500037
 10
180.7682801127427
 20
9.842069878418275
 10
180.7682801127427
 20
9.842069878418275
 10
187.4253344155173
 20
12.79855093480507
 10
188.0554259540249
 20
13.78404458359732
 10
188.0554259540249
 20
13.78404458359732
 10
188.0554259540249
 20
13.78404458359732
 10
188.0554259540249
 20
13.78404458359732
450
        0
451
        0
460
0.0
461
0.0
452
        0
462
0.0
453
        0
470

  0
LWPOLYLINE
  5
2666
330
2658
100
AcDbEntity
 67
     1
  8
0
 62
     1
100
AcDbPolyline
 90
       15
 70
     0
 43
0.0
 10
186.7646336498063
 20
13.30266539220951
 42
-0.4142135623730951
 10
187.7396336498063
 20
12.32766539220951
 10
187.7396336498064
 20
3.617657989685744
 42
-0.4142135623730951
 10
186.7646336498063
 20
2.642657989685744
 10
172.5296336498063
 20
2.642657989685744
 10
172.5296336498063
 20
3.097657989685743
 10
186.7646336498063
 20
3.097657989685743
 42
0.4142135623730951
 10
187.2846336498064
 20
3.617657989685744
 10
187.2846336498064
 20
12.32766539220951
 42
0.4142135623730951
 10
186.7646336498063
 20
12.84766539220951
 10
184.1022290769089
 20
12.84766539220951
 42
-0.0829624126767354
 10
172.4606106007267
 20
14.72448970004339
 10
172.6060630259369
 20
15.15561449868119
 42
0.0829624126767356
 10
184.0996336498063
 20
13.30265798968572
 10
186.768432974293
 20
13.30265798968574
  0
LWPOLYLINE
  5
2667
330
2658
100
AcDbEntity
 67
     1
  8
0
 62
     1
100
AcDbPolyline
 90
       13
 70
     0
 43
0.0
 10
174.2108190769815
 20
6.670566757922292
 10
176.8000291350547
 20
6.670566757922292
 10
176.8000291350547
 20
5.707342760602259
 10
172.644211845655
 20
5.707312574502982
 42
-0.5071802274160878
 10
172.4914556324586
 20
6.020268981102255
 10
175.1753283020242
 20
9.694603739174606
 42
0.5083225216873333
 10
175.1172347781356
 20
9.815300931198191
 10
172.5653492253769
 20
9.815300931198191
 10
172.5653492253769
 20
10.77490737173337
 10
176.753748292873
 20
10.77490737173337
 10
176.753748292873
 20
10.30088496212111
 10
174.1743482512912
 20
6.735568983573102
 42
0.5855768765223777
 10
174.218227789512
 20
6.670566757922292
  0
LWPOLYLINE
  5
2668
330
2658
100
AcDbEntity
 67
     1
  8
0
 62
     1
100
AcDbPolyline
 90
        6
 70
     1
 43
0.0
 10
177.2426526430076
 20
9.838115706771706
 10
177.2426526430076
 20
10.76669905952824
 10
178.9666074401292
 20
10.76669905952824
 10
178.9666074401292
 20
5.707358497710934
 10
177.8903677725763
 20
5.707350680361074
 10
177.8903677725763
 20
9.838115706771713
  0
LWPOLYLINE
  5
2669
330
2658
100
AcDbEntity
 67
     1
  8
0
 62
     1
100
AcDbPolyline
 90
        2
 70
     1
 43
0.5199938194713205
 10
178.1684970925114
 20
12.09962512678654
 42
1.0
 10
178.6884909119828
 20
12.09962512678654
 42
1.0
  0
LWPOLYLINE
  5
266A
330
2658
100
AcDbEntity
 67
     1
  8
0
 62
     1
100
AcDbPolyline
 90
        7
 70
     1
 43
0.0
 10
183.6122246189638
 20
8.933127238281983
 42
0.1898212309735227
 10
183.038385736772
 20
9.813694992411306
 42
0.2989352106795207
 10
181.3269206730922
 20
9.649303832430234
 10
181.3269206730922
 20
6.737411717605818
 42
0.2741033349168594
 10
182.8753349192135
 20
6.666462805025961
 42
0.0600684322456349
 10
183.2657642838714
 20
6.96629399468974
 42
0.1241286129052769
 10
183.6127328290073
 20
7.566155516116644
 42
0.0659282931228788
  0
LWPOLYLINE
  5
266B
330
2658
100
AcDbEntity
 67
     1
  8
0
 62
     1
100
AcDbPolyline
 90
       12
 70
     1
 43
0.0
 10
181.3269206730922
 20
10.64075346765235
 10
181.3269206730922
 20
10.77826047763267
 10
180.1922008356549
 20
10.77826047763267
 10
180.1922008356549
 20
3.799755387185154
 10
181.3492173168779
 20
3.799755387185154
 10
181.3492173168779
 20
5.734822214632103
 42
-0.4980732597277929
 10
181.4639555954105
 20
5.80435064655672
 42
0.1631603344019285
 10
183.1864652238147
 20
5.70595067435121
 42
0.2143211476370474
 10
184.5317686669934
 20
7.118160369270324
 42
0.1454787830754339
 10
184.5671690122602
 20
9.452852759694359
 42
0.209028960994081
 10
183.4179929143287
 20
10.71591071197696
 42
0.2333951007146881
 10
181.4541309634565
 20
10.64075346765236
  0
CIRCLE
  5
266C
330
2658
100
AcDbEntity
 67
     1
  8
0
 62
     1
100
AcDbCircle
 10
188.398729486691
 20
14.48202895398631
 30
0.0
 40
0.8319801013239141
  0
CIRCLE
  5
266D
330
2658
100
AcDbEntity
 67
     1
  8
0
 62
     1
100
AcDbCircle
 10
188.398729486691
 20
14.48202895398631
 30
0.0
 40
0.6930222425806165
  0
LWPOLYLINE
  5
266E
330
2658
100
AcDbEntity
 67
     1
  8
0
 62
     1
100
AcDbPolyline
 90
       10
 70
     1
 43
0.0
 10
188.5749871489375
 20
14.72920109052687
 42
0.2024912017590097
 10
188.4928765106515
 20
14.78863575978702
 10
188.3412479398487
 20
14.78863575978702
 42
0.3605152320615398
 10
188.2730582352929
 20
14.72412753393324
 10
188.2730582352929
 20
14.5952765909802
 42
0.3656960469701174
 10
188.3460633056111
 20
14.51927846821619
 10
188.4969397317304
 20
14.51927846821619
 42
0.143350963341212
 10
188.5775063805282
 20
14.54442567510559
 42
0.2365834905846161
 10
188.5931590162751
 20
14.57619629999332
 10
188.5931590162751
 20
14.67490823679983
 42
0.133951748517549
  0
HATCH
  5
266F
330
2658
100
AcDbEntity
 67
     1
  8
0
 62
     1
100
AcDbHatch
 10
0.0
 20
0.0
 30
0.0
210
0.0
220
0.0
230
1.0
  2
SOLID
 70
     1
 71
     0
 91
        2
 92
        7
 72
     1
 73
     1
 93
       16
 10
188.6343570292176
 20
14.20746020516914
 42
0.0
 10
188.6343570292176
 20
14.04344269414801
 42
0.0
 10
188.7752715668388
 20
14.043442694148
 42
0.0
 10
188.7752715668388
 20
14.29185258888377
 42
0.0878146924641936
 10
188.7212103793381
 20
14.42411548719076
 42
0.1080222927165532
 10
188.7752715668388
 20
14.54460919492257
 42
0.0
 10
188.7752715668388
 20
14.77693979931692
 42
0.192215680109946
 10
188.7229380317306
 20
14.86886648353821
 42
0.171699417140815
 10
188.4261557316127
 20
14.95062377538655
 42
0.0
 10
188.1590317123538
 20
14.95062377538656
 42
0.3983152836439984
 10
188.0891795167577
 20
14.88335522903354
 42
0.0
 10
188.0891795167577
 20
14.043442694148
 42
0.0
 10
188.2485746924039
 20
14.043442694148
 42
0.0
 10
188.2485746924039
 20
14.20396741150131
 42
-0.3680258038893664
 10
188.3510013364867
 20
14.34121969975355
 42
0.0
 10
188.4567423536045
 20
14.34121969975355
 42
-0.3760883100637826
 97
        0
 92
       22
 72
     1
 73
     1
 93
       10
 10
188.4915967925483
 20
14.51927846821619
 42
0.0
 10
188.3630709943212
 20
14.51927846821619
 42
-0.4644547038390189
 10
188.2730582352929
 20
14.60574623298982
 42
0.0
 10
188.2730582352929
 20
14.70635490265327
 42
-0.4700313181861818
 10
188.3508968496409
 20
14.78863575978702
 42
0.0
 10
188.4928765106515
 20
14.78863575978702
 42
-0.2024912017596684
 10
188.5749871489377
 20
14.72920109052658
 42
-0.1629090778538176
 10
188.5931590162751
 20
14.66258826751202
 42
0.0
 10
188.5931590162751
 20
14.57619629999126
 42
-0.2807969913979313
 10
188.5719823350275
 20
14.54091967679401
 42
-0.1413133624004751
 97
        0
 75
     0
 76
     1
 47
0.025620434889365
 98
        2
 10
188.5750173726398
 20
14.44298061465923
 10
188.5750173726398
 20
14.44298061465923
450
        0
451
        0
460
0.0
461
0.0
452
        0
462
0.0
453
        0
470

  0
LWPOLYLINE
  5
2670
330
2658
100
AcDbEntity
 67
     1
  8
0
 62
     1
100
AcDbPolyline
 90
       17
 70
     0
 43
0.0
 10
188.0891795167577
 20
14.88335522903302
 10
188.0891795167577
 20
14.043442694148
 10
188.2485746924039
 20
14.04344269414801
 10
188.2485746924039
 20
14.22091064536369
 42
-0.3320036502381971
 10
188.3510013364867
 20
14.34121969975355
 10
188.4816798184333
 20
14.34121969975355
 42
-0.3344300509710546
 10
188.6343570292176
 20
14.20746020516917
 10
188.6343570292176
 20
14.04344269414801
 10
188.7752715668388
 20
14.043442694148
 10
188.7752715668388
 20
14.29185258888386
 42
0.0878146924641325
 10
188.7212103793381
 20
14.42411548719077
 42
0.1080222927165679
 10
188.7752715668388
 20
14.54460919492261
 10
188.7752715668388
 20
14.77693979931685
 42
0.2411188226969047
 10
188.7006785950415
 20
14.88345187514104
 42
0.1568897140508559
 10
188.4261557316127
 20
14.95062377538655
 10
188.1590317123538
 20
14.95062377538656
 42
0.4252932903388871
 10
188.0891795167577
 20
14.87685082043922
  0
TEXT
  5
2671
330
2658
100
AcDbEntity
 67
     1
  8
0
 62
     7
100
AcDbText
 10
109.8439966605646
 20
277.6427615215756
 30
0.0
 40
2.872918975993215
  1
01.02.04
  7
Stil1
100
AcDbText
  0
TEXT
  5
2672
330
2658
100
AcDbEntity
 67
     1
  8
0
 62
     7
100
AcDbText
 10
109.8439966605646
 20
273.0276699878348
 30
0.0
 40
2.872918975993215
  1
M 1:5
  7
Stil1
100
AcDbText
  0
TEXT
  5
2673
330
2658
100
AcDbEntity
 67
     1
  8
0
 62
     7
100
AcDbText
 10
179.5915313316766
 20
277.6427615215756
 30
0.0
 40
2.872918975993215
  1
střecha
  7
Stil1
100
AcDbText
  0
TEXT
  5
2674
330
2658
100
AcDbEntity
 67
     1
  8
0
 62
     7
100
AcDbText
 10
185.5805356958195
 20
273.0276699878348
 30
0.0
 40
2.872918975993215
  1
168
  7
Stil1
100
AcDbText
  0
VIEWPORT
  5
2675
330
2658
100
AcDbEntity
 67
     1
  8
Mansfen
100
AcDbViewport
 10
98.58475825846682
 20
145.0520291378911
 30
0.0
 40
194.8936153637886
 41
250.0286715940809
 68
     2
 69
     2
 12
498.8553088635385
 22
708.3311994261385
 13
0.0
 23
0.0
 14
10.0
 24
10.0
 15
10.0
 25
10.0
 16
0.0
 26
0.0
 36
1.0
 17
0.0
 27
0.0
 37
0.0
 42
50.0
 43
0.0
 44
0.0
 45
1250.143369962212
 50
0.0
 51
0.0
 72
 20000
 90
    32768
  1

281
     0
 71
     1
 74
     0
110
0.0
120
0.0
130
0.0
111
1.0
121
0.0
131
0.0
112
0.0
122
1.0
132
0.0
 79
     0
146
0.0
170
     0
  0
MTEXT
  5
40D4
102
{ACAD_XDICTIONARY
360
41BE
102
}
330
2658
100
AcDbEntity
 67
     1
  8
TXT-D
100
AcDbMText
 10
5.72495679439454
 20
16.37697138690367
 30
0.0
 40
2.8
 41
106.1716
 71
     1
 72
     5
  1
{\C7;* Poplastovan\U+00E9 klipsy nejsou vyr\U+00E1b\U+011Bny ve v\U+0161ech rozm\U+011Brech}
  7
ROMANS
 73
     1
 44
1.0
  0
ENDSEC
  0
SECTION
  2
OBJECTS
  0
DICTIONARY
  5
C
330
0
100
AcDbDictionary
281
     1
  3
ACAD_CIP_PREVIOUS_PRODUCT_INFO
350
40CA
  3
ACAD_COLOR
350
40AB
  3
ACAD_DETAILVIEWSTYLE
350
40C4
  3
ACAD_GROUP
350
D
  3
ACAD_IMAGE_DICT
350
6C4
  3
ACAD_IMAGE_VARS
350
6C5
  3
ACAD_LAYOUT
350
5E9
  3
ACAD_MATERIAL
350
4079
  3
ACAD_MLEADERSTYLE
350
40C0
  3
ACAD_MLINESTYLE
350
1B
  3
ACAD_PLOTSETTINGS
350
5EA
  3
ACAD_PLOTSTYLENAME
350
5E7
  3
ACAD_SCALELIST
350
40AE
  3
ACAD_SECTIONVIEWSTYLE
350
40C2
  3
ACAD_TABLESTYLE
350
40AC
  3
ACAD_VISUALSTYLE
350
4092
  3
ACDB_RECOMPOSE_DATA
350
417C
  3
AcDbVariableDictionary
350
7F0
  3
AcDsDecomposeData
350
4182
  0
DICTIONARY
  5
40CC
330
2
100
AcDbDictionary
280
     1
281
     1
  3
ACAD_LAYERSTATES
360
40CD
  0
DICTIONARY
  5
40EE
330
E
100
AcDbDictionary
280
     1
281
     1
  3
ADSK_XREC_LAYER_RECONCILED
360
40EF
  0
DICTIONARY
  5
40F0
330
B7
100
AcDbDictionary
280
     1
281
     1
  3
ADSK_XREC_LAYER_RECONCILED
360
40F1
  0
DICTIONARY
  5
40F2
330
8F4
100
AcDbDictionary
280
     1
281
     1
  3
ADSK_XREC_LAYER_RECONCILED
360
40F3
  0
DICTIONARY
  5
40F4
330
120A
100
AcDbDictionary
280
     1
281
     1
  3
ADSK_XREC_LAYER_RECONCILED
360
40F5
  0
DICTIONARY
  5
40F6
330
120B
100
AcDbDictionary
280
     1
281
     1
  3
ADSK_XREC_LAYER_RECONCILED
360
40F7
  0
DICTIONARY
  5
40F8
330
120C
100
AcDbDictionary
280
     1
281
     1
  3
ADSK_XREC_LAYER_RECONCILED
360
40F9
  0
DICTIONARY
  5
40FA
330
120D
100
AcDbDictionary
280
     1
281
     1
  3
ADSK_XREC_LAYER_RECONCILED
360
40FB
  0
DICTIONARY
  5
40FC
330
120E
100
AcDbDictionary
280
     1
281
     1
  3
ADSK_XREC_LAYER_RECONCILED
360
40FD
  0
DICTIONARY
  5
40FE
330
1835
100
AcDbDictionary
280
     1
281
     1
  3
ADSK_XREC_LAYER_RECONCILED
360
40FF
  0
DICTIONARY
  5
4100
330
1836
100
AcDbDictionary
280
     1
281
     1
  3
ADSK_XREC_LAYER_RECONCILED
360
4101
  0
DICTIONARY
  5
4102
330
279D
100
AcDbDictionary
280
     1
281
     1
  3
ADSK_XREC_LAYER_RECONCILED
360
4103
  0
DICTIONARY
  5
4104
330
279E
100
AcDbDictionary
280
     1
281
     1
  3
ADSK_XREC_LAYER_RECONCILED
360
4105
  0
DICTIONARY
  5
81C
330
18
100
AcDbDictionary
280
     1
281
     1
  3
ACAD_LAYOUTSELFREF
360
1EE3
  0
DICTIONARY
  5
4185
330
2DE6
100
AcDbDictionary
280
     1
281
     1
  3
ACAD_MTEXT_2008_RT
360
4186
  0
DICTIONARY
  5
41BE
330
40D4
100
AcDbDictionary
280
     1
281
     1
  3
ACAD_MTEXT_2008_RT
360
41BF
  0
XRECORD
  5
40CA
102
{ACAD_REACTORS
330
C
102
}
330
C
100
AcDbXrecord
280
     1
300
ACD
300
2013
300
ACD_F_S
  0
DICTIONARY
  5
40AB
102
{ACAD_REACTORS
330
C
102
}
330
C
100
AcDbDictionary
281
     1
  0
DICTIONARY
  5
40C4
102
{ACAD_REACTORS
330
C
102
}
330
C
100
AcDbDictionary
281
     1
  3
Metric50
350
40C5
  0
DICTIONARY
  5
D
102
{ACAD_REACTORS
330
C
102
}
330
C
100
AcDbDictionary
281
     1
  0
DICTIONARY
  5
6C4
102
{ACAD_REACTORS
330
C
102
}
330
C
100
AcDbDictionary
281
     1
  3
Kalzip
350
6C6
  0
RASTERVARIABLES
  5
6C5
102
{ACAD_REACTORS
330
C
102
}
330
C
100
AcDbRasterVariables
 90
        0
 70
     1
 71
     1
 72
     0
  0
DICTIONARY
  5
5E9
102
{ACAD_REACTORS
330
C
102
}
330
C
100
AcDbDictionary
281
     1
  3
A4
350
2657
  3
Model
350
5EB
  0
DICTIONARY
  5
4079
102
{ACAD_REACTORS
330
C
102
}
330
C
100
AcDbDictionary
281
     1
  3
ByBlock
350
4082
  3
ByLayer
350
407A
  3
Global
350
408A
  0
DICTIONARY
  5
40C0
102
{ACAD_REACTORS
330
C
102
}
330
C
100
AcDbDictionary
281
     1
  3
Standard
350
40C1
  0
DICTIONARY
  5
1B
102
{ACAD_REACTORS
330
C
102
}
330
C
100
AcDbDictionary
281
     1
  3
STANDARD
350
1C
  0
DICTIONARY
  5
5EA
102
{ACAD_REACTORS
330
C
102
}
330
C
100
AcDbDictionary
281
     1
  3
kzform
350
361E
  0
ACDBDICTIONARYWDFLT
  5
5E7
102
{ACAD_REACTORS
330
C
102
}
330
C
100
AcDbDictionary
281
     1
  3
Normal
350
5E8
100
AcDbDictionaryWithDefault
340
5E8
  0
DICTIONARY
  5
40AE
102
{ACAD_REACTORS
330
C
102
}
330
C
100
AcDbDictionary
281
     1
  3
A0
350
40AF
  3
A1
350
40B0
  3
A2
350
40B1
  3
A3
350
40B2
  3
A4
350
40B3
  3
A5
350
40B4
  3
A6
350
40B5
  3
A7
350
40B6
  3
A8
350
40B7
  3
A9
350
40B8
  3
B0
350
40B9
  3
B1
350
40BA
  3
B2
350
40BB
  3
B3
350
40BC
  3
B4
350
40BD
  3
B5
350
40BE
  3
B6
350
40BF
  0
DICTIONARY
  5
40C2
102
{ACAD_REACTORS
330
C
102
}
330
C
100
AcDbDictionary
281
     1
  3
Metric50
350
40C3
  0
DICTIONARY
  5
40AC
102
{ACAD_REACTORS
330
C
102
}
330
C
100
AcDbDictionary
281
     1
  3
Standard
350
40AD
  0
DICTIONARY
  5
4092
102
{ACAD_REACTORS
330
C
102
}
330
C
100
AcDbDictionary
281
     1
  3
2dWireframe
350
4098
  3
Basic
350
4097
  3
Brighten
350
409E
  3
ColorChange
350
40A2
  3
Conceptual
350
409B
  3
Dim
350
409D
  3
EdgeColorOff
350
40AA
  3
Facepattern
350
40A1
  3
Flat
350
4093
  3
FlatWithEdges
350
4094
  3
Gouraud
350
4095
  3
GouraudWithEdges
350
4096
  3
Hidden
350
409A
  3
JitterOff
350
40A8
  3
Linepattern
350
40A0
  3
OverhangOff
350
40A9
  3
Realistic
350
409C
  3
Shaded
350
40A7
  3
Shaded with edges
350
40A6
  3
Shades of Gray
350
40A3
  3
Sketchy
350
40A4
  3
Thicken
350
409F
  3
Wireframe
350
4099
  3
X-Ray
350
40A5
  0
XRECORD
  5
417C
102
{ACAD_REACTORS
330
C
102
}
330
C
100
AcDbXrecord
280
     1
 90
        1
330
40AD
  0
DICTIONARY
  5
7F0
102
{ACAD_REACTORS
330
C
102
}
330
C
100
AcDbDictionary
281
     1
  3
CANNOSCALE
350
411B
  3
CMLEADERSTYLE
350
4117
  3
CTABLESTYLE
350
4116
  3
CVIEWDETAILSTYLE
350
4118
  3
CVIEWSECTIONSTYLE
350
4119
  3
DIMASSOC
350
23C4
  3
LAYEREVAL
350
411D
  3
LAYERNOTIFY
350
411E
  3
LIGHTINGUNITS
350
411C
  3
MSLTSCALE
350
411A
  3
SORTENTS
350
7F1
  3
XCLIPFRAME
350
4179
  0
DICTIONARY
  5
4182
102
{ACAD_REACTORS
330
C
102
}
330
C
100
AcDbDictionary
281
     1
  3
AcDsRecords
350
4184
  3
AcDsSchemas
350
4183
1001
ACAD
1070
     2
  0
DICTIONARY
  5
40CD
102
{ACAD_REACTORS
330
40CC
102
}
330
40CC
100
AcDbDictionary
281
     1
  0
XRECORD
  5
40EF
102
{ACAD_REACTORS
330
40EE
102
}
330
40EE
100
AcDbXrecord
280
     1
290
     1
  0
XRECORD
  5
40F1
102
{ACAD_REACTORS
330
40F0
102
}
330
40F0
100
AcDbXrecord
280
     1
290
     1
  0
XRECORD
  5
40F3
102
{ACAD_REACTORS
330
40F2
102
}
330
40F2
100
AcDbXrecord
280
     1
290
     1
  0
XRECORD
  5
40F5
102
{ACAD_REACTORS
330
40F4
102
}
330
40F4
100
AcDbXrecord
280
     1
290
     1
  0
XRECORD
  5
40F7
102
{ACAD_REACTORS
330
40F6
102
}
330
40F6
100
AcDbXrecord
280
     1
290
     1
  0
XRECORD
  5
40F9
102
{ACAD_REACTORS
330
40F8
102
}
330
40F8
100
AcDbXrecord
280
     1
290
     1
  0
XRECORD
  5
40FB
102
{ACAD_REACTORS
330
40FA
102
}
330
40FA
100
AcDbXrecord
280
     1
290
     1
  0
XRECORD
  5
40FD
102
{ACAD_REACTORS
330
40FC
102
}
330
40FC
100
AcDbXrecord
280
     1
290
     1
  0
XRECORD
  5
40FF
102
{ACAD_REACTORS
330
40FE
102
}
330
40FE
100
AcDbXrecord
280
     1
290
     1
  0
XRECORD
  5
4101
102
{ACAD_REACTORS
330
4100
102
}
330
4100
100
AcDbXrecord
280
     1
290
     1
  0
XRECORD
  5
4103
102
{ACAD_REACTORS
330
4102
102
}
330
4102
100
AcDbXrecord
280
     1
290
     1
  0
XRECORD
  5
4105
102
{ACAD_REACTORS
330
4104
102
}
330
4104
100
AcDbXrecord
280
     1
290
     1
  0
XRECORD
  5
1EE3
102
{ACAD_REACTORS
330
81C
102
}
330
81C
100
AcDbXrecord
280
     1
340
18
  0
XRECORD
  5
4186
102
{ACAD_REACTORS
330
4185
102
}
330
4185
100
AcDbXrecord
280
     1
 40
78122.0
  1
minerální tepelná izolace
  0
XRECORD
  5
41BF
102
{ACAD_REACTORS
330
41BE
102
}
330
41BE
100
AcDbXrecord
280
     1
 40
350889.0
  1
{\C7;* Poplastované klipsy nejsou vyráběny ve všech rozměrech}
  0
ACDBDETAILVIEWSTYLE
  5
40C5
102
{ACAD_REACTORS
330
40C4
102
}
330
40C4
100
AcDbModelDocViewStyle
 70
     0
  3
Metric50
290
     0
100
AcDbDetailViewStyle
 70
     0
 71
     0
 90
        3
 71
     1
340
F
 62
   256
 40
5.0
340
0
 62
   256
 40
5.0
300

 40
0.0
280
     1
 71
     2
340
14
 90
       25
 62
   256
 71
     3
340
F
 62
   256
 40
5.0
 90
        0
 40
15.0
 90
        1
300
%<\AcVar ViewDetailId>% (%<\AcVar ViewScale \f "%sn">%)
 71
     4
340
14
 90
       25
 62
   256
340
14
 90
       25
 62
   256
280
     0
  0
IMAGEDEF
  5
6C6
102
{ACAD_REACTORS
330
6C4
102
}
330
6C4
100
AcDbRasterImageDef
 90
        0
  1
C:\Kalzip.pcx
 10
944.0
 20
1927.0
 11
0.0010593220338983
 21
0.0010593220338983
280
     1
281
     0
  0
LAYOUT
  5
2657
102
{ACAD_REACTORS
330
5E9
102
}
330
5E9
100
AcDbPlotSettings
  1

  2
Brother HL-760
  4
A4
  6

 40
6.043083
 41
6.762742
 42
7.736419999999999
 43
5.027069
 44
209.973328
 45
296.968323
 46
0.0
 47
0.0
 48
0.0
 49
0.0
140
210.0
141
297.0
142
1.0
143
1.0
 70
   688
 72
     1
 73
     0
 74
     5
  7
CORUS_Mono.ctb
 75
    16
147
1.0
 76
     0
 77
     2
 78
   300
148
0.0
149
0.0
100
AcDbLayout
  1
A4
 70
     0
 71
     1
 10
-6.043083
 20
-6.762742
 11
203.930245
 21
290.205581
 12
0.0
 22
0.0
 32
0.0
 14
1.137950576572507
 24
2.642657989685733
 34
0.0
 15
196.0315659403611
 25
281.2760437736162
 35
0.0
146
0.0
 13
0.0
 23
0.0
 33
0.0
 16
1.0
 26
0.0
 36
0.0
 17
0.0
 27
1.0
 37
0.0
 76
     0
330
2658
331
2659
  0
LAYOUT
  5
5EB
102
{ACAD_REACTORS
330
5E9
102
}
330
5E9
100
AcDbPlotSettings
  1

  2
\\BSSRV01\Océ 5120 A0
  4
A4
  6

 40
3.174999952316284
 41
3.174999952316284
 42
3.175003051757812
 43
3.17498779296875
 44
209.9733276367187
 45
296.9683227539062
 46
0.0
 47
0.0
 48
0.0
 49
0.0
140
0.0
141
0.0
142
1.0
143
1.0
 70
 11952
 72
     1
 73
     1
 74
     0
  7

 75
     0
147
1.0
 76
     0
 77
     2
 78
   300
148
973.0712272420497
149
544.3184272033454
100
AcDbLayout
  1
Model
 70
     1
 71
     0
 10
0.0
 20
0.0
 11
12.0
 21
9.0
 12
0.0
 22
0.0
 32
0.0
 14
0.0
 24
0.0
 34
0.0
 15
0.0
 25
0.0
 35
0.0
146
0.0
 13
0.0
 23
0.0
 33
0.0
 16
1.0
 26
0.0
 36
0.0
 17
0.0
 27
1.0
 37
0.0
 76
     0
330
18
  0
MATERIAL
  5
4082
102
{ACAD_XDICTIONARY
360
4083
102
}
102
{ACAD_REACTORS
330
4079
102
}
330
4079
100
AcDbMaterial
  1
ByBlock
 72
     0
 43
0.0208333333333333
 43
0.0
 43
0.0
 43
0.0
 43
0.0
 43
0.0208333333333333
 43
0.0
 43
0.0
 43
0.0
 43
0.0
 43
1.0
 43
0.0
 43
0.0
 43
0.0
 43
0.0
 43
1.0
 77
     0
 47
0.0208333333333333
 47
0.0
 47
0.0
 47
0.0
 47
0.0
 47
0.0208333333333333
 47
0.0
 47
0.0
 47
0.0
 47
0.0
 47
1.0
 47
0.0
 47
0.0
 47
0.0
 47
0.0
 47
1.0
171
     0
 49
0.0208333333333333
 49
0.0
 49
0.0
 49
0.0
 49
0.0
 49
0.0208333333333333
 49
0.0
 49
0.0
 49
0.0
 49
0.0
 49
1.0
 49
0.0
 49
0.0
 49
0.0
 49
0.0
 49
1.0
175
     0
142
0.0208333333333333
142
0.0
142
0.0
142
0.0
142
0.0
142
0.0208333333333333
142
0.0
142
0.0
142
0.0
142
0.0
142
1.0
142
0.0
142
0.0
142
0.0
142
0.0
142
1.0
179
     0
144
0.0208333333333333
144
0.0
144
0.0
144
0.0
144
0.0
144
0.0208333333333333
144
0.0
144
0.0
144
0.0
144
0.0
144
1.0
144
0.0
144
0.0
144
0.0
144
0.0
144
1.0
147
0.0208333333333333
147
0.0
147
0.0
147
0.0
147
0.0
147
0.0208333333333333
147
0.0
147
0.0
147
0.0
147
0.0
147
1.0
147
0.0
147
0.0
147
0.0
147
0.0
147
1.0
  0
MATERIAL
  5
407A
102
{ACAD_XDICTIONARY
360
407B
102
}
102
{ACAD_REACTORS
330
4079
102
}
330
4079
100
AcDbMaterial
  1
ByLayer
 72
     0
 43
0.0208333333333333
 43
0.0
 43
0.0
 43
0.0
 43
0.0
 43
0.0208333333333333
 43
0.0
 43
0.0
 43
0.0
 43
0.0
 43
1.0
 43
0.0
 43
0.0
 43
0.0
 43
0.0
 43
1.0
 77
     0
 47
0.0208333333333333
 47
0.0
 47
0.0
 47
0.0
 47
0.0
 47
0.0208333333333333
 47
0.0
 47
0.0
 47
0.0
 47
0.0
 47
1.0
 47
0.0
 47
0.0
 47
0.0
 47
0.0
 47
1.0
171
     0
 49
0.0208333333333333
 49
0.0
 49
0.0
 49
0.0
 49
0.0
 49
0.0208333333333333
 49
0.0
 49
0.0
 49
0.0
 49
0.0
 49
1.0
 49
0.0
 49
0.0
 49
0.0
 49
0.0
 49
1.0
175
     0
142
0.0208333333333333
142
0.0
142
0.0
142
0.0
142
0.0
142
0.0208333333333333
142
0.0
142
0.0
142
0.0
142
0.0
142
1.0
142
0.0
142
0.0
142
0.0
142
0.0
142
1.0
179
     0
144
0.0208333333333333
144
0.0
144
0.0
144
0.0
144
0.0
144
0.0208333333333333
144
0.0
144
0.0
144
0.0
144
0.0
144
1.0
144
0.0
144
0.0
144
0.0
144
0.0
144
1.0
147
0.0208333333333333
147
0.0
147
0.0
147
0.0
147
0.0
147
0.0208333333333333
147
0.0
147
0.0
147
0.0
147
0.0
147
1.0
147
0.0
147
0.0
147
0.0
147
0.0
147
1.0
  0
MATERIAL
  5
408A
102
{ACAD_XDICTIONARY
360
408B
102
}
102
{ACAD_REACTORS
330
4079
102
}
330
4079
100
AcDbMaterial
  1
Global
 72
     0
 43
0.0208333333333333
 43
0.0
 43
0.0
 43
0.0
 43
0.0
 43
0.0208333333333333
 43
0.0
 43
0.0
 43
0.0
 43
0.0
 43
1.0
 43
0.0
 43
0.0
 43
0.0
 43
0.0
 43
1.0
 77
     0
 47
0.0208333333333333
 47
0.0
 47
0.0
 47
0.0
 47
0.0
 47
0.0208333333333333
 47
0.0
 47
0.0
 47
0.0
 47
0.0
 47
1.0
 47
0.0
 47
0.0
 47
0.0
 47
0.0
 47
1.0
171
     0
 49
0.0208333333333333
 49
0.0
 49
0.0
 49
0.0
 49
0.0
 49
0.0208333333333333
 49
0.0
 49
0.0
 49
0.0
 49
0.0
 49
1.0
 49
0.0
 49
0.0
 49
0.0
 49
0.0
 49
1.0
175
     0
142
0.0208333333333333
142
0.0
142
0.0
142
0.0
142
0.0
142
0.0208333333333333
142
0.0
142
0.0
142
0.0
142
0.0
142
1.0
142
0.0
142
0.0
142
0.0
142
0.0
142
1.0
179
     0
144
0.0208333333333333
144
0.0
144
0.0
144
0.0
144
0.0
144
0.0208333333333333
144
0.0
144
0.0
144
0.0
144
0.0
144
1.0
144
0.0
144
0.0
144
0.0
144
0.0
144
1.0
147
0.0208333333333333
147
0.0
147
0.0
147
0.0
147
0.0
147
0.0208333333333333
147
0.0
147
0.0
147
0.0
147
0.0
147
1.0
147
0.0
147
0.0
147
0.0
147
0.0
147
1.0
  0
MLEADERSTYLE
  5
40C1
102
{ACAD_XDICTIONARY
360
41BC
102
}
102
{ACAD_REACTORS
330
40C0
102
}
330
40C0
100
AcDbMLeaderStyle
170
     2
171
     1
172
     0
 90
        2
 40
0.0
 41
0.0
173
     1
 91
-1056964608
340
12
 92
       -2
290
     1
 42
2.0
291
     1
 43
0.36
  3
Standard
 44
4.0
300

342
F
174
     1
178
     6
175
     1
176
     0
 93
-1056964608
 45
4.0
292
     0
297
     0
 46
4.0
 94
-1056964608
 47
1.0
 49
1.0
140
1.0
293
     1
141
0.0
294
     1
177
     0
142
1.0
295
     0
296
     0
143
0.125
1001
ACAD_MLEADERVER
1070
     2
  0
MLINESTYLE
  5
1C
102
{ACAD_REACTORS
330
1B
102
}
330
1B
100
AcDbMlineStyle
  2
STANDARD
 70
     0
  3

 62
   256
 51
90.0
 52
90.0
 71
     2
 49
0.5
 62
   256
  6
BYLAYER
 49
-0.5
 62
   256
  6
BYLAYER
  0
PLOTSETTINGS
  5
361E
102
{ACAD_REACTORS
330
5EA
102
}
330
5EA
100
AcDbPlotSettings
  1
kzform
  2
Brother HL-1250 series
  4
A4
  6

 40
6.720416545867919
 41
5.027085304260253
 42
6.889755249023437
 43
5.027069091796875
 44
209.9733276367187
 45
296.9259948730469
 46
0.0
 47
0.0
 48
0.0
 49
22.0
140
199.0
141
309.0
142
1.0
143
1.013428405888407
 70
  1712
 72
     1
 73
     0
 74
     4
  7
CORUS_Mono.ctb
 75
     0
147
0.9867495268433536
 76
     0
 77
     2
 78
   300
148
0.0
149
-22.0
  0
ACDBPLACEHOLDER
  5
5E8
102
{ACAD_REACTORS
330
5E7
102
}
330
5E7
  0
SCALE
  5
40AF
102
{ACAD_REACTORS
330
40AE
102
}
330
40AE
100
AcDbScale
 70
     0
300
1:1
140
1.0
141
1.0
290
     1
  0
SCALE
  5
40B0
102
{ACAD_REACTORS
330
40AE
102
}
330
40AE
100
AcDbScale
 70
     0
300
1:2
140
1.0
141
2.0
290
     0
  0
SCALE
  5
40B1
102
{ACAD_REACTORS
330
40AE
102
}
330
40AE
100
AcDbScale
 70
     0
300
1:4
140
1.0
141
4.0
290
     0
  0
SCALE
  5
40B2
102
{ACAD_REACTORS
330
40AE
102
}
330
40AE
100
AcDbScale
 70
     0
300
1:5
140
1.0
141
5.0
290
     0
  0
SCALE
  5
40B3
102
{ACAD_REACTORS
330
40AE
102
}
330
40AE
100
AcDbScale
 70
     0
300
1:8
140
1.0
141
8.0
290
     0
  0
SCALE
  5
40B4
102
{ACAD_REACTORS
330
40AE
102
}
330
40AE
100
AcDbScale
 70
     0
300
1:10
140
1.0
141
10.0
290
     0
  0
SCALE
  5
40B5
102
{ACAD_REACTORS
330
40AE
102
}
330
40AE
100
AcDbScale
 70
     0
300
1:16
140
1.0
141
16.0
290
     0
  0
SCALE
  5
40B6
102
{ACAD_REACTORS
330
40AE
102
}
330
40AE
100
AcDbScale
 70
     0
300
1:20
140
1.0
141
20.0
290
     0
  0
SCALE
  5
40B7
102
{ACAD_REACTORS
330
40AE
102
}
330
40AE
100
AcDbScale
 70
     0
300
1:30
140
1.0
141
30.0
290
     0
  0
SCALE
  5
40B8
102
{ACAD_REACTORS
330
40AE
102
}
330
40AE
100
AcDbScale
 70
     0
300
1:40
140
1.0
141
40.0
290
     0
  0
SCALE
  5
40B9
102
{ACAD_REACTORS
330
40AE
102
}
330
40AE
100
AcDbScale
 70
     0
300
1:50
140
1.0
141
50.0
290
     0
  0
SCALE
  5
40BA
102
{ACAD_REACTORS
330
40AE
102
}
330
40AE
100
AcDbScale
 70
     0
300
1:100
140
1.0
141
100.0
290
     0
  0
SCALE
  5
40BB
102
{ACAD_REACTORS
330
40AE
102
}
330
40AE
100
AcDbScale
 70
     0
300
2:1
140
2.0
141
1.0
290
     0
  0
SCALE
  5
40BC
102
{ACAD_REACTORS
330
40AE
102
}
330
40AE
100
AcDbScale
 70
     0
300
4:1
140
4.0
141
1.0
290
     0
  0
SCALE
  5
40BD
102
{ACAD_REACTORS
330
40AE
102
}
330
40AE
100
AcDbScale
 70
     0
300
8:1
140
8.0
141
1.0
290
     0
  0
SCALE
  5
40BE
102
{ACAD_REACTORS
330
40AE
102
}
330
40AE
100
AcDbScale
 70
     0
300
10:1
140
10.0
141
1.0
290
     0
  0
SCALE
  5
40BF
102
{ACAD_REACTORS
330
40AE
102
}
330
40AE
100
AcDbScale
 70
     0
300
100:1
140
100.0
141
1.0
290
     0
  0
ACDBSECTIONVIEWSTYLE
  5
40C3
102
{ACAD_REACTORS
330
40C2
102
}
330
40C2
100
AcDbModelDocViewStyle
 70
     0
  3
Metric50
290
     0
100
AcDbSectionViewStyle
 70
     0
 71
     0
 90
      102
 71
     1
340
F
 62
   256
 40
5.0
340
0
340
0
 62
   256
 40
5.0
300
I, O, Q, S, X, Z
 40
10.0
 90
        0
 40
2.5
 90
        0
 71
     2
340
14
 90
       25
 62
   256
340
14
 90
       50
 62
   256
 40
5.0
 40
2.5
 40
5.0
 71
     3
340
F
 62
   256
 40
5.0
 90
        0
 40
15.0
 90
        1
300
%<\AcVar ViewSectionStartId>%-%<\AcVar ViewSectionEndId>% (%<\AcVar ViewScale \f "%sn">%)
 71
     4
 62
   256
 62
   257
300
ANSI31
 40
1.0
 90
        0
290
     0
290
     0
 90
        6
 40
0.0
 40
1.570796326794896
 40
0.2617993877991494
 40
1.308996938995747
 40
-0.2617993877991494
 40
1.832595714594046
  0
TABLESTYLE
  5
40AD
102
{ACAD_XDICTIONARY
360
417A
102
}
102
{ACAD_REACTORS
330
40AC
102
}
330
40AC
100
AcDbTableStyle
  3
Standard
 70
     0
 71
     0
 40
1.5
 41
1.5
280
     0
281
     0
  7
STANDARD
140
4.5
170
     2
 62
     0
 63
     7
283
     0
274
    -2
284
     1
 64
     0
275
    -2
285
     1
 65
     0
276
    -2
286
     1
 66
     0
277
    -2
287
     1
 67
     0
278
    -2
288
     1
 68
     0
279
    -2
289
     1
 69
     0
  7
STANDARD
140
6.0
170
     5
 62
     0
 63
     7
283
     0
274
    -2
284
     1
 64
     0
275
    -2
285
     1
 65
     0
276
    -2
286
     1
 66
     0
277
    -2
287
     1
 67
     0
278
    -2
288
     1
 68
     0
279
    -2
289
     1
 69
     0
  7
STANDARD
140
4.5
170
     5
 62
     0
 63
     7
283
     0
274
    -2
284
     1
 64
     0
275
    -2
285
     1
 65
     0
276
    -2
286
     1
 66
     0
277
    -2
287
     1
 67
     0
278
    -2
288
     1
 68
     0
279
    -2
289
     1
 69
     0
  0
VISUALSTYLE
  5
4098
102
{ACAD_XDICTIONARY
360
4194
102
}
102
{ACAD_REACTORS
330
4092
102
}
330
4092
100
AcDbVisualStyle
  2
2dWireframe
 70
     4
 71
     0
 72
     2
 73
     0
 90
        0
 40
-0.6
 41
-30.0
 62
     5
 63
     7
421
 16777215
 74
     1
 91
        4
 64
     7
 65
   257
 75
     1
175
     1
 42
1.0
 92
        0
 66
   257
 43
1.0
 76
     1
 77
     6
 78
     2
 67
     7
 79
     5
170
     0
171
     0
290
     0
174
     0
 93
        1
 44
0.0
173
     0
291
     0
 45
0.0
1001
ACAD
1000
AcDbSavedByObjectVersion
1070
     0
  0
VISUALSTYLE
  5
4097
102
{ACAD_XDICTIONARY
360
4192
102
}
102
{ACAD_REACTORS
330
4092
102
}
330
4092
100
AcDbVisualStyle
  2
Basic
 70
     7
 71
     1
 72
     0
 73
     1
 90
        0
 40
-0.6
 41
-30.0
 62
     5
 63
     7
421
 16777215
 74
     0
 91
        4
 64
     7
 65
   257
 75
     1
175
     1
 42
1.0
 92
        8
 66
     7
 43
1.0
 76
     1
 77
     6
 78
     2
 67
     7
 79
     5
170
     0
171
     0
290
     0
174
     0
 93
        1
 44
0.0
173
     0
291
     1
 45
0.0
1001
ACAD
1000
AcDbSavedByObjectVersion
1070
     0
  0
VISUALSTYLE
  5
409E
102
{ACAD_XDICTIONARY
360
41A0
102
}
102
{ACAD_REACTORS
330
4092
102
}
330
4092
100
AcDbVisualStyle
  2
Brighten
 70
    12
 71
     2
 72
     2
 73
     0
 90
        0
 40
-0.6
 41
-30.0
 62
     5
 63
     7
421
 16777215
 74
     1
 91
        4
 64
     7
 65
   257
 75
     1
175
     1
 42
1.0
 92
        8
 66
     7
 43
1.0
 76
     1
 77
     6
 78
     2
 67
     7
 79
     5
170
     0
171
     0
290
     0
174
     0
 93
        1
 44
50.0
173
     0
291
     1
 45
0.0
1001
ACAD
1000
AcDbSavedByObjectVersion
1070
     0
  0
VISUALSTYLE
  5
40A2
102
{ACAD_XDICTIONARY
360
41A8
102
}
102
{ACAD_REACTORS
330
4092
102
}
330
4092
100
AcDbVisualStyle
  2
ColorChange
 70
    16
 71
     2
 72
     2
 73
     3
 90
        0
 40
-0.6
 41
-30.0
 62
     5
 63
     8
421
  8421504
 74
     1
 91
        4
 64
     7
 65
   257
 75
     1
175
     1
 42
1.0
 92
        8
 66
     8
424
  8421504
 43
1.0
 76
     1
 77
     6
 78
     2
 67
     7
 79
     5
170
     0
171
     0
290
     0
174
     0
 93
        1
 44
0.0
173
     0
291
     1
 45
0.0
1001
ACAD
1000
AcDbSavedByObjectVersion
1070
     0
  0
VISUALSTYLE
  5
409B
102
{ACAD_XDICTIONARY
360
419A
102
}
102
{ACAD_REACTORS
330
4092
102
}
330
4092
100
AcDbVisualStyle
  2
Conceptual
 70
     9
 71
     3
 72
     2
 73
     0
 90
        0
 40
-0.6
 41
-30.0
 62
     5
 63
     7
421
 16777215
 74
     2
 91
        2
 64
     7
 65
   257
 75
     1
175
     1
 42
179.0
 92
        8
 66
     7
 43
1.0
 76
     1
 77
     6
 78
     2
 67
     7
 79
     3
170
     0
171
     0
290
     0
174
     0
 93
        1
 44
0.0
173
     0
291
     0
 45
0.0
1001
ACAD
1000
AcDbSavedByObjectVersion
1070
     0
  0
VISUALSTYLE
  5
409D
102
{ACAD_XDICTIONARY
360
419E
102
}
102
{ACAD_REACTORS
330
4092
102
}
330
4092
100
AcDbVisualStyle
  2
Dim
 70
    11
 71
     2
 72
     2
 73
     0
 90
        0
 40
-0.6
 41
-30.0
 62
     5
 63
     7
421
 16777215
 74
     1
 91
        4
 64
     7
 65
   257
 75
     1
175
     1
 42
1.0
 92
        8
 66
     7
 43
1.0
 76
     1
 77
     6
 78
     2
 67
     7
 79
     5
170
     0
171
     0
290
     0
174
     0
 93
        1
 44
-50.0
173
     0
291
     1
 45
0.0
1001
ACAD
1000
AcDbSavedByObjectVersion
1070
     0
  0
VISUALSTYLE
  5
40AA
102
{ACAD_XDICTIONARY
360
41B8
102
}
102
{ACAD_REACTORS
330
4092
102
}
330
4092
100
AcDbVisualStyle
  2
EdgeColorOff
 70
    22
 71
     2
 72
     2
 73
     0
 90
        0
 40
-0.6
 41
-30.0
 62
     5
 63
     7
421
 16777215
 74
     1
 91
        4
 64
     7
 65
   257
 75
     1
175
     1
 42
1.0
 92
        8
 66
     7
 43
1.0
 76
     1
 77
     6
 78
     2
 67
     7
 79
     5
170
     0
171
     0
290
     0
174
     0
 93
        1
 44
0.0
173
     0
291
     1
 45
0.0
1001
ACAD
1000
AcDbSavedByObjectVersion
1070
     0
  0
VISUALSTYLE
  5
40A1
102
{ACAD_XDICTIONARY
360
41A6
102
}
102
{ACAD_REACTORS
330
4092
102
}
330
4092
100
AcDbVisualStyle
  2
Facepattern
 70
    15
 71
     2
 72
     2
 73
     0
 90
        0
 40
-0.6
 41
-30.0
 62
     5
 63
     7
421
 16777215
 74
     1
 91
        4
 64
     7
 65
   257
 75
     1
175
     1
 42
1.0
 92
        8
 66
     7
 43
1.0
 76
     1
 77
     6
 78
     2
 67
     7
 79
     5
170
     0
171
     0
290
     0
174
     0
 93
        1
 44
0.0
173
     0
291
     1
 45
0.0
1001
ACAD
1000
AcDbSavedByObjectVersion
1070
     0
  0
VISUALSTYLE
  5
4093
102
{ACAD_XDICTIONARY
360
418A
102
}
102
{ACAD_REACTORS
330
4092
102
}
330
4092
100
AcDbVisualStyle
  2
Flat
 70
     0
 71
     2
 72
     1
 73
     1
 90
        2
 40
-0.6
 41
30.0
 62
     5
 63
     7
421
 16777215
 74
     0
 91
        0
 64
     7
 65
   257
 75
     1
175
     1
 42
1.0
 92
        8
 66
     7
 43
1.0
 76
     1
 77
     6
 78
     2
 67
     7
 79
     5
170
     0
171
     0
290
     0
174
     0
 93
       13
 44
0.0
173
     0
291
     1
 45
0.0
1001
ACAD
1000
AcDbSavedByObjectVersion
1070
     0
  0
VISUALSTYLE
  5
4094
102
{ACAD_XDICTIONARY
360
418C
102
}
102
{ACAD_REACTORS
330
4092
102
}
330
4092
100
AcDbVisualStyle
  2
FlatWithEdges
 70
     1
 71
     2
 72
     1
 73
     1
 90
        2
 40
-0.6
 41
30.0
 62
     5
 63
     7
421
 16777215
 74
     1
 91
        0
 64
     7
 65
   257
 75
     1
175
     1
 42
1.0
 92
        0
 66
   257
 43
1.0
 76
     1
 77
     6
 78
     2
 67
     7
 79
     5
170
     0
171
     0
290
     0
174
     0
 93
       13
 44
0.0
173
     0
291
     1
 45
0.0
1001
ACAD
1000
AcDbSavedByObjectVersion
1070
     0
  0
VISUALSTYLE
  5
4095
102
{ACAD_XDICTIONARY
360
418E
102
}
102
{ACAD_REACTORS
330
4092
102
}
330
4092
100
AcDbVisualStyle
  2
Gouraud
 70
     2
 71
     2
 72
     2
 73
     1
 90
        2
 40
-0.6
 41
30.0
 62
     5
 63
     7
421
 16777215
 74
     0
 91
        0
 64
     7
 65
   257
 75
     1
175
     1
 42
1.0
 92
        0
 66
     7
 43
1.0
 76
     1
 77
     6
 78
     2
 67
     7
 79
     5
170
     0
171
     0
290
     0
174
     0
 93
       13
 44
0.0
173
     0
291
     1
 45
0.0
1001
ACAD
1000
AcDbSavedByObjectVersion
1070
     0
  0
VISUALSTYLE
  5
4096
102
{ACAD_XDICTIONARY
360
4190
102
}
102
{ACAD_REACTORS
330
4092
102
}
330
4092
100
AcDbVisualStyle
  2
GouraudWithEdges
 70
     3
 71
     2
 72
     2
 73
     1
 90
        2
 40
-0.6
 41
30.0
 62
     5
 63
     7
421
 16777215
 74
     1
 91
        0
 64
     7
 65
   257
 75
     1
175
     1
 42
1.0
 92
        0
 66
   257
 43
1.0
 76
     1
 77
     6
 78
     2
 67
     7
 79
     5
170
     0
171
     0
290
     0
174
     0
 93
       13
 44
0.0
173
     0
291
     1
 45
0.0
1001
ACAD
1000
AcDbSavedByObjectVersion
1070
     0
  0
VISUALSTYLE
  5
409A
102
{ACAD_XDICTIONARY
360
4198
102
}
102
{ACAD_REACTORS
330
4092
102
}
330
4092
100
AcDbVisualStyle
  2
Hidden
 70
     6
 71
     1
 72
     2
 73
     2
 90
        0
 40
-0.6
 41
-30.0
 62
     5
 63
     7
421
 16777215
 74
     2
 91
        2
 64
     7
 65
   257
 75
     2
175
     1
 42
40.0
 92
        0
 66
   257
 43
1.0
 76
     1
 77
     6
 78
     2
 67
     7
 79
     3
170
     0
171
     0
290
     0
174
     0
 93
        1
 44
0.0
173
     0
291
     0
 45
0.0
1001
ACAD
1000
AcDbSavedByObjectVersion
1070
     0
  0
VISUALSTYLE
  5
40A8
102
{ACAD_XDICTIONARY
360
41B4
102
}
102
{ACAD_REACTORS
330
4092
102
}
330
4092
100
AcDbVisualStyle
  2
JitterOff
 70
    20
 71
     2
 72
     2
 73
     0
 90
        0
 40
-0.6
 41
-30.0
 62
     5
 63
     7
421
 16777215
 74
     1
 91
        4
 64
     7
 65
   257
 75
     1
175
     1
 42
1.0
 92
       10
 66
     7
 43
1.0
 76
     1
 77
     6
 78
     2
 67
     7
 79
     5
170
     0
171
     0
290
     0
174
     0
 93
        1
 44
0.0
173
     0
291
     1
 45
0.0
1001
ACAD
1000
AcDbSavedByObjectVersion
1070
     0
  0
VISUALSTYLE
  5
40A0
102
{ACAD_XDICTIONARY
360
41A4
102
}
102
{ACAD_REACTORS
330
4092
102
}
330
4092
100
AcDbVisualStyle
  2
Linepattern
 70
    14
 71
     2
 72
     2
 73
     0
 90
        0
 40
-0.6
 41
-30.0
 62
     5
 63
     7
421
 16777215
 74
     1
 91
        4
 64
     7
 65
   257
 75
     7
175
     7
 42
1.0
 92
        8
 66
     7
 43
1.0
 76
     1
 77
     6
 78
     2
 67
     7
 79
     5
170
     0
171
     0
290
     0
174
     0
 93
        1
 44
0.0
173
     0
291
     1
 45
0.0
1001
ACAD
1000
AcDbSavedByObjectVersion
1070
     0
  0
VISUALSTYLE
  5
40A9
102
{ACAD_XDICTIONARY
360
41B6
102
}
102
{ACAD_REACTORS
330
4092
102
}
330
4092
100
AcDbVisualStyle
  2
OverhangOff
 70
    21
 71
     2
 72
     2
 73
     0
 90
        0
 40
-0.6
 41
-30.0
 62
     5
 63
     7
421
 16777215
 74
     1
 91
        4
 64
     7
 65
   257
 75
     1
175
     1
 42
1.0
 92
        9
 66
     7
 43
1.0
 76
     1
 77
     6
 78
     2
 67
     7
 79
     5
170
     0
171
     0
290
     0
174
     0
 93
        1
 44
0.0
173
     0
291
     1
 45
0.0
1001
ACAD
1000
AcDbSavedByObjectVersion
1070
     0
  0
VISUALSTYLE
  5
409C
102
{ACAD_XDICTIONARY
360
419C
102
}
102
{ACAD_REACTORS
330
4092
102
}
330
4092
100
AcDbVisualStyle
  2
Realistic
 70
     8
 71
     2
 72
     3
 73
     0
 90
        2
 40
-0.6
 41
30.0
 62
     5
 63
     7
421
 16777215
 74
     0
 91
        0
 64
     7
 65
   257
 75
     1
175
     1
 42
1.0
 92
        8
 66
   257
 43
1.0
 76
     1
 77
     6
 78
     2
 67
     7
 79
     3
170
     0
171
     0
290
     0
174
     0
 93
       13
 44
0.0
173
     0
291
     0
 45
0.0
1001
ACAD
1000
AcDbSavedByObjectVersion
1070
     0
  0
VISUALSTYLE
  5
40A7
102
{ACAD_XDICTIONARY
360
41B2
102
}
102
{ACAD_REACTORS
330
4092
102
}
330
4092
100
AcDbVisualStyle
  2
Shaded
 70
    27
 71
     2
 72
     2
 73
     1
 90
        2
 40
-0.6
 41
30.0
 62
     5
 63
     7
421
 16777215
 74
     0
 91
        4
 64
     7
 65
   257
 75
     1
175
     1
 42
1.0
 92
        8
 66
   257
 43
1.0
 76
     1
 77
     6
 78
     2
 67
     8
425
  7895160
 79
     3
170
     0
171
     0
290
     0
174
     0
 93
        5
 44
0.0
173
     0
291
     0
 45
0.0
1001
ACAD
1000
AcDbSavedByObjectVersion
1070
     0
  0
VISUALSTYLE
  5
40A6
102
{ACAD_XDICTIONARY
360
41B0
102
}
102
{ACAD_REACTORS
330
4092
102
}
330
4092
100
AcDbVisualStyle
  2
Shaded with edges
 70
    26
 71
     2
 72
     2
 73
     1
 90
        2
 40
-0.6
 41
30.0
 62
     5
 63
     7
421
 16777215
 74
     1
 91
       10
 64
     7
 65
   257
 75
     2
175
     1
 42
1.0
 92
        8
 66
   257
 43
1.0
 76
     1
 77
     6
 78
     2
 67
     7
 79
     3
170
     0
171
     0
290
     0
174
     0
 93
        5
 44
0.0
173
     0
291
     0
 45
0.0
1001
ACAD
1000
AcDbSavedByObjectVersion
1070
     0
  0
VISUALSTYLE
  5
40A3
102
{ACAD_XDICTIONARY
360
41AA
102
}
102
{ACAD_REACTORS
330
4092
102
}
330
4092
100
AcDbVisualStyle
  2
Shades of Gray
 70
    23
 71
     2
 72
     2
 73
     3
 90
        0
 40
-0.6
 41
-30.0
 62
     5
 63
     7
421
 16777215
 74
     2
 91
        2
 64
     7
 65
     7
 75
     1
175
     1
 42
40.0
 92
        8
 66
     7
 43
1.0
 76
     1
 77
     6
 78
     2
 67
     7
 79
     3
170
     0
171
     0
290
     0
174
     0
 93
        1
 44
0.0
173
     0
291
     0
 45
0.0
1001
ACAD
1000
AcDbSavedByObjectVersion
1070
     0
  0
VISUALSTYLE
  5
40A4
102
{ACAD_XDICTIONARY
360
41AC
102
}
102
{ACAD_REACTORS
330
4092
102
}
330
4092
100
AcDbVisualStyle
  2
Sketchy
 70
    24
 71
     1
 72
     2
 73
     2
 90
        0
 40
-0.6
 41
-30.0
 62
     5
 63
     7
421
 16777215
 74
     2
 91
        2
 64
     7
 65
     7
 75
     1
175
     1
 42
40.0
 92
       11
 66
     7
 43
1.0
 76
     1
 77
     6
 78
     2
 67
     7
 79
     6
170
     0
171
     0
290
     0
174
     0
 93
        1
 44
0.0
173
     0
291
     0
 45
0.0
1001
ACAD
1000
AcDbSavedByObjectVersion
1070
     0
  0
VISUALSTYLE
  5
409F
102
{ACAD_XDICTIONARY
360
41A2
102
}
102
{ACAD_REACTORS
330
4092
102
}
330
4092
100
AcDbVisualStyle
  2
Thicken
 70
    13
 71
     2
 72
     2
 73
     0
 90
        0
 40
-0.6
 41
-30.0
 62
     5
 63
     7
421
 16777215
 74
     1
 91
        4
 64
     7
 65
   257
 75
     1
175
     1
 42
1.0
 92
       12
 66
     7
 43
1.0
 76
     1
 77
     6
 78
     2
 67
     7
 79
     5
170
     0
171
     0
290
     0
174
     0
 93
        1
 44
0.0
173
     0
291
     1
 45
0.0
1001
ACAD
1000
AcDbSavedByObjectVersion
1070
     0
  0
VISUALSTYLE
  5
4099
102
{ACAD_XDICTIONARY
360
4196
102
}
102
{ACAD_REACTORS
330
4092
102
}
330
4092
100
AcDbVisualStyle
  2
Wireframe
 70
     5
 71
     0
 72
     2
 73
     0
 90
        0
 40
-0.6
 41
-30.0
 62
     5
 63
     7
421
 16777215
 74
     1
 91
        4
 64
     7
 65
   257
 75
     1
175
     1
 42
1.0
 92
        0
 66
   257
 43
1.0
 76
     1
 77
     6
 78
     2
 67
     7
 79
     3
170
     0
171
     0
290
     0
174
     0
 93
        1
 44
0.0
173
     0
291
     0
 45
0.0
1001
ACAD
1000
AcDbSavedByObjectVersion
1070
     0
  0
VISUALSTYLE
  5
40A5
102
{ACAD_XDICTIONARY
360
41AE
102
}
102
{ACAD_REACTORS
330
4092
102
}
330
4092
100
AcDbVisualStyle
  2
X-Ray
 70
    25
 71
     2
 72
     2
 73
     1
 90
        1
 40
0.5
 41
-30.0
 62
     5
 63
     7
421
 16777215
 74
     1
 91
        0
 64
     7
 65
   257
 75
     1
175
     1
 42
1.0
 92
        8
 66
     7
 43
1.0
 76
     1
 77
     6
 78
     2
 67
     7
 79
     3
170
     0
171
     0
290
     0
174
     0
 93
       13
 44
0.0
173
     0
291
     0
 45
0.0
1001
ACAD
1000
AcDbSavedByObjectVersion
1070
     0
  0
DICTIONARYVAR
  5
411B
102
{ACAD_REACTORS
330
7F0
102
}
330
7F0
100
DictionaryVariables
280
     0
  1
1:1
  0
DICTIONARYVAR
  5
4117
102
{ACAD_REACTORS
330
7F0
102
}
330
7F0
100
DictionaryVariables
280
     0
  1
STANDARD
  0
DICTIONARYVAR
  5
4116
102
{ACAD_REACTORS
330
7F0
102
}
330
7F0
100
DictionaryVariables
280
     0
  1
STANDARD
  0
DICTIONARYVAR
  5
4118
102
{ACAD_REACTORS
330
7F0
102
}
330
7F0
100
DictionaryVariables
280
     0
  1
Metric50
  0
DICTIONARYVAR
  5
4119
102
{ACAD_REACTORS
330
7F0
102
}
330
7F0
100
DictionaryVariables
280
     0
  1
Metric50
  0
DICTIONARYVAR
  5
23C4
102
{ACAD_REACTORS
330
7F0
102
}
330
7F0
100
DictionaryVariables
280
     0
  1
1
  0
DICTIONARYVAR
  5
411D
102
{ACAD_REACTORS
330
7F0
102
}
330
7F0
100
DictionaryVariables
280
     0
  1
1
  0
DICTIONARYVAR
  5
411E
102
{ACAD_REACTORS
330
7F0
102
}
330
7F0
100
DictionaryVariables
280
     0
  1
15
  0
DICTIONARYVAR
  5
411C
102
{ACAD_REACTORS
330
7F0
102
}
330
7F0
100
DictionaryVariables
280
     0
  1
0
  0
DICTIONARYVAR
  5
411A
102
{ACAD_REACTORS
330
7F0
102
}
330
7F0
100
DictionaryVariables
280
     0
  1
0
  0
DICTIONARYVAR
  5
7F1
102
{ACAD_REACTORS
330
7F0
102
}
330
7F0
100
DictionaryVariables
280
     0
  1
96
  0
DICTIONARYVAR
  5
4179
102
{ACAD_REACTORS
330
7F0
102
}
330
7F0
100
DictionaryVariables
280
     0
  1
2
  0
DICTIONARY
  5
4184
102
{ACAD_REACTORS
330
4182
102
}
330
4182
100
AcDbDictionary
281
     1
  0
DICTIONARY
  5
4183
102
{ACAD_REACTORS
330
4182
102
}
330
4182
100
AcDbDictionary
281
     1
  3
140695673695312
350
417D
  3
140695673695328
350
417E
  3
140695673695344
350
417F
  3
140695673695360
350
4180
  3
140695673695376
350
4181
  0
DICTIONARY
  5
4083
330
4082
100
AcDbDictionary
280
     1
281
     1
  3
ACAD_XREC_ROUNDTRIP
360
4188
  3
BUMPTILE
360
4085
  3
DIFFUSETILE
360
4084
  3
OPACITYTILE
360
4088
  3
REFLECTIONTILE
360
4087
  3
REFRACTIONTILE
360
4089
  3
SPECULARTILE
360
4086
  0
DICTIONARY
  5
407B
330
407A
100
AcDbDictionary
280
     1
281
     1
  3
ACAD_XREC_ROUNDTRIP
360
4187
  3
BUMPTILE
360
407D
  3
DIFFUSETILE
360
407C
  3
OPACITYTILE
360
4080
  3
REFLECTIONTILE
360
407F
  3
REFRACTIONTILE
360
4081
  3
SPECULARTILE
360
407E
  0
DICTIONARY
  5
408B
330
408A
100
AcDbDictionary
280
     1
281
     1
  3
ACAD_XREC_ROUNDTRIP
360
4189
  3
BUMPTILE
360
408D
  3
DIFFUSETILE
360
408C
  3
OPACITYTILE
360
4090
  3
REFLECTIONTILE
360
408F
  3
REFRACTIONTILE
360
4091
  3
SPECULARTILE
360
408E
  0
DICTIONARY
  5
41BC
330
40C1
100
AcDbDictionary
280
     1
281
     1
  3
ACAD_XREC_ROUNDTRIP
360
41BD
  0
DICTIONARY
  5
417A
330
40AD
100
AcDbDictionary
280
     1
281
     1
  3
ACAD_ROUNDTRIP_2008_TABLESTYLE_CELLSTYLEMAP
360
417B
  3
ACAD_XREC_ROUNDTRIP
360
41BA
  0
DICTIONARY
  5
4194
330
4098
100
AcDbDictionary
280
     1
281
     1
  3
ACAD_XREC_ROUNDTRIP
360
4195
  0
DICTIONARY
  5
4192
330
4097
100
AcDbDictionary
280
     1
281
     1
  3
ACAD_XREC_ROUNDTRIP
360
4193
  0
DICTIONARY
  5
41A0
330
409E
100
AcDbDictionary
280
     1
281
     1
  3
ACAD_XREC_ROUNDTRIP
360
41A1
  0
DICTIONARY
  5
41A8
330
40A2
100
AcDbDictionary
280
     1
281
     1
  3
ACAD_XREC_ROUNDTRIP
360
41A9
  0
DICTIONARY
  5
419A
330
409B
100
AcDbDictionary
280
     1
281
     1
  3
ACAD_XREC_ROUNDTRIP
360
419B
  0
DICTIONARY
  5
419E
330
409D
100
AcDbDictionary
280
     1
281
     1
  3
ACAD_XREC_ROUNDTRIP
360
419F
  0
DICTIONARY
  5
41B8
330
40AA
100
AcDbDictionary
280
     1
281
     1
  3
ACAD_XREC_ROUNDTRIP
360
41B9
  0
DICTIONARY
  5
41A6
330
40A1
100
AcDbDictionary
280
     1
281
     1
  3
ACAD_XREC_ROUNDTRIP
360
41A7
  0
DICTIONARY
  5
418A
330
4093
100
AcDbDictionary
280
     1
281
     1
  3
ACAD_XREC_ROUNDTRIP
360
418B
  0
DICTIONARY
  5
418C
330
4094
100
AcDbDictionary
280
     1
281
     1
  3
ACAD_XREC_ROUNDTRIP
360
418D
  0
DICTIONARY
  5
418E
330
4095
100
AcDbDictionary
280
     1
281
     1
  3
ACAD_XREC_ROUNDTRIP
360
418F
  0
DICTIONARY
  5
4190
330
4096
100
AcDbDictionary
280
     1
281
     1
  3
ACAD_XREC_ROUNDTRIP
360
4191
  0
DICTIONARY
  5
4198
330
409A
100
AcDbDictionary
280
     1
281
     1
  3
ACAD_XREC_ROUNDTRIP
360
4199
  0
DICTIONARY
  5
41B4
330
40A8
100
AcDbDictionary
280
     1
281
     1
  3
ACAD_XREC_ROUNDTRIP
360
41B5
  0
DICTIONARY
  5
41A4
330
40A0
100
AcDbDictionary
280
     1
281
     1
  3
ACAD_XREC_ROUNDTRIP
360
41A5
  0
DICTIONARY
  5
41B6
330
40A9
100
AcDbDictionary
280
     1
281
     1
  3
ACAD_XREC_ROUNDTRIP
360
41B7
  0
DICTIONARY
  5
419C
330
409C
100
AcDbDictionary
280
     1
281
     1
  3
ACAD_XREC_ROUNDTRIP
360
419D
  0
DICTIONARY
  5
41B2
330
40A7
100
AcDbDictionary
280
     1
281
     1
  3
ACAD_XREC_ROUNDTRIP
360
41B3
  0
DICTIONARY
  5
41B0
330
40A6
100
AcDbDictionary
280
     1
281
     1
  3
ACAD_XREC_ROUNDTRIP
360
41B1
  0
DICTIONARY
  5
41AA
330
40A3
100
AcDbDictionary
280
     1
281
     1
  3
ACAD_XREC_ROUNDTRIP
360
41AB
  0
DICTIONARY
  5
41AC
330
40A4
100
AcDbDictionary
280
     1
281
     1
  3
ACAD_XREC_ROUNDTRIP
360
41AD
  0
DICTIONARY
  5
41A2
330
409F
100
AcDbDictionary
280
     1
281
     1
  3
ACAD_XREC_ROUNDTRIP
360
41A3
  0
DICTIONARY
  5
4196
330
4099
100
AcDbDictionary
280
     1
281
     1
  3
ACAD_XREC_ROUNDTRIP
360
4197
  0
DICTIONARY
  5
41AE
330
40A5
100
AcDbDictionary
280
     1
281
     1
  3
ACAD_XREC_ROUNDTRIP
360
41AF
  0
XRECORD
  5
417D
102
{ACAD_REACTORS
330
4183
102
}
330
4183
100
AcDbXrecord
280
     1
  1
AcDb_Thumbnail_Schema
102
{ATTRRECORD
341
417E
  2
AcDbDs::TreatedAsObjectData
280
     1
291
     1
102
ATTRRECORD}
102
{ATTRRECORD
341
417F
  2
AcDbDs::Legacy
280
     1
291
     1
102
ATTRRECORD}
  2
AcDbDs::ID
280
    10
 91
        8
102
{ATTRRECORD
341
4180
  2
AcDs:Indexable
280
     1
291
     1
102
ATTRRECORD}
102
{ATTRRECORD
341
4181
  2
AcDbDs::HandleAttribute
280
     7
282
     1
102
ATTRRECORD}
  2
Thumbnail_Data
280
    15
 91
        0
  0
XRECORD
  5
417E
102
{ACAD_REACTORS
330
4183
102
}
330
4183
100
AcDbXrecord
280
     1
  1
AcDbDs::TreatedAsObjectDataSchema
  2
AcDbDs::TreatedAsObjectData
280
     1
 91
        0
  0
XRECORD
  5
417F
102
{ACAD_REACTORS
330
4183
102
}
330
4183
100
AcDbXrecord
280
     1
  1
AcDbDs::LegacySchema
  2
AcDbDs::Legacy
280
     1
 91
        0
  0
XRECORD
  5
4180
102
{ACAD_REACTORS
330
4183
102
}
330
4183
100
AcDbXrecord
280
     1
  1
AcDbDs::IndexedPropertySchema
  2
AcDs:Indexable
280
     1
 91
        0
  0
XRECORD
  5
4181
102
{ACAD_REACTORS
330
4183
102
}
330
4183
100
AcDbXrecord
280
     1
  1
AcDbDs::HandleAttributeSchema
  2
AcDbDs::HandleAttribute
280
     7
 91
        1
284
     1
  0
XRECORD
  5
4188
102
{ACAD_REACTORS
330
4083
102
}
330
4083
100
AcDbXrecord
280
     1
102
MATERIAL
148
0.0
149
0.0
149
0.0
 93
        0
 94
      127
282
     0
 72
     0
 77
     0
171
     0
175
     0
179
     0
273
     0
  0
XRECORD
  5
4085
102
{ACAD_REACTORS
330
4083
102
}
330
4083
100
AcDbXrecord
280
     1
270
     1
271
     1
  0
XRECORD
  5
4084
102
{ACAD_REACTORS
330
4083
102
}
330
4083
100
AcDbXrecord
280
     1
270
     1
271
     1
  0
XRECORD
  5
4088
102
{ACAD_REACTORS
330
4083
102
}
330
4083
100
AcDbXrecord
280
     1
270
     1
271
     1
  0
XRECORD
  5
4087
102
{ACAD_REACTORS
330
4083
102
}
330
4083
100
AcDbXrecord
280
     1
270
     1
271
     1
  0
XRECORD
  5
4089
102
{ACAD_REACTORS
330
4083
102
}
330
4083
100
AcDbXrecord
280
     1
270
     1
271
     1
  0
XRECORD
  5
4086
102
{ACAD_REACTORS
330
4083
102
}
330
4083
100
AcDbXrecord
280
     1
270
     1
271
     1
  0
XRECORD
  5
4187
102
{ACAD_REACTORS
330
407B
102
}
330
407B
100
AcDbXrecord
280
     1
102
MATERIAL
148
0.0
149
0.0
149
0.0
 93
        0
 94
      127
282
     0
 72
     0
 77
     0
171
     0
175
     0
179
     0
273
     0
  0
XRECORD
  5
407D
102
{ACAD_REACTORS
330
407B
102
}
330
407B
100
AcDbXrecord
280
     1
270
     1
271
     1
  0
XRECORD
  5
407C
102
{ACAD_REACTORS
330
407B
102
}
330
407B
100
AcDbXrecord
280
     1
270
     1
271
     1
  0
XRECORD
  5
4080
102
{ACAD_REACTORS
330
407B
102
}
330
407B
100
AcDbXrecord
280
     1
270
     1
271
     1
  0
XRECORD
  5
407F
102
{ACAD_REACTORS
330
407B
102
}
330
407B
100
AcDbXrecord
280
     1
270
     1
271
     1
  0
XRECORD
  5
4081
102
{ACAD_REACTORS
330
407B
102
}
330
407B
100
AcDbXrecord
280
     1
270
     1
271
     1
  0
XRECORD
  5
407E
102
{ACAD_REACTORS
330
407B
102
}
330
407B
100
AcDbXrecord
280
     1
270
     1
271
     1
  0
XRECORD
  5
4189
102
{ACAD_REACTORS
330
408B
102
}
330
408B
100
AcDbXrecord
280
     1
102
MATERIAL
148
0.0
149
0.0
149
0.0
 93
        0
 94
      127
282
     0
 72
     0
 77
     0
171
     0
175
     0
179
     0
273
     0
  0
XRECORD
  5
408D
102
{ACAD_REACTORS
330
408B
102
}
330
408B
100
AcDbXrecord
280
     1
270
     1
271
     1
  0
XRECORD
  5
408C
102
{ACAD_REACTORS
330
408B
102
}
330
408B
100
AcDbXrecord
280
     1
270
     1
271
     1
  0
XRECORD
  5
4090
102
{ACAD_REACTORS
330
408B
102
}
330
408B
100
AcDbXrecord
280
     1
270
     1
271
     1
  0
XRECORD
  5
408F
102
{ACAD_REACTORS
330
408B
102
}
330
408B
100
AcDbXrecord
280
     1
270
     1
271
     1
  0
XRECORD
  5
4091
102
{ACAD_REACTORS
330
408B
102
}
330
408B
100
AcDbXrecord
280
     1
270
     1
271
     1
  0
XRECORD
  5
408E
102
{ACAD_REACTORS
330
408B
102
}
330
408B
100
AcDbXrecord
280
     1
270
     1
271
     1
  0
XRECORD
  5
41BD
102
{ACAD_REACTORS
330
41BC
102
}
330
41BC
100
AcDbXrecord
280
     1
102
ACAD_ROUNDTRIP_2012_MLEADER_STYLE
298
     1
  0
CELLSTYLEMAP
  5
417B
102
{ACAD_REACTORS
330
417A
102
}
330
417A
100
AcDbCellStyleMap
 90
        3
300
CELLSTYLE
  1
TABLEFORMAT_BEGIN
 90
        5
170
     1
 91
        0
 92
    32768
 62
   257
 93
        1
300
CONTENTFORMAT
  1
CONTENTFORMAT_BEGIN
 90
        0
 91
        0
 92
      512
 93
        0
300

 40
0.0
140
1.0
 94
        5
 62
     0
340
F
144
6.0
309
CONTENTFORMAT_END
171
     1
301
MARGIN
  1
CELLMARGIN_BEGIN
 40
1.5
 40
1.5
 40
1.5
 40
1.5
 40
4.5
 40
4.5
309
CELLMARGIN_END
 94
        6
 95
        1
302
GRIDFORMAT
  1
GRIDFORMAT_BEGIN
 90
        0
 91
        1
 62
     0
 92
       -2
340
0
 93
        0
 40
1.125
309
GRIDFORMAT_END
 95
        2
302
GRIDFORMAT
  1
GRIDFORMAT_BEGIN
 90
        0
 91
        1
 62
     0
 92
       -2
340
0
 93
        0
 40
1.125
309
GRIDFORMAT_END
 95
        4
302
GRIDFORMAT
  1
GRIDFORMAT_BEGIN
 90
        0
 91
        1
 62
     0
 92
       -2
340
0
 93
        0
 40
1.125
309
GRIDFORMAT_END
 95
        8
302
GRIDFORMAT
  1
GRIDFORMAT_BEGIN
 90
        0
 91
        1
 62
     0
 92
       -2
340
0
 93
        0
 40
1.125
309
GRIDFORMAT_END
 95
       16
302
GRIDFORMAT
  1
GRIDFORMAT_BEGIN
 90
        0
 91
        1
 62
     0
 92
       -2
340
0
 93
        0
 40
1.125
309
GRIDFORMAT_END
 95
       32
302
GRIDFORMAT
  1
GRIDFORMAT_BEGIN
 90
        0
 91
        1
 62
     0
 92
       -2
340
0
 93
        0
 40
1.125
309
GRIDFORMAT_END
309
TABLEFORMAT_END
  1
CELLSTYLE_BEGIN
 90
        1
 91
        1
300
_TITLE
309
CELLSTYLE_END
300
CELLSTYLE
  1
TABLEFORMAT_BEGIN
 90
        5
170
     1
 91
        0
 92
        0
 62
   257
 93
        1
300
CONTENTFORMAT
  1
CONTENTFORMAT_BEGIN
 90
        0
 91
        0
 92
      512
 93
        0
300

 40
0.0
140
1.0
 94
        5
 62
     0
340
F
144
4.5
309
CONTENTFORMAT_END
171
     1
301
MARGIN
  1
CELLMARGIN_BEGIN
 40
1.5
 40
1.5
 40
1.5
 40
1.5
 40
4.5
 40
4.5
309
CELLMARGIN_END
 94
        6
 95
        1
302
GRIDFORMAT
  1
GRIDFORMAT_BEGIN
 90
        0
 91
        1
 62
     0
 92
       -2
340
0
 93
        0
 40
1.125
309
GRIDFORMAT_END
 95
        2
302
GRIDFORMAT
  1
GRIDFORMAT_BEGIN
 90
        0
 91
        1
 62
     0
 92
       -2
340
0
 93
        0
 40
1.125
309
GRIDFORMAT_END
 95
        4
302
GRIDFORMAT
  1
GRIDFORMAT_BEGIN
 90
        0
 91
        1
 62
     0
 92
       -2
340
0
 93
        0
 40
1.125
309
GRIDFORMAT_END
 95
        8
302
GRIDFORMAT
  1
GRIDFORMAT_BEGIN
 90
        0
 91
        1
 62
     0
 92
       -2
340
0
 93
        0
 40
1.125
309
GRIDFORMAT_END
 95
       16
302
GRIDFORMAT
  1
GRIDFORMAT_BEGIN
 90
        0
 91
        1
 62
     0
 92
       -2
340
0
 93
        0
 40
1.125
309
GRIDFORMAT_END
 95
       32
302
GRIDFORMAT
  1
GRIDFORMAT_BEGIN
 90
        0
 91
        1
 62
     0
 92
       -2
340
0
 93
        0
 40
1.125
309
GRIDFORMAT_END
309
TABLEFORMAT_END
  1
CELLSTYLE_BEGIN
 90
        2
 91
        1
300
_HEADER
309
CELLSTYLE_END
300
CELLSTYLE
  1
TABLEFORMAT_BEGIN
 90
        5
170
     1
 91
        0
 92
        0
 62
   257
 93
        1
300
CONTENTFORMAT
  1
CONTENTFORMAT_BEGIN
 90
        0
 91
        0
 92
      512
 93
        0
300

 40
0.0
140
1.0
 94
        2
 62
     0
340
F
144
4.5
309
CONTENTFORMAT_END
171
     1
301
MARGIN
  1
CELLMARGIN_BEGIN
 40
1.5
 40
1.5
 40
1.5
 40
1.5
 40
4.5
 40
4.5
309
CELLMARGIN_END
 94
        6
 95
        1
302
GRIDFORMAT
  1
GRIDFORMAT_BEGIN
 90
        0
 91
        1
 62
     0
 92
       -2
340
0
 93
        0
 40
1.125
309
GRIDFORMAT_END
 95
        2
302
GRIDFORMAT
  1
GRIDFORMAT_BEGIN
 90
        0
 91
        1
 62
     0
 92
       -2
340
0
 93
        0
 40
1.125
309
GRIDFORMAT_END
 95
        4
302
GRIDFORMAT
  1
GRIDFORMAT_BEGIN
 90
        0
 91
        1
 62
     0
 92
       -2
340
0
 93
        0
 40
1.125
309
GRIDFORMAT_END
 95
        8
302
GRIDFORMAT
  1
GRIDFORMAT_BEGIN
 90
        0
 91
        1
 62
     0
 92
       -2
340
0
 93
        0
 40
1.125
309
GRIDFORMAT_END
 95
       16
302
GRIDFORMAT
  1
GRIDFORMAT_BEGIN
 90
        0
 91
        1
 62
     0
 92
       -2
340
0
 93
        0
 40
1.125
309
GRIDFORMAT_END
 95
       32
302
GRIDFORMAT
  1
GRIDFORMAT_BEGIN
 90
        0
 91
        1
 62
     0
 92
       -2
340
0
 93
        0
 40
1.125
309
GRIDFORMAT_END
309
TABLEFORMAT_END
  1
CELLSTYLE_BEGIN
 90
        3
 91
        2
300
_DATA
309
CELLSTYLE_END
  0
XRECORD
  5
41BA
102
{ACAD_REACTORS
330
417A
102
}
330
417A
100
AcDbXrecord
280
     1
102
ACAD_ROUNDTRIP_PRE2007_TABLESTYLE
 90
      512
 91
        0
  1

 92
      512
 93
        0
  2

 94
      512
 95
        0
  3

  0
XRECORD
  5
4195
102
{ACAD_REACTORS
330
4194
102
}
330
4194
100
AcDbXrecord
280
     1
102
RTVSPost2010Prop28
280
     1
102
RTVSPost2010PropOp28
 70
     1
102
RTVSPost2010Prop29
280
     1
102
RTVSPost2010PropOp29
 70
     1
102
RTVSPost2010Prop30
280
     0
102
RTVSPost2010PropOp30
 70
     1
102
RTVSPost2010Prop31
280
     0
102
RTVSPost2010PropOp31
 70
     1
102
RTVSPost2010Prop32
280
     0
102
RTVSPost2010PropOp32
 70
     1
102
RTVSPost2010Prop33
280
     0
102
RTVSPost2010PropOp33
 70
     1
102
RTVSPost2010Prop34
280
     0
102
RTVSPost2010PropOp34
 70
     1
102
RTVSPost2010Prop35
280
     0
102
RTVSPost2010PropOp35
 70
     1
102
RTVSPost2010Prop36
280
     0
102
RTVSPost2010PropOp36
 70
     1
102
RTVSPost2010Prop37
 90
       50
102
RTVSPost2010PropOp37
 70
     1
102
RTVSPost2010Prop38
140
0.0
102
RTVSPost2010PropOp38
 70
     1
102
RTVSPost2010Prop39
140
1.0
102
RTVSPost2010PropOp39
 70
     1
102
RTVSPost2010Prop40
 90
        0
102
RTVSPost2010PropOp40
 70
     1
102
RTVSPost2010Prop41ColorIndex
 90
       18
102
RTVSPost2010Prop41ColorRGB
 90
        0
102
RTVSPost2010PropOp41
 70
     1
102
RTVSPost2010Prop42
 90
       50
102
RTVSPost2010PropOp42
 70
     1
102
RTVSPost2010Prop43
 90
        3
102
RTVSPost2010PropOp43
 70
     1
102
RTVSPost2010Prop44ColorIndex
 90
        5
102
RTVSPost2010Prop44ColorRGB
 90
      255
102
RTVSPost2010PropOp44
 70
     1
102
RTVSPost2010Prop45
280
     0
102
RTVSPost2010PropOp45
 70
     1
102
RTVSPost2010Prop46
 90
       50
102
RTVSPost2010PropOp46
 70
     1
102
RTVSPost2010Prop47
 90
       50
102
RTVSPost2010PropOp47
 70
     1
102
RTVSPost2010Prop48
 90
       50
102
RTVSPost2010PropOp48
 70
     1
102
RTVSPost2010Prop49
280
     0
102
RTVSPost2010PropOp49
 70
     1
102
RTVSPost2010Prop50
 90
       50
102
RTVSPost2010PropOp50
 70
     1
102
RTVSPost2010Prop51ColorIndex
 90
      256
102
RTVSPost2010Prop51ColorRGB
 90
-16777216
102
RTVSPost2010PropOp51
 70
     0
102
RTVSPost2010Prop52
140
1.0
102
RTVSPost2010PropOp52
 70
     0
102
RTVSPost2010Prop53
 90
        2
102
RTVSPost2010PropOp53
 70
     1
102
RTVSPost2010Prop54
  1
strokes_ogs.tif
102
RTVSPost2010PropOp54
 70
     1
102
RTVSPost2010Prop55
280
     0
102
RTVSPost2010PropOp55
 70
     1
102
RTVSPost2010Prop56
140
1.0
102
RTVSPost2010PropOp56
 70
     1
102
RTVSPost2010Prop57
140
1.0
102
RTVSPost2010PropOp57
 70
     1
102
RTVSPropertyOp0
 70
     1
102
RTVSPropertyOp1
 70
     1
102
RTVSPropertyOp2
 70
     1
102
RTVSPropertyOp3
 70
     1
102
RTVSPropertyOp4
 70
     1
102
RTVSPropertyOp5
 70
     1
102
RTVSPropertyOp6
 70
     1
102
RTVSPropertyOp7
 70
     1
102
RTVSPropertyOp8
 70
     1
102
RTVSPropertyOp9
 70
     1
102
RTVSPropertyOp10
 70
     1
102
RTVSPropertyOp11
 70
     1
102
RTVSPropertyOp12
 70
     1
102
RTVSPropertyOp13
 70
     1
102
RTVSPropertyOp14
 70
     1
102
RTVSPropertyOp15
 70
     1
102
RTVSPropertyOp16
 70
     1
102
RTVSPropertyOp17
 70
     1
102
RTVSPropertyOp18
 70
     1
102
RTVSPropertyOp19
 70
     1
102
RTVSPropertyOp20
 70
     1
102
RTVSPropertyOp21
 70
     1
102
RTVSPropertyOp22
 70
     1
102
RTVSPropertyOp23
 70
     1
102
RTVSPropertyOp24
 70
     1
102
RTVSPropertyOp25
 70
     1
102
RTVSPropertyOp26
 70
     1
102
RTVSPropertyOp27
 70
     1
102
RTVSPropertyOp28
 70
     1
102
RTVSPropertyOp29
 70
     1
102
RTVSPropertyOp30
 70
     1
102
RTVSPropertyOp31
 70
     1
102
RTVSPropertyOp32
 70
     1
102
RTVSPropertyOp33
 70
     1
102
RTVSPropertyOp34
 70
     1
102
RTVSPropertyOp35
 70
     1
102
RTVSPropertyOp36
 70
     1
102
RTVSPropertyOp37
 70
     1
102
RTVSPropertyOp38
 70
     1
102
RTVSPropertyOp39
 70
     1
102
RTVSPropertyOp40
 70
     1
102
RTVSPropertyOp41
 70
     1
102
RTVSPropertyOp42
 70
     1
102
RTVSPropertyOp43
 70
     1
102
RTVSPropertyOp44
 70
     1
102
RTVSPropertyOp45
 70
     1
102
RTVSPropertyOp46
 70
     1
102
RTVSPropertyOp47
 70
     1
102
RTVSPropertyOp48
 70
     1
102
RTVSPropertyOp49
 70
     1
102
RTVSPropertyOp50
 70
     1
102
RTVSPropertyOp51
 70
     0
102
RTVSPropertyOp52
 70
     0
102
RTVSPropertyOp53
 70
     1
102
RTVSPropertyOp54
 70
     1
102
RTVSPropertyOp55
 70
     1
102
RTVSPropertyOp56
 70
     1
102
RTVSPropertyOp57
 70
     1
102
RTVSPropertyOp58
 70
     1
102
RTVSPropertyOp59
 70
     1
102
RTVSPropertyOp60
 70
     1
102
RTVSPropertyOp61
 70
     1
102
RTVSPropertyOp62
 70
     1
  0
XRECORD
  5
4193
102
{ACAD_REACTORS
330
4192
102
}
330
4192
100
AcDbXrecord
280
     1
102
RTVSPost2010Prop28
280
     0
102
RTVSPost2010PropOp28
 70
     1
102
RTVSPost2010Prop29
280
     1
102
RTVSPost2010PropOp29
 70
     1
102
RTVSPost2010Prop30
280
     1
102
RTVSPost2010PropOp30
 70
     1
102
RTVSPost2010Prop31
280
     0
102
RTVSPost2010PropOp31
 70
     1
102
RTVSPost2010Prop32
280
     0
102
RTVSPost2010PropOp32
 70
     1
102
RTVSPost2010Prop33
280
     0
102
RTVSPost2010PropOp33
 70
     1
102
RTVSPost2010Prop34
280
     0
102
RTVSPost2010PropOp34
 70
     1
102
RTVSPost2010Prop35
280
     0
102
RTVSPost2010PropOp35
 70
     1
102
RTVSPost2010Prop36
280
     0
102
RTVSPost2010PropOp36
 70
     1
102
RTVSPost2010Prop37
 90
       50
102
RTVSPost2010PropOp37
 70
     1
102
RTVSPost2010Prop38
140
0.0
102
RTVSPost2010PropOp38
 70
     1
102
RTVSPost2010Prop39
140
1.0
102
RTVSPost2010PropOp39
 70
     1
102
RTVSPost2010Prop40
 90
        0
102
RTVSPost2010PropOp40
 70
     1
102
RTVSPost2010Prop41ColorIndex
 90
       18
102
RTVSPost2010Prop41ColorRGB
 90
        0
102
RTVSPost2010PropOp41
 70
     1
102
RTVSPost2010Prop42
 90
       50
102
RTVSPost2010PropOp42
 70
     1
102
RTVSPost2010Prop43
 90
        3
102
RTVSPost2010PropOp43
 70
     1
102
RTVSPost2010Prop44ColorIndex
 90
        5
102
RTVSPost2010Prop44ColorRGB
 90
      255
102
RTVSPost2010PropOp44
 70
     1
102
RTVSPost2010Prop45
280
     0
102
RTVSPost2010PropOp45
 70
     1
102
RTVSPost2010Prop46
 90
       50
102
RTVSPost2010PropOp46
 70
     1
102
RTVSPost2010Prop47
 90
       50
102
RTVSPost2010PropOp47
 70
     1
102
RTVSPost2010Prop48
 90
       50
102
RTVSPost2010PropOp48
 70
     1
102
RTVSPost2010Prop49
280
     0
102
RTVSPost2010PropOp49
 70
     1
102
RTVSPost2010Prop50
 90
       50
102
RTVSPost2010PropOp50
 70
     1
102
RTVSPost2010Prop51ColorIndex
 90
      256
102
RTVSPost2010Prop51ColorRGB
 90
-16777216
102
RTVSPost2010PropOp51
 70
     0
102
RTVSPost2010Prop52
140
1.0
102
RTVSPost2010PropOp52
 70
     0
102
RTVSPost2010Prop53
 90
        2
102
RTVSPost2010PropOp53
 70
     1
102
RTVSPost2010Prop54
  1
strokes_ogs.tif
102
RTVSPost2010PropOp54
 70
     1
102
RTVSPost2010Prop55
280
     0
102
RTVSPost2010PropOp55
 70
     1
102
RTVSPost2010Prop56
140
1.0
102
RTVSPost2010PropOp56
 70
     1
102
RTVSPost2010Prop57
140
1.0
102
RTVSPost2010PropOp57
 70
     1
102
RTVSPropertyOp0
 70
     1
102
RTVSPropertyOp1
 70
     1
102
RTVSPropertyOp2
 70
     1
102
RTVSPropertyOp3
 70
     1
102
RTVSPropertyOp4
 70
     1
102
RTVSPropertyOp5
 70
     1
102
RTVSPropertyOp6
 70
     1
102
RTVSPropertyOp7
 70
     1
102
RTVSPropertyOp8
 70
     1
102
RTVSPropertyOp9
 70
     1
102
RTVSPropertyOp10
 70
     1
102
RTVSPropertyOp11
 70
     1
102
RTVSPropertyOp12
 70
     1
102
RTVSPropertyOp13
 70
     1
102
RTVSPropertyOp14
 70
     1
102
RTVSPropertyOp15
 70
     1
102
RTVSPropertyOp16
 70
     1
102
RTVSPropertyOp17
 70
     1
102
RTVSPropertyOp18
 70
     1
102
RTVSPropertyOp19
 70
     1
102
RTVSPropertyOp20
 70
     1
102
RTVSPropertyOp21
 70
     1
102
RTVSPropertyOp22
 70
     1
102
RTVSPropertyOp23
 70
     1
102
RTVSPropertyOp24
 70
     1
102
RTVSPropertyOp25
 70
     1
102
RTVSPropertyOp26
 70
     1
102
RTVSPropertyOp27
 70
     1
102
RTVSPropertyOp28
 70
     1
102
RTVSPropertyOp29
 70
     1
102
RTVSPropertyOp30
 70
     1
102
RTVSPropertyOp31
 70
     1
102
RTVSPropertyOp32
 70
     1
102
RTVSPropertyOp33
 70
     1
102
RTVSPropertyOp34
 70
     1
102
RTVSPropertyOp35
 70
     1
102
RTVSPropertyOp36
 70
     1
102
RTVSPropertyOp37
 70
     1
102
RTVSPropertyOp38
 70
     1
102
RTVSPropertyOp39
 70
     1
102
RTVSPropertyOp40
 70
     1
102
RTVSPropertyOp41
 70
     1
102
RTVSPropertyOp42
 70
     1
102
RTVSPropertyOp43
 70
     1
102
RTVSPropertyOp44
 70
     1
102
RTVSPropertyOp45
 70
     1
102
RTVSPropertyOp46
 70
     1
102
RTVSPropertyOp47
 70
     1
102
RTVSPropertyOp48
 70
     1
102
RTVSPropertyOp49
 70
     1
102
RTVSPropertyOp50
 70
     1
102
RTVSPropertyOp51
 70
     0
102
RTVSPropertyOp52
 70
     0
102
RTVSPropertyOp53
 70
     1
102
RTVSPropertyOp54
 70
     1
102
RTVSPropertyOp55
 70
     1
102
RTVSPropertyOp56
 70
     1
102
RTVSPropertyOp57
 70
     1
102
RTVSPropertyOp58
 70
     1
102
RTVSPropertyOp59
 70
     1
102
RTVSPropertyOp60
 70
     1
102
RTVSPropertyOp61
 70
     1
102
RTVSPropertyOp62
 70
     1
  0
XRECORD
  5
41A1
102
{ACAD_REACTORS
330
41A0
102
}
330
41A0
100
AcDbXrecord
280
     1
102
RTVSPost2010Prop28
280
     0
102
RTVSPost2010PropOp28
 70
     1
102
RTVSPost2010Prop29
280
     1
102
RTVSPost2010PropOp29
 70
     1
102
RTVSPost2010Prop30
280
     1
102
RTVSPost2010PropOp30
 70
     1
102
RTVSPost2010Prop31
280
     0
102
RTVSPost2010PropOp31
 70
     1
102
RTVSPost2010Prop32
280
     0
102
RTVSPost2010PropOp32
 70
     1
102
RTVSPost2010Prop33
280
     0
102
RTVSPost2010PropOp33
 70
     1
102
RTVSPost2010Prop34
280
     0
102
RTVSPost2010PropOp34
 70
     1
102
RTVSPost2010Prop35
280
     0
102
RTVSPost2010PropOp35
 70
     1
102
RTVSPost2010Prop36
280
     0
102
RTVSPost2010PropOp36
 70
     1
102
RTVSPost2010Prop37
 90
       50
102
RTVSPost2010PropOp37
 70
     1
102
RTVSPost2010Prop38
140
0.0
102
RTVSPost2010PropOp38
 70
     1
102
RTVSPost2010Prop39
140
1.0
102
RTVSPost2010PropOp39
 70
     1
102
RTVSPost2010Prop40
 90
        0
102
RTVSPost2010PropOp40
 70
     1
102
RTVSPost2010Prop41ColorIndex
 90
       18
102
RTVSPost2010Prop41ColorRGB
 90
        0
102
RTVSPost2010PropOp41
 70
     1
102
RTVSPost2010Prop42
 90
       50
102
RTVSPost2010PropOp42
 70
     1
102
RTVSPost2010Prop43
 90
        3
102
RTVSPost2010PropOp43
 70
     1
102
RTVSPost2010Prop44ColorIndex
 90
        5
102
RTVSPost2010Prop44ColorRGB
 90
      255
102
RTVSPost2010PropOp44
 70
     1
102
RTVSPost2010Prop45
280
     0
102
RTVSPost2010PropOp45
 70
     1
102
RTVSPost2010Prop46
 90
       50
102
RTVSPost2010PropOp46
 70
     1
102
RTVSPost2010Prop47
 90
       50
102
RTVSPost2010PropOp47
 70
     1
102
RTVSPost2010Prop48
 90
       50
102
RTVSPost2010PropOp48
 70
     1
102
RTVSPost2010Prop49
280
     0
102
RTVSPost2010PropOp49
 70
     1
102
RTVSPost2010Prop50
 90
       50
102
RTVSPost2010PropOp50
 70
     1
102
RTVSPost2010Prop51ColorIndex
 90
      256
102
RTVSPost2010Prop51ColorRGB
 90
-16777216
102
RTVSPost2010PropOp51
 70
     0
102
RTVSPost2010Prop52
140
1.0
102
RTVSPost2010PropOp52
 70
     0
102
RTVSPost2010Prop53
 90
        2
102
RTVSPost2010PropOp53
 70
     1
102
RTVSPost2010Prop54
  1
strokes_ogs.tif
102
RTVSPost2010PropOp54
 70
     1
102
RTVSPost2010Prop55
280
     0
102
RTVSPost2010PropOp55
 70
     1
102
RTVSPost2010Prop56
140
1.0
102
RTVSPost2010PropOp56
 70
     1
102
RTVSPost2010Prop57
140
1.0
102
RTVSPost2010PropOp57
 70
     1
102
RTVSPropertyOp0
 70
     1
102
RTVSPropertyOp1
 70
     1
102
RTVSPropertyOp2
 70
     1
102
RTVSPropertyOp3
 70
     1
102
RTVSPropertyOp4
 70
     1
102
RTVSPropertyOp5
 70
     1
102
RTVSPropertyOp6
 70
     1
102
RTVSPropertyOp7
 70
     1
102
RTVSPropertyOp8
 70
     1
102
RTVSPropertyOp9
 70
     1
102
RTVSPropertyOp10
 70
     1
102
RTVSPropertyOp11
 70
     1
102
RTVSPropertyOp12
 70
     1
102
RTVSPropertyOp13
 70
     1
102
RTVSPropertyOp14
 70
     1
102
RTVSPropertyOp15
 70
     1
102
RTVSPropertyOp16
 70
     1
102
RTVSPropertyOp17
 70
     1
102
RTVSPropertyOp18
 70
     1
102
RTVSPropertyOp19
 70
     1
102
RTVSPropertyOp20
 70
     1
102
RTVSPropertyOp21
 70
     1
102
RTVSPropertyOp22
 70
     1
102
RTVSPropertyOp23
 70
     1
102
RTVSPropertyOp24
 70
     1
102
RTVSPropertyOp25
 70
     1
102
RTVSPropertyOp26
 70
     1
102
RTVSPropertyOp27
 70
     1
102
RTVSPropertyOp28
 70
     1
102
RTVSPropertyOp29
 70
     1
102
RTVSPropertyOp30
 70
     1
102
RTVSPropertyOp31
 70
     1
102
RTVSPropertyOp32
 70
     1
102
RTVSPropertyOp33
 70
     1
102
RTVSPropertyOp34
 70
     1
102
RTVSPropertyOp35
 70
     1
102
RTVSPropertyOp36
 70
     1
102
RTVSPropertyOp37
 70
     1
102
RTVSPropertyOp38
 70
     1
102
RTVSPropertyOp39
 70
     1
102
RTVSPropertyOp40
 70
     1
102
RTVSPropertyOp41
 70
     1
102
RTVSPropertyOp42
 70
     1
102
RTVSPropertyOp43
 70
     1
102
RTVSPropertyOp44
 70
     1
102
RTVSPropertyOp45
 70
     1
102
RTVSPropertyOp46
 70
     1
102
RTVSPropertyOp47
 70
     1
102
RTVSPropertyOp48
 70
     1
102
RTVSPropertyOp49
 70
     1
102
RTVSPropertyOp50
 70
     1
102
RTVSPropertyOp51
 70
     0
102
RTVSPropertyOp52
 70
     0
102
RTVSPropertyOp53
 70
     1
102
RTVSPropertyOp54
 70
     1
102
RTVSPropertyOp55
 70
     1
102
RTVSPropertyOp56
 70
     1
102
RTVSPropertyOp57
 70
     1
102
RTVSPropertyOp58
 70
     1
102
RTVSPropertyOp59
 70
     1
102
RTVSPropertyOp60
 70
     1
102
RTVSPropertyOp61
 70
     1
102
RTVSPropertyOp62
 70
     1
  0
XRECORD
  5
41A9
102
{ACAD_REACTORS
330
41A8
102
}
330
41A8
100
AcDbXrecord
280
     1
102
RTVSPost2010Prop28
280
     0
102
RTVSPost2010PropOp28
 70
     1
102
RTVSPost2010Prop29
280
     1
102
RTVSPost2010PropOp29
 70
     1
102
RTVSPost2010Prop30
280
     1
102
RTVSPost2010PropOp30
 70
     1
102
RTVSPost2010Prop31
280
     0
102
RTVSPost2010PropOp31
 70
     1
102
RTVSPost2010Prop32
280
     0
102
RTVSPost2010PropOp32
 70
     1
102
RTVSPost2010Prop33
280
     0
102
RTVSPost2010PropOp33
 70
     1
102
RTVSPost2010Prop34
280
     0
102
RTVSPost2010PropOp34
 70
     1
102
RTVSPost2010Prop35
280
     0
102
RTVSPost2010PropOp35
 70
     1
102
RTVSPost2010Prop36
280
     0
102
RTVSPost2010PropOp36
 70
     1
102
RTVSPost2010Prop37
 90
       50
102
RTVSPost2010PropOp37
 70
     1
102
RTVSPost2010Prop38
140
0.0
102
RTVSPost2010PropOp38
 70
     1
102
RTVSPost2010Prop39
140
1.0
102
RTVSPost2010PropOp39
 70
     1
102
RTVSPost2010Prop40
 90
        0
102
RTVSPost2010PropOp40
 70
     1
102
RTVSPost2010Prop41ColorIndex
 90
       18
102
RTVSPost2010Prop41ColorRGB
 90
        0
102
RTVSPost2010PropOp41
 70
     1
102
RTVSPost2010Prop42
 90
       50
102
RTVSPost2010PropOp42
 70
     1
102
RTVSPost2010Prop43
 90
        3
102
RTVSPost2010PropOp43
 70
     1
102
RTVSPost2010Prop44ColorIndex
 90
        5
102
RTVSPost2010Prop44ColorRGB
 90
      255
102
RTVSPost2010PropOp44
 70
     1
102
RTVSPost2010Prop45
280
     0
102
RTVSPost2010PropOp45
 70
     1
102
RTVSPost2010Prop46
 90
       50
102
RTVSPost2010PropOp46
 70
     1
102
RTVSPost2010Prop47
 90
       50
102
RTVSPost2010PropOp47
 70
     1
102
RTVSPost2010Prop48
 90
       50
102
RTVSPost2010PropOp48
 70
     1
102
RTVSPost2010Prop49
280
     0
102
RTVSPost2010PropOp49
 70
     1
102
RTVSPost2010Prop50
 90
       50
102
RTVSPost2010PropOp50
 70
     1
102
RTVSPost2010Prop51ColorIndex
 90
      256
102
RTVSPost2010Prop51ColorRGB
 90
-16777216
102
RTVSPost2010PropOp51
 70
     0
102
RTVSPost2010Prop52
140
1.0
102
RTVSPost2010PropOp52
 70
     0
102
RTVSPost2010Prop53
 90
        2
102
RTVSPost2010PropOp53
 70
     1
102
RTVSPost2010Prop54
  1
strokes_ogs.tif
102
RTVSPost2010PropOp54
 70
     1
102
RTVSPost2010Prop55
280
     0
102
RTVSPost2010PropOp55
 70
     1
102
RTVSPost2010Prop56
140
1.0
102
RTVSPost2010PropOp56
 70
     1
102
RTVSPost2010Prop57
140
1.0
102
RTVSPost2010PropOp57
 70
     1
102
RTVSPropertyOp0
 70
     1
102
RTVSPropertyOp1
 70
     1
102
RTVSPropertyOp2
 70
     1
102
RTVSPropertyOp3
 70
     1
102
RTVSPropertyOp4
 70
     1
102
RTVSPropertyOp5
 70
     1
102
RTVSPropertyOp6
 70
     1
102
RTVSPropertyOp7
 70
     1
102
RTVSPropertyOp8
 70
     1
102
RTVSPropertyOp9
 70
     1
102
RTVSPropertyOp10
 70
     1
102
RTVSPropertyOp11
 70
     1
102
RTVSPropertyOp12
 70
     1
102
RTVSPropertyOp13
 70
     1
102
RTVSPropertyOp14
 70
     1
102
RTVSPropertyOp15
 70
     1
102
RTVSPropertyOp16
 70
     1
102
RTVSPropertyOp17
 70
     1
102
RTVSPropertyOp18
 70
     1
102
RTVSPropertyOp19
 70
     1
102
RTVSPropertyOp20
 70
     1
102
RTVSPropertyOp21
 70
     1
102
RTVSPropertyOp22
 70
     1
102
RTVSPropertyOp23
 70
     1
102
RTVSPropertyOp24
 70
     1
102
RTVSPropertyOp25
 70
     1
102
RTVSPropertyOp26
 70
     1
102
RTVSPropertyOp27
 70
     1
102
RTVSPropertyOp28
 70
     1
102
RTVSPropertyOp29
 70
     1
102
RTVSPropertyOp30
 70
     1
102
RTVSPropertyOp31
 70
     1
102
RTVSPropertyOp32
 70
     1
102
RTVSPropertyOp33
 70
     1
102
RTVSPropertyOp34
 70
     1
102
RTVSPropertyOp35
 70
     1
102
RTVSPropertyOp36
 70
     1
102
RTVSPropertyOp37
 70
     1
102
RTVSPropertyOp38
 70
     1
102
RTVSPropertyOp39
 70
     1
102
RTVSPropertyOp40
 70
     1
102
RTVSPropertyOp41
 70
     1
102
RTVSPropertyOp42
 70
     1
102
RTVSPropertyOp43
 70
     1
102
RTVSPropertyOp44
 70
     1
102
RTVSPropertyOp45
 70
     1
102
RTVSPropertyOp46
 70
     1
102
RTVSPropertyOp47
 70
     1
102
RTVSPropertyOp48
 70
     1
102
RTVSPropertyOp49
 70
     1
102
RTVSPropertyOp50
 70
     1
102
RTVSPropertyOp51
 70
     0
102
RTVSPropertyOp52
 70
     0
102
RTVSPropertyOp53
 70
     1
102
RTVSPropertyOp54
 70
     1
102
RTVSPropertyOp55
 70
     1
102
RTVSPropertyOp56
 70
     1
102
RTVSPropertyOp57
 70
     1
102
RTVSPropertyOp58
 70
     1
102
RTVSPropertyOp59
 70
     1
102
RTVSPropertyOp60
 70
     1
102
RTVSPropertyOp61
 70
     1
102
RTVSPropertyOp62
 70
     1
  0
XRECORD
  5
419B
102
{ACAD_REACTORS
330
419A
102
}
330
419A
100
AcDbXrecord
280
     1
102
RTVSPost2010Prop28
280
     0
102
RTVSPost2010PropOp28
 70
     1
102
RTVSPost2010Prop29
280
     1
102
RTVSPost2010PropOp29
 70
     1
102
RTVSPost2010Prop30
280
     1
102
RTVSPost2010PropOp30
 70
     1
102
RTVSPost2010Prop31
280
     0
102
RTVSPost2010PropOp31
 70
     1
102
RTVSPost2010Prop32
280
     0
102
RTVSPost2010PropOp32
 70
     1
102
RTVSPost2010Prop33
280
     0
102
RTVSPost2010PropOp33
 70
     1
102
RTVSPost2010Prop34
280
     0
102
RTVSPost2010PropOp34
 70
     1
102
RTVSPost2010Prop35
280
     0
102
RTVSPost2010PropOp35
 70
     1
102
RTVSPost2010Prop36
280
     0
102
RTVSPost2010PropOp36
 70
     1
102
RTVSPost2010Prop37
 90
       50
102
RTVSPost2010PropOp37
 70
     1
102
RTVSPost2010Prop38
140
0.0
102
RTVSPost2010PropOp38
 70
     1
102
RTVSPost2010Prop39
140
1.0
102
RTVSPost2010PropOp39
 70
     1
102
RTVSPost2010Prop40
 90
        0
102
RTVSPost2010PropOp40
 70
     1
102
RTVSPost2010Prop41ColorIndex
 90
       18
102
RTVSPost2010Prop41ColorRGB
 90
        0
102
RTVSPost2010PropOp41
 70
     1
102
RTVSPost2010Prop42
 90
       50
102
RTVSPost2010PropOp42
 70
     1
102
RTVSPost2010Prop43
 90
        3
102
RTVSPost2010PropOp43
 70
     1
102
RTVSPost2010Prop44ColorIndex
 90
        5
102
RTVSPost2010Prop44ColorRGB
 90
      255
102
RTVSPost2010PropOp44
 70
     1
102
RTVSPost2010Prop45
280
     0
102
RTVSPost2010PropOp45
 70
     1
102
RTVSPost2010Prop46
 90
       50
102
RTVSPost2010PropOp46
 70
     1
102
RTVSPost2010Prop47
 90
       50
102
RTVSPost2010PropOp47
 70
     1
102
RTVSPost2010Prop48
 90
       50
102
RTVSPost2010PropOp48
 70
     1
102
RTVSPost2010Prop49
280
     0
102
RTVSPost2010PropOp49
 70
     1
102
RTVSPost2010Prop50
 90
       50
102
RTVSPost2010PropOp50
 70
     1
102
RTVSPost2010Prop51ColorIndex
 90
      256
102
RTVSPost2010Prop51ColorRGB
 90
-16777216
102
RTVSPost2010PropOp51
 70
     0
102
RTVSPost2010Prop52
140
1.0
102
RTVSPost2010PropOp52
 70
     0
102
RTVSPost2010Prop53
 90
        2
102
RTVSPost2010PropOp53
 70
     1
102
RTVSPost2010Prop54
  1
strokes_ogs.tif
102
RTVSPost2010PropOp54
 70
     1
102
RTVSPost2010Prop55
280
     0
102
RTVSPost2010PropOp55
 70
     1
102
RTVSPost2010Prop56
140
1.0
102
RTVSPost2010PropOp56
 70
     1
102
RTVSPost2010Prop57
140
1.0
102
RTVSPost2010PropOp57
 70
     1
102
RTVSPropertyOp0
 70
     1
102
RTVSPropertyOp1
 70
     1
102
RTVSPropertyOp2
 70
     1
102
RTVSPropertyOp3
 70
     1
102
RTVSPropertyOp4
 70
     1
102
RTVSPropertyOp5
 70
     1
102
RTVSPropertyOp6
 70
     1
102
RTVSPropertyOp7
 70
     1
102
RTVSPropertyOp8
 70
     1
102
RTVSPropertyOp9
 70
     1
102
RTVSPropertyOp10
 70
     1
102
RTVSPropertyOp11
 70
     1
102
RTVSPropertyOp12
 70
     1
102
RTVSPropertyOp13
 70
     1
102
RTVSPropertyOp14
 70
     1
102
RTVSPropertyOp15
 70
     1
102
RTVSPropertyOp16
 70
     1
102
RTVSPropertyOp17
 70
     1
102
RTVSPropertyOp18
 70
     1
102
RTVSPropertyOp19
 70
     1
102
RTVSPropertyOp20
 70
     1
102
RTVSPropertyOp21
 70
     1
102
RTVSPropertyOp22
 70
     1
102
RTVSPropertyOp23
 70
     1
102
RTVSPropertyOp24
 70
     1
102
RTVSPropertyOp25
 70
     1
102
RTVSPropertyOp26
 70
     1
102
RTVSPropertyOp27
 70
     1
102
RTVSPropertyOp28
 70
     1
102
RTVSPropertyOp29
 70
     1
102
RTVSPropertyOp30
 70
     1
102
RTVSPropertyOp31
 70
     1
102
RTVSPropertyOp32
 70
     1
102
RTVSPropertyOp33
 70
     1
102
RTVSPropertyOp34
 70
     1
102
RTVSPropertyOp35
 70
     1
102
RTVSPropertyOp36
 70
     1
102
RTVSPropertyOp37
 70
     1
102
RTVSPropertyOp38
 70
     1
102
RTVSPropertyOp39
 70
     1
102
RTVSPropertyOp40
 70
     1
102
RTVSPropertyOp41
 70
     1
102
RTVSPropertyOp42
 70
     1
102
RTVSPropertyOp43
 70
     1
102
RTVSPropertyOp44
 70
     1
102
RTVSPropertyOp45
 70
     1
102
RTVSPropertyOp46
 70
     1
102
RTVSPropertyOp47
 70
     1
102
RTVSPropertyOp48
 70
     1
102
RTVSPropertyOp49
 70
     1
102
RTVSPropertyOp50
 70
     1
102
RTVSPropertyOp51
 70
     0
102
RTVSPropertyOp52
 70
     0
102
RTVSPropertyOp53
 70
     1
102
RTVSPropertyOp54
 70
     1
102
RTVSPropertyOp55
 70
     1
102
RTVSPropertyOp56
 70
     1
102
RTVSPropertyOp57
 70
     1
102
RTVSPropertyOp58
 70
     1
102
RTVSPropertyOp59
 70
     1
102
RTVSPropertyOp60
 70
     1
102
RTVSPropertyOp61
 70
     1
102
RTVSPropertyOp62
 70
     1
  0
XRECORD
  5
419F
102
{ACAD_REACTORS
330
419E
102
}
330
419E
100
AcDbXrecord
280
     1
102
RTVSPost2010Prop28
280
     0
102
RTVSPost2010PropOp28
 70
     1
102
RTVSPost2010Prop29
280
     1
102
RTVSPost2010PropOp29
 70
     1
102
RTVSPost2010Prop30
280
     1
102
RTVSPost2010PropOp30
 70
     1
102
RTVSPost2010Prop31
280
     0
102
RTVSPost2010PropOp31
 70
     1
102
RTVSPost2010Prop32
280
     0
102
RTVSPost2010PropOp32
 70
     1
102
RTVSPost2010Prop33
280
     0
102
RTVSPost2010PropOp33
 70
     1
102
RTVSPost2010Prop34
280
     0
102
RTVSPost2010PropOp34
 70
     1
102
RTVSPost2010Prop35
280
     0
102
RTVSPost2010PropOp35
 70
     1
102
RTVSPost2010Prop36
280
     0
102
RTVSPost2010PropOp36
 70
     1
102
RTVSPost2010Prop37
 90
       50
102
RTVSPost2010PropOp37
 70
     1
102
RTVSPost2010Prop38
140
0.0
102
RTVSPost2010PropOp38
 70
     1
102
RTVSPost2010Prop39
140
1.0
102
RTVSPost2010PropOp39
 70
     1
102
RTVSPost2010Prop40
 90
        0
102
RTVSPost2010PropOp40
 70
     1
102
RTVSPost2010Prop41ColorIndex
 90
       18
102
RTVSPost2010Prop41ColorRGB
 90
        0
102
RTVSPost2010PropOp41
 70
     1
102
RTVSPost2010Prop42
 90
       50
102
RTVSPost2010PropOp42
 70
     1
102
RTVSPost2010Prop43
 90
        3
102
RTVSPost2010PropOp43
 70
     1
102
RTVSPost2010Prop44ColorIndex
 90
        5
102
RTVSPost2010Prop44ColorRGB
 90
      255
102
RTVSPost2010PropOp44
 70
     1
102
RTVSPost2010Prop45
280
     0
102
RTVSPost2010PropOp45
 70
     1
102
RTVSPost2010Prop46
 90
       50
102
RTVSPost2010PropOp46
 70
     1
102
RTVSPost2010Prop47
 90
       50
102
RTVSPost2010PropOp47
 70
     1
102
RTVSPost2010Prop48
 90
       50
102
RTVSPost2010PropOp48
 70
     1
102
RTVSPost2010Prop49
280
     0
102
RTVSPost2010PropOp49
 70
     1
102
RTVSPost2010Prop50
 90
       50
102
RTVSPost2010PropOp50
 70
     1
102
RTVSPost2010Prop51ColorIndex
 90
      256
102
RTVSPost2010Prop51ColorRGB
 90
-16777216
102
RTVSPost2010PropOp51
 70
     0
102
RTVSPost2010Prop52
140
1.0
102
RTVSPost2010PropOp52
 70
     0
102
RTVSPost2010Prop53
 90
        2
102
RTVSPost2010PropOp53
 70
     1
102
RTVSPost2010Prop54
  1
strokes_ogs.tif
102
RTVSPost2010PropOp54
 70
     1
102
RTVSPost2010Prop55
280
     0
102
RTVSPost2010PropOp55
 70
     1
102
RTVSPost2010Prop56
140
1.0
102
RTVSPost2010PropOp56
 70
     1
102
RTVSPost2010Prop57
140
1.0
102
RTVSPost2010PropOp57
 70
     1
102
RTVSPropertyOp0
 70
     1
102
RTVSPropertyOp1
 70
     1
102
RTVSPropertyOp2
 70
     1
102
RTVSPropertyOp3
 70
     1
102
RTVSPropertyOp4
 70
     1
102
RTVSPropertyOp5
 70
     1
102
RTVSPropertyOp6
 70
     1
102
RTVSPropertyOp7
 70
     1
102
RTVSPropertyOp8
 70
     1
102
RTVSPropertyOp9
 70
     1
102
RTVSPropertyOp10
 70
     1
102
RTVSPropertyOp11
 70
     1
102
RTVSPropertyOp12
 70
     1
102
RTVSPropertyOp13
 70
     1
102
RTVSPropertyOp14
 70
     1
102
RTVSPropertyOp15
 70
     1
102
RTVSPropertyOp16
 70
     1
102
RTVSPropertyOp17
 70
     1
102
RTVSPropertyOp18
 70
     1
102
RTVSPropertyOp19
 70
     1
102
RTVSPropertyOp20
 70
     1
102
RTVSPropertyOp21
 70
     1
102
RTVSPropertyOp22
 70
     1
102
RTVSPropertyOp23
 70
     1
102
RTVSPropertyOp24
 70
     1
102
RTVSPropertyOp25
 70
     1
102
RTVSPropertyOp26
 70
     1
102
RTVSPropertyOp27
 70
     1
102
RTVSPropertyOp28
 70
     1
102
RTVSPropertyOp29
 70
     1
102
RTVSPropertyOp30
 70
     1
102
RTVSPropertyOp31
 70
     1
102
RTVSPropertyOp32
 70
     1
102
RTVSPropertyOp33
 70
     1
102
RTVSPropertyOp34
 70
     1
102
RTVSPropertyOp35
 70
     1
102
RTVSPropertyOp36
 70
     1
102
RTVSPropertyOp37
 70
     1
102
RTVSPropertyOp38
 70
     1
102
RTVSPropertyOp39
 70
     1
102
RTVSPropertyOp40
 70
     1
102
RTVSPropertyOp41
 70
     1
102
RTVSPropertyOp42
 70
     1
102
RTVSPropertyOp43
 70
     1
102
RTVSPropertyOp44
 70
     1
102
RTVSPropertyOp45
 70
     1
102
RTVSPropertyOp46
 70
     1
102
RTVSPropertyOp47
 70
     1
102
RTVSPropertyOp48
 70
     1
102
RTVSPropertyOp49
 70
     1
102
RTVSPropertyOp50
 70
     1
102
RTVSPropertyOp51
 70
     0
102
RTVSPropertyOp52
 70
     0
102
RTVSPropertyOp53
 70
     1
102
RTVSPropertyOp54
 70
     1
102
RTVSPropertyOp55
 70
     1
102
RTVSPropertyOp56
 70
     1
102
RTVSPropertyOp57
 70
     1
102
RTVSPropertyOp58
 70
     1
102
RTVSPropertyOp59
 70
     1
102
RTVSPropertyOp60
 70
     1
102
RTVSPropertyOp61
 70
     1
102
RTVSPropertyOp62
 70
     1
  0
XRECORD
  5
41B9
102
{ACAD_REACTORS
330
41B8
102
}
330
41B8
100
AcDbXrecord
280
     1
102
RTVSPost2010Prop28
280
     0
102
RTVSPost2010PropOp28
 70
     0
102
RTVSPost2010Prop29
280
     1
102
RTVSPost2010PropOp29
 70
     0
102
RTVSPost2010Prop30
280
     1
102
RTVSPost2010PropOp30
 70
     0
102
RTVSPost2010Prop31
280
     0
102
RTVSPost2010PropOp31
 70
     0
102
RTVSPost2010Prop32
280
     0
102
RTVSPost2010PropOp32
 70
     0
102
RTVSPost2010Prop33
280
     0
102
RTVSPost2010PropOp33
 70
     0
102
RTVSPost2010Prop34
280
     0
102
RTVSPost2010PropOp34
 70
     0
102
RTVSPost2010Prop35
280
     0
102
RTVSPost2010PropOp35
 70
     0
102
RTVSPost2010Prop36
280
     0
102
RTVSPost2010PropOp36
 70
     0
102
RTVSPost2010Prop37
 90
       50
102
RTVSPost2010PropOp37
 70
     0
102
RTVSPost2010Prop38
140
0.0
102
RTVSPost2010PropOp38
 70
     0
102
RTVSPost2010Prop39
140
1.0
102
RTVSPost2010PropOp39
 70
     0
102
RTVSPost2010Prop40
 90
        0
102
RTVSPost2010PropOp40
 70
     0
102
RTVSPost2010Prop41ColorIndex
 90
       18
102
RTVSPost2010Prop41ColorRGB
 90
        0
102
RTVSPost2010PropOp41
 70
     0
102
RTVSPost2010Prop42
 90
       50
102
RTVSPost2010PropOp42
 70
     0
102
RTVSPost2010Prop43
 90
        3
102
RTVSPost2010PropOp43
 70
     0
102
RTVSPost2010Prop44ColorIndex
 90
        5
102
RTVSPost2010Prop44ColorRGB
 90
      255
102
RTVSPost2010PropOp44
 70
     0
102
RTVSPost2010Prop45
280
     0
102
RTVSPost2010PropOp45
 70
     0
102
RTVSPost2010Prop46
 90
       50
102
RTVSPost2010PropOp46
 70
     0
102
RTVSPost2010Prop47
 90
       50
102
RTVSPost2010PropOp47
 70
     0
102
RTVSPost2010Prop48
 90
       50
102
RTVSPost2010PropOp48
 70
     0
102
RTVSPost2010Prop49
280
     0
102
RTVSPost2010PropOp49
 70
     0
102
RTVSPost2010Prop50
 90
       50
102
RTVSPost2010PropOp50
 70
     0
102
RTVSPost2010Prop51ColorIndex
 90
      256
102
RTVSPost2010Prop51ColorRGB
 90
-16777216
102
RTVSPost2010PropOp51
 70
     0
102
RTVSPost2010Prop52
140
1.0
102
RTVSPost2010PropOp52
 70
     0
102
RTVSPost2010Prop53
 90
        2
102
RTVSPost2010PropOp53
 70
     0
102
RTVSPost2010Prop54
  1
strokes_ogs.tif
102
RTVSPost2010PropOp54
 70
     0
102
RTVSPost2010Prop55
280
     0
102
RTVSPost2010PropOp55
 70
     0
102
RTVSPost2010Prop56
140
1.0
102
RTVSPost2010PropOp56
 70
     0
102
RTVSPost2010Prop57
140
1.0
102
RTVSPost2010PropOp57
 70
     0
102
RTVSPropertyOp0
 70
     0
102
RTVSPropertyOp1
 70
     0
102
RTVSPropertyOp2
 70
     0
102
RTVSPropertyOp3
 70
     0
102
RTVSPropertyOp4
 70
     0
102
RTVSPropertyOp5
 70
     0
102
RTVSPropertyOp6
 70
     0
102
RTVSPropertyOp7
 70
     0
102
RTVSPropertyOp8
 70
     0
102
RTVSPropertyOp9
 70
     0
102
RTVSPropertyOp10
 70
     0
102
RTVSPropertyOp11
 70
     0
102
RTVSPropertyOp12
 70
     0
102
RTVSPropertyOp13
 70
     0
102
RTVSPropertyOp14
 70
     2
102
RTVSPropertyOp15
 70
     0
102
RTVSPropertyOp16
 70
     0
102
RTVSPropertyOp17
 70
     0
102
RTVSPropertyOp18
 70
     0
102
RTVSPropertyOp19
 70
     0
102
RTVSPropertyOp20
 70
     0
102
RTVSPropertyOp21
 70
     0
102
RTVSPropertyOp22
 70
     0
102
RTVSPropertyOp23
 70
     0
102
RTVSPropertyOp24
 70
     0
102
RTVSPropertyOp25
 70
     0
102
RTVSPropertyOp26
 70
     0
102
RTVSPropertyOp27
 70
     0
102
RTVSPropertyOp28
 70
     0
102
RTVSPropertyOp29
 70
     0
102
RTVSPropertyOp30
 70
     0
102
RTVSPropertyOp31
 70
     0
102
RTVSPropertyOp32
 70
     0
102
RTVSPropertyOp33
 70
     0
102
RTVSPropertyOp34
 70
     0
102
RTVSPropertyOp35
 70
     0
102
RTVSPropertyOp36
 70
     0
102
RTVSPropertyOp37
 70
     0
102
RTVSPropertyOp38
 70
     0
102
RTVSPropertyOp39
 70
     0
102
RTVSPropertyOp40
 70
     0
102
RTVSPropertyOp41
 70
     0
102
RTVSPropertyOp42
 70
     0
102
RTVSPropertyOp43
 70
     0
102
RTVSPropertyOp44
 70
     0
102
RTVSPropertyOp45
 70
     0
102
RTVSPropertyOp46
 70
     0
102
RTVSPropertyOp47
 70
     0
102
RTVSPropertyOp48
 70
     0
102
RTVSPropertyOp49
 70
     0
102
RTVSPropertyOp50
 70
     0
102
RTVSPropertyOp51
 70
     0
102
RTVSPropertyOp52
 70
     0
102
RTVSPropertyOp53
 70
     0
102
RTVSPropertyOp54
 70
     0
102
RTVSPropertyOp55
 70
     0
102
RTVSPropertyOp56
 70
     0
102
RTVSPropertyOp57
 70
     0
102
RTVSPropertyOp58
 70
     1
102
RTVSPropertyOp59
 70
     1
102
RTVSPropertyOp60
 70
     1
102
RTVSPropertyOp61
 70
     1
102
RTVSPropertyOp62
 70
     1
  0
XRECORD
  5
41A7
102
{ACAD_REACTORS
330
41A6
102
}
330
41A6
100
AcDbXrecord
280
     1
102
RTVSPost2010Prop28
280
     0
102
RTVSPost2010PropOp28
 70
     1
102
RTVSPost2010Prop29
280
     1
102
RTVSPost2010PropOp29
 70
     1
102
RTVSPost2010Prop30
280
     1
102
RTVSPost2010PropOp30
 70
     1
102
RTVSPost2010Prop31
280
     0
102
RTVSPost2010PropOp31
 70
     1
102
RTVSPost2010Prop32
280
     0
102
RTVSPost2010PropOp32
 70
     1
102
RTVSPost2010Prop33
280
     0
102
RTVSPost2010PropOp33
 70
     1
102
RTVSPost2010Prop34
280
     0
102
RTVSPost2010PropOp34
 70
     1
102
RTVSPost2010Prop35
280
     0
102
RTVSPost2010PropOp35
 70
     1
102
RTVSPost2010Prop36
280
     0
102
RTVSPost2010PropOp36
 70
     1
102
RTVSPost2010Prop37
 90
       50
102
RTVSPost2010PropOp37
 70
     1
102
RTVSPost2010Prop38
140
0.0
102
RTVSPost2010PropOp38
 70
     1
102
RTVSPost2010Prop39
140
1.0
102
RTVSPost2010PropOp39
 70
     1
102
RTVSPost2010Prop40
 90
        0
102
RTVSPost2010PropOp40
 70
     1
102
RTVSPost2010Prop41ColorIndex
 90
       18
102
RTVSPost2010Prop41ColorRGB
 90
        0
102
RTVSPost2010PropOp41
 70
     1
102
RTVSPost2010Prop42
 90
       50
102
RTVSPost2010PropOp42
 70
     1
102
RTVSPost2010Prop43
 90
        3
102
RTVSPost2010PropOp43
 70
     1
102
RTVSPost2010Prop44ColorIndex
 90
        5
102
RTVSPost2010Prop44ColorRGB
 90
      255
102
RTVSPost2010PropOp44
 70
     1
102
RTVSPost2010Prop45
280
     0
102
RTVSPost2010PropOp45
 70
     1
102
RTVSPost2010Prop46
 90
       50
102
RTVSPost2010PropOp46
 70
     1
102
RTVSPost2010Prop47
 90
       50
102
RTVSPost2010PropOp47
 70
     1
102
RTVSPost2010Prop48
 90
       50
102
RTVSPost2010PropOp48
 70
     1
102
RTVSPost2010Prop49
280
     0
102
RTVSPost2010PropOp49
 70
     1
102
RTVSPost2010Prop50
 90
       50
102
RTVSPost2010PropOp50
 70
     1
102
RTVSPost2010Prop51ColorIndex
 90
      256
102
RTVSPost2010Prop51ColorRGB
 90
-16777216
102
RTVSPost2010PropOp51
 70
     0
102
RTVSPost2010Prop52
140
1.0
102
RTVSPost2010PropOp52
 70
     0
102
RTVSPost2010Prop53
 90
        2
102
RTVSPost2010PropOp53
 70
     1
102
RTVSPost2010Prop54
  1
strokes_ogs.tif
102
RTVSPost2010PropOp54
 70
     1
102
RTVSPost2010Prop55
280
     0
102
RTVSPost2010PropOp55
 70
     1
102
RTVSPost2010Prop56
140
1.0
102
RTVSPost2010PropOp56
 70
     1
102
RTVSPost2010Prop57
140
1.0
102
RTVSPost2010PropOp57
 70
     1
102
RTVSPropertyOp0
 70
     1
102
RTVSPropertyOp1
 70
     1
102
RTVSPropertyOp2
 70
     1
102
RTVSPropertyOp3
 70
     1
102
RTVSPropertyOp4
 70
     1
102
RTVSPropertyOp5
 70
     1
102
RTVSPropertyOp6
 70
     1
102
RTVSPropertyOp7
 70
     1
102
RTVSPropertyOp8
 70
     1
102
RTVSPropertyOp9
 70
     1
102
RTVSPropertyOp10
 70
     1
102
RTVSPropertyOp11
 70
     1
102
RTVSPropertyOp12
 70
     1
102
RTVSPropertyOp13
 70
     1
102
RTVSPropertyOp14
 70
     1
102
RTVSPropertyOp15
 70
     1
102
RTVSPropertyOp16
 70
     1
102
RTVSPropertyOp17
 70
     1
102
RTVSPropertyOp18
 70
     1
102
RTVSPropertyOp19
 70
     1
102
RTVSPropertyOp20
 70
     1
102
RTVSPropertyOp21
 70
     1
102
RTVSPropertyOp22
 70
     1
102
RTVSPropertyOp23
 70
     1
102
RTVSPropertyOp24
 70
     1
102
RTVSPropertyOp25
 70
     1
102
RTVSPropertyOp26
 70
     1
102
RTVSPropertyOp27
 70
     1
102
RTVSPropertyOp28
 70
     1
102
RTVSPropertyOp29
 70
     1
102
RTVSPropertyOp30
 70
     1
102
RTVSPropertyOp31
 70
     1
102
RTVSPropertyOp32
 70
     1
102
RTVSPropertyOp33
 70
     1
102
RTVSPropertyOp34
 70
     1
102
RTVSPropertyOp35
 70
     1
102
RTVSPropertyOp36
 70
     1
102
RTVSPropertyOp37
 70
     1
102
RTVSPropertyOp38
 70
     1
102
RTVSPropertyOp39
 70
     1
102
RTVSPropertyOp40
 70
     1
102
RTVSPropertyOp41
 70
     1
102
RTVSPropertyOp42
 70
     1
102
RTVSPropertyOp43
 70
     1
102
RTVSPropertyOp44
 70
     1
102
RTVSPropertyOp45
 70
     1
102
RTVSPropertyOp46
 70
     1
102
RTVSPropertyOp47
 70
     1
102
RTVSPropertyOp48
 70
     1
102
RTVSPropertyOp49
 70
     1
102
RTVSPropertyOp50
 70
     1
102
RTVSPropertyOp51
 70
     0
102
RTVSPropertyOp52
 70
     0
102
RTVSPropertyOp53
 70
     1
102
RTVSPropertyOp54
 70
     1
102
RTVSPropertyOp55
 70
     1
102
RTVSPropertyOp56
 70
     1
102
RTVSPropertyOp57
 70
     1
102
RTVSPropertyOp58
 70
     1
102
RTVSPropertyOp59
 70
     1
102
RTVSPropertyOp60
 70
     1
102
RTVSPropertyOp61
 70
     1
102
RTVSPropertyOp62
 70
     1
  0
XRECORD
  5
418B
102
{ACAD_REACTORS
330
418A
102
}
330
418A
100
AcDbXrecord
280
     1
102
RTVSPost2010Prop28
280
     0
102
RTVSPost2010PropOp28
 70
     1
102
RTVSPost2010Prop29
280
     1
102
RTVSPost2010PropOp29
 70
     1
102
RTVSPost2010Prop30
280
     1
102
RTVSPost2010PropOp30
 70
     1
102
RTVSPost2010Prop31
280
     0
102
RTVSPost2010PropOp31
 70
     1
102
RTVSPost2010Prop32
280
     0
102
RTVSPost2010PropOp32
 70
     1
102
RTVSPost2010Prop33
280
     0
102
RTVSPost2010PropOp33
 70
     1
102
RTVSPost2010Prop34
280
     0
102
RTVSPost2010PropOp34
 70
     1
102
RTVSPost2010Prop35
280
     0
102
RTVSPost2010PropOp35
 70
     1
102
RTVSPost2010Prop36
280
     0
102
RTVSPost2010PropOp36
 70
     1
102
RTVSPost2010Prop37
 90
       50
102
RTVSPost2010PropOp37
 70
     1
102
RTVSPost2010Prop38
140
0.0
102
RTVSPost2010PropOp38
 70
     1
102
RTVSPost2010Prop39
140
1.0
102
RTVSPost2010PropOp39
 70
     1
102
RTVSPost2010Prop40
 90
        0
102
RTVSPost2010PropOp40
 70
     1
102
RTVSPost2010Prop41ColorIndex
 90
       18
102
RTVSPost2010Prop41ColorRGB
 90
        0
102
RTVSPost2010PropOp41
 70
     1
102
RTVSPost2010Prop42
 90
       50
102
RTVSPost2010PropOp42
 70
     1
102
RTVSPost2010Prop43
 90
        3
102
RTVSPost2010PropOp43
 70
     1
102
RTVSPost2010Prop44ColorIndex
 90
        5
102
RTVSPost2010Prop44ColorRGB
 90
      255
102
RTVSPost2010PropOp44
 70
     1
102
RTVSPost2010Prop45
280
     0
102
RTVSPost2010PropOp45
 70
     1
102
RTVSPost2010Prop46
 90
       50
102
RTVSPost2010PropOp46
 70
     1
102
RTVSPost2010Prop47
 90
       50
102
RTVSPost2010PropOp47
 70
     1
102
RTVSPost2010Prop48
 90
       50
102
RTVSPost2010PropOp48
 70
     1
102
RTVSPost2010Prop49
280
     0
102
RTVSPost2010PropOp49
 70
     1
102
RTVSPost2010Prop50
 90
       50
102
RTVSPost2010PropOp50
 70
     1
102
RTVSPost2010Prop51ColorIndex
 90
      256
102
RTVSPost2010Prop51ColorRGB
 90
-16777216
102
RTVSPost2010PropOp51
 70
     0
102
RTVSPost2010Prop52
140
1.0
102
RTVSPost2010PropOp52
 70
     0
102
RTVSPost2010Prop53
 90
        2
102
RTVSPost2010PropOp53
 70
     1
102
RTVSPost2010Prop54
  1
strokes_ogs.tif
102
RTVSPost2010PropOp54
 70
     1
102
RTVSPost2010Prop55
280
     0
102
RTVSPost2010PropOp55
 70
     1
102
RTVSPost2010Prop56
140
1.0
102
RTVSPost2010PropOp56
 70
     1
102
RTVSPost2010Prop57
140
1.0
102
RTVSPost2010PropOp57
 70
     1
102
RTVSPropertyOp0
 70
     1
102
RTVSPropertyOp1
 70
     1
102
RTVSPropertyOp2
 70
     1
102
RTVSPropertyOp3
 70
     1
102
RTVSPropertyOp4
 70
     1
102
RTVSPropertyOp5
 70
     1
102
RTVSPropertyOp6
 70
     1
102
RTVSPropertyOp7
 70
     1
102
RTVSPropertyOp8
 70
     1
102
RTVSPropertyOp9
 70
     1
102
RTVSPropertyOp10
 70
     1
102
RTVSPropertyOp11
 70
     1
102
RTVSPropertyOp12
 70
     1
102
RTVSPropertyOp13
 70
     1
102
RTVSPropertyOp14
 70
     1
102
RTVSPropertyOp15
 70
     1
102
RTVSPropertyOp16
 70
     1
102
RTVSPropertyOp17
 70
     1
102
RTVSPropertyOp18
 70
     1
102
RTVSPropertyOp19
 70
     1
102
RTVSPropertyOp20
 70
     1
102
RTVSPropertyOp21
 70
     1
102
RTVSPropertyOp22
 70
     1
102
RTVSPropertyOp23
 70
     1
102
RTVSPropertyOp24
 70
     1
102
RTVSPropertyOp25
 70
     1
102
RTVSPropertyOp26
 70
     1
102
RTVSPropertyOp27
 70
     1
102
RTVSPropertyOp28
 70
     1
102
RTVSPropertyOp29
 70
     1
102
RTVSPropertyOp30
 70
     1
102
RTVSPropertyOp31
 70
     1
102
RTVSPropertyOp32
 70
     1
102
RTVSPropertyOp33
 70
     1
102
RTVSPropertyOp34
 70
     1
102
RTVSPropertyOp35
 70
     1
102
RTVSPropertyOp36
 70
     1
102
RTVSPropertyOp37
 70
     1
102
RTVSPropertyOp38
 70
     1
102
RTVSPropertyOp39
 70
     1
102
RTVSPropertyOp40
 70
     1
102
RTVSPropertyOp41
 70
     1
102
RTVSPropertyOp42
 70
     1
102
RTVSPropertyOp43
 70
     1
102
RTVSPropertyOp44
 70
     1
102
RTVSPropertyOp45
 70
     1
102
RTVSPropertyOp46
 70
     1
102
RTVSPropertyOp47
 70
     1
102
RTVSPropertyOp48
 70
     1
102
RTVSPropertyOp49
 70
     1
102
RTVSPropertyOp50
 70
     1
102
RTVSPropertyOp51
 70
     0
102
RTVSPropertyOp52
 70
     0
102
RTVSPropertyOp53
 70
     1
102
RTVSPropertyOp54
 70
     1
102
RTVSPropertyOp55
 70
     1
102
RTVSPropertyOp56
 70
     1
102
RTVSPropertyOp57
 70
     1
102
RTVSPropertyOp58
 70
     1
102
RTVSPropertyOp59
 70
     1
102
RTVSPropertyOp60
 70
     1
102
RTVSPropertyOp61
 70
     1
102
RTVSPropertyOp62
 70
     1
  0
XRECORD
  5
418D
102
{ACAD_REACTORS
330
418C
102
}
330
418C
100
AcDbXrecord
280
     1
102
RTVSPost2010Prop28
280
     0
102
RTVSPost2010PropOp28
 70
     1
102
RTVSPost2010Prop29
280
     1
102
RTVSPost2010PropOp29
 70
     1
102
RTVSPost2010Prop30
280
     1
102
RTVSPost2010PropOp30
 70
     1
102
RTVSPost2010Prop31
280
     0
102
RTVSPost2010PropOp31
 70
     1
102
RTVSPost2010Prop32
280
     0
102
RTVSPost2010PropOp32
 70
     1
102
RTVSPost2010Prop33
280
     0
102
RTVSPost2010PropOp33
 70
     1
102
RTVSPost2010Prop34
280
     0
102
RTVSPost2010PropOp34
 70
     1
102
RTVSPost2010Prop35
280
     0
102
RTVSPost2010PropOp35
 70
     1
102
RTVSPost2010Prop36
280
     0
102
RTVSPost2010PropOp36
 70
     1
102
RTVSPost2010Prop37
 90
       50
102
RTVSPost2010PropOp37
 70
     1
102
RTVSPost2010Prop38
140
0.0
102
RTVSPost2010PropOp38
 70
     1
102
RTVSPost2010Prop39
140
1.0
102
RTVSPost2010PropOp39
 70
     1
102
RTVSPost2010Prop40
 90
        0
102
RTVSPost2010PropOp40
 70
     1
102
RTVSPost2010Prop41ColorIndex
 90
       18
102
RTVSPost2010Prop41ColorRGB
 90
        0
102
RTVSPost2010PropOp41
 70
     1
102
RTVSPost2010Prop42
 90
       50
102
RTVSPost2010PropOp42
 70
     1
102
RTVSPost2010Prop43
 90
        3
102
RTVSPost2010PropOp43
 70
     1
102
RTVSPost2010Prop44ColorIndex
 90
        5
102
RTVSPost2010Prop44ColorRGB
 90
      255
102
RTVSPost2010PropOp44
 70
     1
102
RTVSPost2010Prop45
280
     0
102
RTVSPost2010PropOp45
 70
     1
102
RTVSPost2010Prop46
 90
       50
102
RTVSPost2010PropOp46
 70
     1
102
RTVSPost2010Prop47
 90
       50
102
RTVSPost2010PropOp47
 70
     1
102
RTVSPost2010Prop48
 90
       50
102
RTVSPost2010PropOp48
 70
     1
102
RTVSPost2010Prop49
280
     0
102
RTVSPost2010PropOp49
 70
     1
102
RTVSPost2010Prop50
 90
       50
102
RTVSPost2010PropOp50
 70
     1
102
RTVSPost2010Prop51ColorIndex
 90
      256
102
RTVSPost2010Prop51ColorRGB
 90
-16777216
102
RTVSPost2010PropOp51
 70
     0
102
RTVSPost2010Prop52
140
1.0
102
RTVSPost2010PropOp52
 70
     0
102
RTVSPost2010Prop53
 90
        2
102
RTVSPost2010PropOp53
 70
     1
102
RTVSPost2010Prop54
  1
strokes_ogs.tif
102
RTVSPost2010PropOp54
 70
     1
102
RTVSPost2010Prop55
280
     0
102
RTVSPost2010PropOp55
 70
     1
102
RTVSPost2010Prop56
140
1.0
102
RTVSPost2010PropOp56
 70
     1
102
RTVSPost2010Prop57
140
1.0
102
RTVSPost2010PropOp57
 70
     1
102
RTVSPropertyOp0
 70
     1
102
RTVSPropertyOp1
 70
     1
102
RTVSPropertyOp2
 70
     1
102
RTVSPropertyOp3
 70
     1
102
RTVSPropertyOp4
 70
     1
102
RTVSPropertyOp5
 70
     1
102
RTVSPropertyOp6
 70
     1
102
RTVSPropertyOp7
 70
     1
102
RTVSPropertyOp8
 70
     1
102
RTVSPropertyOp9
 70
     1
102
RTVSPropertyOp10
 70
     1
102
RTVSPropertyOp11
 70
     1
102
RTVSPropertyOp12
 70
     1
102
RTVSPropertyOp13
 70
     1
102
RTVSPropertyOp14
 70
     1
102
RTVSPropertyOp15
 70
     1
102
RTVSPropertyOp16
 70
     1
102
RTVSPropertyOp17
 70
     1
102
RTVSPropertyOp18
 70
     1
102
RTVSPropertyOp19
 70
     1
102
RTVSPropertyOp20
 70
     1
102
RTVSPropertyOp21
 70
     1
102
RTVSPropertyOp22
 70
     1
102
RTVSPropertyOp23
 70
     1
102
RTVSPropertyOp24
 70
     1
102
RTVSPropertyOp25
 70
     1
102
RTVSPropertyOp26
 70
     1
102
RTVSPropertyOp27
 70
     1
102
RTVSPropertyOp28
 70
     1
102
RTVSPropertyOp29
 70
     1
102
RTVSPropertyOp30
 70
     1
102
RTVSPropertyOp31
 70
     1
102
RTVSPropertyOp32
 70
     1
102
RTVSPropertyOp33
 70
     1
102
RTVSPropertyOp34
 70
     1
102
RTVSPropertyOp35
 70
     1
102
RTVSPropertyOp36
 70
     1
102
RTVSPropertyOp37
 70
     1
102
RTVSPropertyOp38
 70
     1
102
RTVSPropertyOp39
 70
     1
102
RTVSPropertyOp40
 70
     1
102
RTVSPropertyOp41
 70
     1
102
RTVSPropertyOp42
 70
     1
102
RTVSPropertyOp43
 70
     1
102
RTVSPropertyOp44
 70
     1
102
RTVSPropertyOp45
 70
     1
102
RTVSPropertyOp46
 70
     1
102
RTVSPropertyOp47
 70
     1
102
RTVSPropertyOp48
 70
     1
102
RTVSPropertyOp49
 70
     1
102
RTVSPropertyOp50
 70
     1
102
RTVSPropertyOp51
 70
     0
102
RTVSPropertyOp52
 70
     0
102
RTVSPropertyOp53
 70
     1
102
RTVSPropertyOp54
 70
     1
102
RTVSPropertyOp55
 70
     1
102
RTVSPropertyOp56
 70
     1
102
RTVSPropertyOp57
 70
     1
102
RTVSPropertyOp58
 70
     1
102
RTVSPropertyOp59
 70
     1
102
RTVSPropertyOp60
 70
     1
102
RTVSPropertyOp61
 70
     1
102
RTVSPropertyOp62
 70
     1
  0
XRECORD
  5
418F
102
{ACAD_REACTORS
330
418E
102
}
330
418E
100
AcDbXrecord
280
     1
102
RTVSPost2010Prop28
280
     0
102
RTVSPost2010PropOp28
 70
     1
102
RTVSPost2010Prop29
280
     1
102
RTVSPost2010PropOp29
 70
     1
102
RTVSPost2010Prop30
280
     1
102
RTVSPost2010PropOp30
 70
     1
102
RTVSPost2010Prop31
280
     0
102
RTVSPost2010PropOp31
 70
     1
102
RTVSPost2010Prop32
280
     0
102
RTVSPost2010PropOp32
 70
     1
102
RTVSPost2010Prop33
280
     0
102
RTVSPost2010PropOp33
 70
     1
102
RTVSPost2010Prop34
280
     0
102
RTVSPost2010PropOp34
 70
     1
102
RTVSPost2010Prop35
280
     0
102
RTVSPost2010PropOp35
 70
     1
102
RTVSPost2010Prop36
280
     0
102
RTVSPost2010PropOp36
 70
     1
102
RTVSPost2010Prop37
 90
       50
102
RTVSPost2010PropOp37
 70
     1
102
RTVSPost2010Prop38
140
0.0
102
RTVSPost2010PropOp38
 70
     1
102
RTVSPost2010Prop39
140
1.0
102
RTVSPost2010PropOp39
 70
     1
102
RTVSPost2010Prop40
 90
        0
102
RTVSPost2010PropOp40
 70
     1
102
RTVSPost2010Prop41ColorIndex
 90
       18
102
RTVSPost2010Prop41ColorRGB
 90
        0
102
RTVSPost2010PropOp41
 70
     1
102
RTVSPost2010Prop42
 90
       50
102
RTVSPost2010PropOp42
 70
     1
102
RTVSPost2010Prop43
 90
        3
102
RTVSPost2010PropOp43
 70
     1
102
RTVSPost2010Prop44ColorIndex
 90
        5
102
RTVSPost2010Prop44ColorRGB
 90
      255
102
RTVSPost2010PropOp44
 70
     1
102
RTVSPost2010Prop45
280
     0
102
RTVSPost2010PropOp45
 70
     1
102
RTVSPost2010Prop46
 90
       50
102
RTVSPost2010PropOp46
 70
     1
102
RTVSPost2010Prop47
 90
       50
102
RTVSPost2010PropOp47
 70
     1
102
RTVSPost2010Prop48
 90
       50
102
RTVSPost2010PropOp48
 70
     1
102
RTVSPost2010Prop49
280
     0
102
RTVSPost2010PropOp49
 70
     1
102
RTVSPost2010Prop50
 90
       50
102
RTVSPost2010PropOp50
 70
     1
102
RTVSPost2010Prop51ColorIndex
 90
      256
102
RTVSPost2010Prop51ColorRGB
 90
-16777216
102
RTVSPost2010PropOp51
 70
     0
102
RTVSPost2010Prop52
140
1.0
102
RTVSPost2010PropOp52
 70
     0
102
RTVSPost2010Prop53
 90
        2
102
RTVSPost2010PropOp53
 70
     1
102
RTVSPost2010Prop54
  1
strokes_ogs.tif
102
RTVSPost2010PropOp54
 70
     1
102
RTVSPost2010Prop55
280
     0
102
RTVSPost2010PropOp55
 70
     1
102
RTVSPost2010Prop56
140
1.0
102
RTVSPost2010PropOp56
 70
     1
102
RTVSPost2010Prop57
140
1.0
102
RTVSPost2010PropOp57
 70
     1
102
RTVSPropertyOp0
 70
     1
102
RTVSPropertyOp1
 70
     1
102
RTVSPropertyOp2
 70
     1
102
RTVSPropertyOp3
 70
     1
102
RTVSPropertyOp4
 70
     1
102
RTVSPropertyOp5
 70
     1
102
RTVSPropertyOp6
 70
     1
102
RTVSPropertyOp7
 70
     1
102
RTVSPropertyOp8
 70
     1
102
RTVSPropertyOp9
 70
     1
102
RTVSPropertyOp10
 70
     1
102
RTVSPropertyOp11
 70
     1
102
RTVSPropertyOp12
 70
     1
102
RTVSPropertyOp13
 70
     1
102
RTVSPropertyOp14
 70
     1
102
RTVSPropertyOp15
 70
     1
102
RTVSPropertyOp16
 70
     1
102
RTVSPropertyOp17
 70
     1
102
RTVSPropertyOp18
 70
     1
102
RTVSPropertyOp19
 70
     1
102
RTVSPropertyOp20
 70
     1
102
RTVSPropertyOp21
 70
     1
102
RTVSPropertyOp22
 70
     1
102
RTVSPropertyOp23
 70
     1
102
RTVSPropertyOp24
 70
     1
102
RTVSPropertyOp25
 70
     1
102
RTVSPropertyOp26
 70
     1
102
RTVSPropertyOp27
 70
     1
102
RTVSPropertyOp28
 70
     1
102
RTVSPropertyOp29
 70
     1
102
RTVSPropertyOp30
 70
     1
102
RTVSPropertyOp31
 70
     1
102
RTVSPropertyOp32
 70
     1
102
RTVSPropertyOp33
 70
     1
102
RTVSPropertyOp34
 70
     1
102
RTVSPropertyOp35
 70
     1
102
RTVSPropertyOp36
 70
     1
102
RTVSPropertyOp37
 70
     1
102
RTVSPropertyOp38
 70
     1
102
RTVSPropertyOp39
 70
     1
102
RTVSPropertyOp40
 70
     1
102
RTVSPropertyOp41
 70
     1
102
RTVSPropertyOp42
 70
     1
102
RTVSPropertyOp43
 70
     1
102
RTVSPropertyOp44
 70
     1
102
RTVSPropertyOp45
 70
     1
102
RTVSPropertyOp46
 70
     1
102
RTVSPropertyOp47
 70
     1
102
RTVSPropertyOp48
 70
     1
102
RTVSPropertyOp49
 70
     1
102
RTVSPropertyOp50
 70
     1
102
RTVSPropertyOp51
 70
     0
102
RTVSPropertyOp52
 70
     0
102
RTVSPropertyOp53
 70
     1
102
RTVSPropertyOp54
 70
     1
102
RTVSPropertyOp55
 70
     1
102
RTVSPropertyOp56
 70
     1
102
RTVSPropertyOp57
 70
     1
102
RTVSPropertyOp58
 70
     1
102
RTVSPropertyOp59
 70
     1
102
RTVSPropertyOp60
 70
     1
102
RTVSPropertyOp61
 70
     1
102
RTVSPropertyOp62
 70
     1
  0
XRECORD
  5
4191
102
{ACAD_REACTORS
330
4190
102
}
330
4190
100
AcDbXrecord
280
     1
102
RTVSPost2010Prop28
280
     0
102
RTVSPost2010PropOp28
 70
     1
102
RTVSPost2010Prop29
280
     1
102
RTVSPost2010PropOp29
 70
     1
102
RTVSPost2010Prop30
280
     1
102
RTVSPost2010PropOp30
 70
     1
102
RTVSPost2010Prop31
280
     0
102
RTVSPost2010PropOp31
 70
     1
102
RTVSPost2010Prop32
280
     0
102
RTVSPost2010PropOp32
 70
     1
102
RTVSPost2010Prop33
280
     0
102
RTVSPost2010PropOp33
 70
     1
102
RTVSPost2010Prop34
280
     0
102
RTVSPost2010PropOp34
 70
     1
102
RTVSPost2010Prop35
280
     0
102
RTVSPost2010PropOp35
 70
     1
102
RTVSPost2010Prop36
280
     0
102
RTVSPost2010PropOp36
 70
     1
102
RTVSPost2010Prop37
 90
       50
102
RTVSPost2010PropOp37
 70
     1
102
RTVSPost2010Prop38
140
0.0
102
RTVSPost2010PropOp38
 70
     1
102
RTVSPost2010Prop39
140
1.0
102
RTVSPost2010PropOp39
 70
     1
102
RTVSPost2010Prop40
 90
        0
102
RTVSPost2010PropOp40
 70
     1
102
RTVSPost2010Prop41ColorIndex
 90
       18
102
RTVSPost2010Prop41ColorRGB
 90
        0
102
RTVSPost2010PropOp41
 70
     1
102
RTVSPost2010Prop42
 90
       50
102
RTVSPost2010PropOp42
 70
     1
102
RTVSPost2010Prop43
 90
        3
102
RTVSPost2010PropOp43
 70
     1
102
RTVSPost2010Prop44ColorIndex
 90
        5
102
RTVSPost2010Prop44ColorRGB
 90
      255
102
RTVSPost2010PropOp44
 70
     1
102
RTVSPost2010Prop45
280
     0
102
RTVSPost2010PropOp45
 70
     1
102
RTVSPost2010Prop46
 90
       50
102
RTVSPost2010PropOp46
 70
     1
102
RTVSPost2010Prop47
 90
       50
102
RTVSPost2010PropOp47
 70
     1
102
RTVSPost2010Prop48
 90
       50
102
RTVSPost2010PropOp48
 70
     1
102
RTVSPost2010Prop49
280
     0
102
RTVSPost2010PropOp49
 70
     1
102
RTVSPost2010Prop50
 90
       50
102
RTVSPost2010PropOp50
 70
     1
102
RTVSPost2010Prop51ColorIndex
 90
      256
102
RTVSPost2010Prop51ColorRGB
 90
-16777216
102
RTVSPost2010PropOp51
 70
     0
102
RTVSPost2010Prop52
140
1.0
102
RTVSPost2010PropOp52
 70
     0
102
RTVSPost2010Prop53
 90
        2
102
RTVSPost2010PropOp53
 70
     1
102
RTVSPost2010Prop54
  1
strokes_ogs.tif
102
RTVSPost2010PropOp54
 70
     1
102
RTVSPost2010Prop55
280
     0
102
RTVSPost2010PropOp55
 70
     1
102
RTVSPost2010Prop56
140
1.0
102
RTVSPost2010PropOp56
 70
     1
102
RTVSPost2010Prop57
140
1.0
102
RTVSPost2010PropOp57
 70
     1
102
RTVSPropertyOp0
 70
     1
102
RTVSPropertyOp1
 70
     1
102
RTVSPropertyOp2
 70
     1
102
RTVSPropertyOp3
 70
     1
102
RTVSPropertyOp4
 70
     1
102
RTVSPropertyOp5
 70
     1
102
RTVSPropertyOp6
 70
     1
102
RTVSPropertyOp7
 70
     1
102
RTVSPropertyOp8
 70
     1
102
RTVSPropertyOp9
 70
     1
102
RTVSPropertyOp10
 70
     1
102
RTVSPropertyOp11
 70
     1
102
RTVSPropertyOp12
 70
     1
102
RTVSPropertyOp13
 70
     1
102
RTVSPropertyOp14
 70
     1
102
RTVSPropertyOp15
 70
     1
102
RTVSPropertyOp16
 70
     1
102
RTVSPropertyOp17
 70
     1
102
RTVSPropertyOp18
 70
     1
102
RTVSPropertyOp19
 70
     1
102
RTVSPropertyOp20
 70
     1
102
RTVSPropertyOp21
 70
     1
102
RTVSPropertyOp22
 70
     1
102
RTVSPropertyOp23
 70
     1
102
RTVSPropertyOp24
 70
     1
102
RTVSPropertyOp25
 70
     1
102
RTVSPropertyOp26
 70
     1
102
RTVSPropertyOp27
 70
     1
102
RTVSPropertyOp28
 70
     1
102
RTVSPropertyOp29
 70
     1
102
RTVSPropertyOp30
 70
     1
102
RTVSPropertyOp31
 70
     1
102
RTVSPropertyOp32
 70
     1
102
RTVSPropertyOp33
 70
     1
102
RTVSPropertyOp34
 70
     1
102
RTVSPropertyOp35
 70
     1
102
RTVSPropertyOp36
 70
     1
102
RTVSPropertyOp37
 70
     1
102
RTVSPropertyOp38
 70
     1
102
RTVSPropertyOp39
 70
     1
102
RTVSPropertyOp40
 70
     1
102
RTVSPropertyOp41
 70
     1
102
RTVSPropertyOp42
 70
     1
102
RTVSPropertyOp43
 70
     1
102
RTVSPropertyOp44
 70
     1
102
RTVSPropertyOp45
 70
     1
102
RTVSPropertyOp46
 70
     1
102
RTVSPropertyOp47
 70
     1
102
RTVSPropertyOp48
 70
     1
102
RTVSPropertyOp49
 70
     1
102
RTVSPropertyOp50
 70
     1
102
RTVSPropertyOp51
 70
     0
102
RTVSPropertyOp52
 70
     0
102
RTVSPropertyOp53
 70
     1
102
RTVSPropertyOp54
 70
     1
102
RTVSPropertyOp55
 70
     1
102
RTVSPropertyOp56
 70
     1
102
RTVSPropertyOp57
 70
     1
102
RTVSPropertyOp58
 70
     1
102
RTVSPropertyOp59
 70
     1
102
RTVSPropertyOp60
 70
     1
102
RTVSPropertyOp61
 70
     1
102
RTVSPropertyOp62
 70
     1
  0
XRECORD
  5
4199
102
{ACAD_REACTORS
330
4198
102
}
330
4198
100
AcDbXrecord
280
     1
102
RTVSPost2010Prop28
280
     0
102
RTVSPost2010PropOp28
 70
     1
102
RTVSPost2010Prop29
280
     1
102
RTVSPost2010PropOp29
 70
     1
102
RTVSPost2010Prop30
280
     1
102
RTVSPost2010PropOp30
 70
     1
102
RTVSPost2010Prop31
280
     0
102
RTVSPost2010PropOp31
 70
     1
102
RTVSPost2010Prop32
280
     0
102
RTVSPost2010PropOp32
 70
     1
102
RTVSPost2010Prop33
280
     0
102
RTVSPost2010PropOp33
 70
     1
102
RTVSPost2010Prop34
280
     0
102
RTVSPost2010PropOp34
 70
     1
102
RTVSPost2010Prop35
280
     0
102
RTVSPost2010PropOp35
 70
     1
102
RTVSPost2010Prop36
280
     0
102
RTVSPost2010PropOp36
 70
     1
102
RTVSPost2010Prop37
 90
       50
102
RTVSPost2010PropOp37
 70
     1
102
RTVSPost2010Prop38
140
0.0
102
RTVSPost2010PropOp38
 70
     1
102
RTVSPost2010Prop39
140
1.0
102
RTVSPost2010PropOp39
 70
     1
102
RTVSPost2010Prop40
 90
        0
102
RTVSPost2010PropOp40
 70
     1
102
RTVSPost2010Prop41ColorIndex
 90
       18
102
RTVSPost2010Prop41ColorRGB
 90
        0
102
RTVSPost2010PropOp41
 70
     1
102
RTVSPost2010Prop42
 90
       50
102
RTVSPost2010PropOp42
 70
     1
102
RTVSPost2010Prop43
 90
        3
102
RTVSPost2010PropOp43
 70
     1
102
RTVSPost2010Prop44ColorIndex
 90
        5
102
RTVSPost2010Prop44ColorRGB
 90
      255
102
RTVSPost2010PropOp44
 70
     1
102
RTVSPost2010Prop45
280
     0
102
RTVSPost2010PropOp45
 70
     1
102
RTVSPost2010Prop46
 90
       50
102
RTVSPost2010PropOp46
 70
     1
102
RTVSPost2010Prop47
 90
       50
102
RTVSPost2010PropOp47
 70
     1
102
RTVSPost2010Prop48
 90
       50
102
RTVSPost2010PropOp48
 70
     1
102
RTVSPost2010Prop49
280
     0
102
RTVSPost2010PropOp49
 70
     1
102
RTVSPost2010Prop50
 90
       50
102
RTVSPost2010PropOp50
 70
     1
102
RTVSPost2010Prop51ColorIndex
 90
      256
102
RTVSPost2010Prop51ColorRGB
 90
-16777216
102
RTVSPost2010PropOp51
 70
     0
102
RTVSPost2010Prop52
140
1.0
102
RTVSPost2010PropOp52
 70
     0
102
RTVSPost2010Prop53
 90
        2
102
RTVSPost2010PropOp53
 70
     1
102
RTVSPost2010Prop54
  1
strokes_ogs.tif
102
RTVSPost2010PropOp54
 70
     1
102
RTVSPost2010Prop55
280
     0
102
RTVSPost2010PropOp55
 70
     1
102
RTVSPost2010Prop56
140
1.0
102
RTVSPost2010PropOp56
 70
     1
102
RTVSPost2010Prop57
140
1.0
102
RTVSPost2010PropOp57
 70
     1
102
RTVSPropertyOp0
 70
     1
102
RTVSPropertyOp1
 70
     1
102
RTVSPropertyOp2
 70
     1
102
RTVSPropertyOp3
 70
     1
102
RTVSPropertyOp4
 70
     1
102
RTVSPropertyOp5
 70
     1
102
RTVSPropertyOp6
 70
     1
102
RTVSPropertyOp7
 70
     1
102
RTVSPropertyOp8
 70
     1
102
RTVSPropertyOp9
 70
     1
102
RTVSPropertyOp10
 70
     1
102
RTVSPropertyOp11
 70
     1
102
RTVSPropertyOp12
 70
     1
102
RTVSPropertyOp13
 70
     1
102
RTVSPropertyOp14
 70
     1
102
RTVSPropertyOp15
 70
     1
102
RTVSPropertyOp16
 70
     1
102
RTVSPropertyOp17
 70
     1
102
RTVSPropertyOp18
 70
     1
102
RTVSPropertyOp19
 70
     1
102
RTVSPropertyOp20
 70
     1
102
RTVSPropertyOp21
 70
     1
102
RTVSPropertyOp22
 70
     1
102
RTVSPropertyOp23
 70
     1
102
RTVSPropertyOp24
 70
     1
102
RTVSPropertyOp25
 70
     1
102
RTVSPropertyOp26
 70
     1
102
RTVSPropertyOp27
 70
     1
102
RTVSPropertyOp28
 70
     1
102
RTVSPropertyOp29
 70
     1
102
RTVSPropertyOp30
 70
     1
102
RTVSPropertyOp31
 70
     1
102
RTVSPropertyOp32
 70
     1
102
RTVSPropertyOp33
 70
     1
102
RTVSPropertyOp34
 70
     1
102
RTVSPropertyOp35
 70
     1
102
RTVSPropertyOp36
 70
     1
102
RTVSPropertyOp37
 70
     1
102
RTVSPropertyOp38
 70
     1
102
RTVSPropertyOp39
 70
     1
102
RTVSPropertyOp40
 70
     1
102
RTVSPropertyOp41
 70
     1
102
RTVSPropertyOp42
 70
     1
102
RTVSPropertyOp43
 70
     1
102
RTVSPropertyOp44
 70
     1
102
RTVSPropertyOp45
 70
     1
102
RTVSPropertyOp46
 70
     1
102
RTVSPropertyOp47
 70
     1
102
RTVSPropertyOp48
 70
     1
102
RTVSPropertyOp49
 70
     1
102
RTVSPropertyOp50
 70
     1
102
RTVSPropertyOp51
 70
     0
102
RTVSPropertyOp52
 70
     0
102
RTVSPropertyOp53
 70
     1
102
RTVSPropertyOp54
 70
     1
102
RTVSPropertyOp55
 70
     1
102
RTVSPropertyOp56
 70
     1
102
RTVSPropertyOp57
 70
     1
102
RTVSPropertyOp58
 70
     1
102
RTVSPropertyOp59
 70
     1
102
RTVSPropertyOp60
 70
     1
102
RTVSPropertyOp61
 70
     1
102
RTVSPropertyOp62
 70
     1
  0
XRECORD
  5
41B5
102
{ACAD_REACTORS
330
41B4
102
}
330
41B4
100
AcDbXrecord
280
     1
102
RTVSPost2010Prop28
280
     0
102
RTVSPost2010PropOp28
 70
     0
102
RTVSPost2010Prop29
280
     1
102
RTVSPost2010PropOp29
 70
     0
102
RTVSPost2010Prop30
280
     1
102
RTVSPost2010PropOp30
 70
     0
102
RTVSPost2010Prop31
280
     0
102
RTVSPost2010PropOp31
 70
     0
102
RTVSPost2010Prop32
280
     0
102
RTVSPost2010PropOp32
 70
     0
102
RTVSPost2010Prop33
280
     0
102
RTVSPost2010PropOp33
 70
     0
102
RTVSPost2010Prop34
280
     0
102
RTVSPost2010PropOp34
 70
     0
102
RTVSPost2010Prop35
280
     0
102
RTVSPost2010PropOp35
 70
     0
102
RTVSPost2010Prop36
280
     0
102
RTVSPost2010PropOp36
 70
     0
102
RTVSPost2010Prop37
 90
       50
102
RTVSPost2010PropOp37
 70
     0
102
RTVSPost2010Prop38
140
0.0
102
RTVSPost2010PropOp38
 70
     0
102
RTVSPost2010Prop39
140
1.0
102
RTVSPost2010PropOp39
 70
     0
102
RTVSPost2010Prop40
 90
        0
102
RTVSPost2010PropOp40
 70
     0
102
RTVSPost2010Prop41ColorIndex
 90
       18
102
RTVSPost2010Prop41ColorRGB
 90
        0
102
RTVSPost2010PropOp41
 70
     0
102
RTVSPost2010Prop42
 90
       50
102
RTVSPost2010PropOp42
 70
     0
102
RTVSPost2010Prop43
 90
        3
102
RTVSPost2010PropOp43
 70
     0
102
RTVSPost2010Prop44ColorIndex
 90
        5
102
RTVSPost2010Prop44ColorRGB
 90
      255
102
RTVSPost2010PropOp44
 70
     0
102
RTVSPost2010Prop45
280
     0
102
RTVSPost2010PropOp45
 70
     0
102
RTVSPost2010Prop46
 90
       50
102
RTVSPost2010PropOp46
 70
     0
102
RTVSPost2010Prop47
 90
       50
102
RTVSPost2010PropOp47
 70
     0
102
RTVSPost2010Prop48
 90
       50
102
RTVSPost2010PropOp48
 70
     0
102
RTVSPost2010Prop49
280
     0
102
RTVSPost2010PropOp49
 70
     0
102
RTVSPost2010Prop50
 90
       50
102
RTVSPost2010PropOp50
 70
     0
102
RTVSPost2010Prop51ColorIndex
 90
      256
102
RTVSPost2010Prop51ColorRGB
 90
-16777216
102
RTVSPost2010PropOp51
 70
     0
102
RTVSPost2010Prop52
140
1.0
102
RTVSPost2010PropOp52
 70
     0
102
RTVSPost2010Prop53
 90
        2
102
RTVSPost2010PropOp53
 70
     0
102
RTVSPost2010Prop54
  1
strokes_ogs.tif
102
RTVSPost2010PropOp54
 70
     0
102
RTVSPost2010Prop55
280
     0
102
RTVSPost2010PropOp55
 70
     0
102
RTVSPost2010Prop56
140
1.0
102
RTVSPost2010PropOp56
 70
     0
102
RTVSPost2010Prop57
140
1.0
102
RTVSPost2010PropOp57
 70
     0
102
RTVSPropertyOp0
 70
     0
102
RTVSPropertyOp1
 70
     0
102
RTVSPropertyOp2
 70
     0
102
RTVSPropertyOp3
 70
     0
102
RTVSPropertyOp4
 70
     0
102
RTVSPropertyOp5
 70
     0
102
RTVSPropertyOp6
 70
     0
102
RTVSPropertyOp7
 70
     0
102
RTVSPropertyOp8
 70
     0
102
RTVSPropertyOp9
 70
     0
102
RTVSPropertyOp10
 70
     0
102
RTVSPropertyOp11
 70
     0
102
RTVSPropertyOp12
 70
     0
102
RTVSPropertyOp13
 70
     0
102
RTVSPropertyOp14
 70
     2
102
RTVSPropertyOp15
 70
     0
102
RTVSPropertyOp16
 70
     0
102
RTVSPropertyOp17
 70
     0
102
RTVSPropertyOp18
 70
     0
102
RTVSPropertyOp19
 70
     0
102
RTVSPropertyOp20
 70
     0
102
RTVSPropertyOp21
 70
     0
102
RTVSPropertyOp22
 70
     0
102
RTVSPropertyOp23
 70
     0
102
RTVSPropertyOp24
 70
     0
102
RTVSPropertyOp25
 70
     0
102
RTVSPropertyOp26
 70
     0
102
RTVSPropertyOp27
 70
     0
102
RTVSPropertyOp28
 70
     0
102
RTVSPropertyOp29
 70
     0
102
RTVSPropertyOp30
 70
     0
102
RTVSPropertyOp31
 70
     0
102
RTVSPropertyOp32
 70
     0
102
RTVSPropertyOp33
 70
     0
102
RTVSPropertyOp34
 70
     0
102
RTVSPropertyOp35
 70
     0
102
RTVSPropertyOp36
 70
     0
102
RTVSPropertyOp37
 70
     0
102
RTVSPropertyOp38
 70
     0
102
RTVSPropertyOp39
 70
     0
102
RTVSPropertyOp40
 70
     0
102
RTVSPropertyOp41
 70
     0
102
RTVSPropertyOp42
 70
     0
102
RTVSPropertyOp43
 70
     0
102
RTVSPropertyOp44
 70
     0
102
RTVSPropertyOp45
 70
     0
102
RTVSPropertyOp46
 70
     0
102
RTVSPropertyOp47
 70
     0
102
RTVSPropertyOp48
 70
     0
102
RTVSPropertyOp49
 70
     0
102
RTVSPropertyOp50
 70
     0
102
RTVSPropertyOp51
 70
     0
102
RTVSPropertyOp52
 70
     0
102
RTVSPropertyOp53
 70
     0
102
RTVSPropertyOp54
 70
     0
102
RTVSPropertyOp55
 70
     0
102
RTVSPropertyOp56
 70
     0
102
RTVSPropertyOp57
 70
     0
102
RTVSPropertyOp58
 70
     1
102
RTVSPropertyOp59
 70
     1
102
RTVSPropertyOp60
 70
     1
102
RTVSPropertyOp61
 70
     1
102
RTVSPropertyOp62
 70
     1
  0
XRECORD
  5
41A5
102
{ACAD_REACTORS
330
41A4
102
}
330
41A4
100
AcDbXrecord
280
     1
102
RTVSPost2010Prop28
280
     0
102
RTVSPost2010PropOp28
 70
     1
102
RTVSPost2010Prop29
280
     1
102
RTVSPost2010PropOp29
 70
     1
102
RTVSPost2010Prop30
280
     1
102
RTVSPost2010PropOp30
 70
     1
102
RTVSPost2010Prop31
280
     0
102
RTVSPost2010PropOp31
 70
     1
102
RTVSPost2010Prop32
280
     0
102
RTVSPost2010PropOp32
 70
     1
102
RTVSPost2010Prop33
280
     0
102
RTVSPost2010PropOp33
 70
     1
102
RTVSPost2010Prop34
280
     0
102
RTVSPost2010PropOp34
 70
     1
102
RTVSPost2010Prop35
280
     0
102
RTVSPost2010PropOp35
 70
     1
102
RTVSPost2010Prop36
280
     0
102
RTVSPost2010PropOp36
 70
     1
102
RTVSPost2010Prop37
 90
       50
102
RTVSPost2010PropOp37
 70
     1
102
RTVSPost2010Prop38
140
0.0
102
RTVSPost2010PropOp38
 70
     1
102
RTVSPost2010Prop39
140
1.0
102
RTVSPost2010PropOp39
 70
     1
102
RTVSPost2010Prop40
 90
        0
102
RTVSPost2010PropOp40
 70
     1
102
RTVSPost2010Prop41ColorIndex
 90
       18
102
RTVSPost2010Prop41ColorRGB
 90
        0
102
RTVSPost2010PropOp41
 70
     1
102
RTVSPost2010Prop42
 90
       50
102
RTVSPost2010PropOp42
 70
     1
102
RTVSPost2010Prop43
 90
        3
102
RTVSPost2010PropOp43
 70
     1
102
RTVSPost2010Prop44ColorIndex
 90
        5
102
RTVSPost2010Prop44ColorRGB
 90
      255
102
RTVSPost2010PropOp44
 70
     1
102
RTVSPost2010Prop45
280
     0
102
RTVSPost2010PropOp45
 70
     1
102
RTVSPost2010Prop46
 90
       50
102
RTVSPost2010PropOp46
 70
     1
102
RTVSPost2010Prop47
 90
       50
102
RTVSPost2010PropOp47
 70
     1
102
RTVSPost2010Prop48
 90
       50
102
RTVSPost2010PropOp48
 70
     1
102
RTVSPost2010Prop49
280
     0
102
RTVSPost2010PropOp49
 70
     1
102
RTVSPost2010Prop50
 90
       50
102
RTVSPost2010PropOp50
 70
     1
102
RTVSPost2010Prop51ColorIndex
 90
      256
102
RTVSPost2010Prop51ColorRGB
 90
-16777216
102
RTVSPost2010PropOp51
 70
     0
102
RTVSPost2010Prop52
140
1.0
102
RTVSPost2010PropOp52
 70
     0
102
RTVSPost2010Prop53
 90
        2
102
RTVSPost2010PropOp53
 70
     1
102
RTVSPost2010Prop54
  1
strokes_ogs.tif
102
RTVSPost2010PropOp54
 70
     1
102
RTVSPost2010Prop55
280
     0
102
RTVSPost2010PropOp55
 70
     1
102
RTVSPost2010Prop56
140
1.0
102
RTVSPost2010PropOp56
 70
     1
102
RTVSPost2010Prop57
140
1.0
102
RTVSPost2010PropOp57
 70
     1
102
RTVSPropertyOp0
 70
     1
102
RTVSPropertyOp1
 70
     1
102
RTVSPropertyOp2
 70
     1
102
RTVSPropertyOp3
 70
     1
102
RTVSPropertyOp4
 70
     1
102
RTVSPropertyOp5
 70
     1
102
RTVSPropertyOp6
 70
     1
102
RTVSPropertyOp7
 70
     1
102
RTVSPropertyOp8
 70
     1
102
RTVSPropertyOp9
 70
     1
102
RTVSPropertyOp10
 70
     1
102
RTVSPropertyOp11
 70
     1
102
RTVSPropertyOp12
 70
     1
102
RTVSPropertyOp13
 70
     1
102
RTVSPropertyOp14
 70
     1
102
RTVSPropertyOp15
 70
     1
102
RTVSPropertyOp16
 70
     1
102
RTVSPropertyOp17
 70
     1
102
RTVSPropertyOp18
 70
     1
102
RTVSPropertyOp19
 70
     1
102
RTVSPropertyOp20
 70
     1
102
RTVSPropertyOp21
 70
     1
102
RTVSPropertyOp22
 70
     1
102
RTVSPropertyOp23
 70
     1
102
RTVSPropertyOp24
 70
     1
102
RTVSPropertyOp25
 70
     1
102
RTVSPropertyOp26
 70
     1
102
RTVSPropertyOp27
 70
     1
102
RTVSPropertyOp28
 70
     1
102
RTVSPropertyOp29
 70
     1
102
RTVSPropertyOp30
 70
     1
102
RTVSPropertyOp31
 70
     1
102
RTVSPropertyOp32
 70
     1
102
RTVSPropertyOp33
 70
     1
102
RTVSPropertyOp34
 70
     1
102
RTVSPropertyOp35
 70
     1
102
RTVSPropertyOp36
 70
     1
102
RTVSPropertyOp37
 70
     1
102
RTVSPropertyOp38
 70
     1
102
RTVSPropertyOp39
 70
     1
102
RTVSPropertyOp40
 70
     1
102
RTVSPropertyOp41
 70
     1
102
RTVSPropertyOp42
 70
     1
102
RTVSPropertyOp43
 70
     1
102
RTVSPropertyOp44
 70
     1
102
RTVSPropertyOp45
 70
     1
102
RTVSPropertyOp46
 70
     1
102
RTVSPropertyOp47
 70
     1
102
RTVSPropertyOp48
 70
     1
102
RTVSPropertyOp49
 70
     1
102
RTVSPropertyOp50
 70
     1
102
RTVSPropertyOp51
 70
     0
102
RTVSPropertyOp52
 70
     0
102
RTVSPropertyOp53
 70
     1
102
RTVSPropertyOp54
 70
     1
102
RTVSPropertyOp55
 70
     1
102
RTVSPropertyOp56
 70
     1
102
RTVSPropertyOp57
 70
     1
102
RTVSPropertyOp58
 70
     1
102
RTVSPropertyOp59
 70
     1
102
RTVSPropertyOp60
 70
     1
102
RTVSPropertyOp61
 70
     1
102
RTVSPropertyOp62
 70
     1
  0
XRECORD
  5
41B7
102
{ACAD_REACTORS
330
41B6
102
}
330
41B6
100
AcDbXrecord
280
     1
102
RTVSPost2010Prop28
280
     0
102
RTVSPost2010PropOp28
 70
     0
102
RTVSPost2010Prop29
280
     1
102
RTVSPost2010PropOp29
 70
     0
102
RTVSPost2010Prop30
280
     1
102
RTVSPost2010PropOp30
 70
     0
102
RTVSPost2010Prop31
280
     0
102
RTVSPost2010PropOp31
 70
     0
102
RTVSPost2010Prop32
280
     0
102
RTVSPost2010PropOp32
 70
     0
102
RTVSPost2010Prop33
280
     0
102
RTVSPost2010PropOp33
 70
     0
102
RTVSPost2010Prop34
280
     0
102
RTVSPost2010PropOp34
 70
     0
102
RTVSPost2010Prop35
280
     0
102
RTVSPost2010PropOp35
 70
     0
102
RTVSPost2010Prop36
280
     0
102
RTVSPost2010PropOp36
 70
     0
102
RTVSPost2010Prop37
 90
       50
102
RTVSPost2010PropOp37
 70
     0
102
RTVSPost2010Prop38
140
0.0
102
RTVSPost2010PropOp38
 70
     0
102
RTVSPost2010Prop39
140
1.0
102
RTVSPost2010PropOp39
 70
     0
102
RTVSPost2010Prop40
 90
        0
102
RTVSPost2010PropOp40
 70
     0
102
RTVSPost2010Prop41ColorIndex
 90
       18
102
RTVSPost2010Prop41ColorRGB
 90
        0
102
RTVSPost2010PropOp41
 70
     0
102
RTVSPost2010Prop42
 90
       50
102
RTVSPost2010PropOp42
 70
     0
102
RTVSPost2010Prop43
 90
        3
102
RTVSPost2010PropOp43
 70
     0
102
RTVSPost2010Prop44ColorIndex
 90
        5
102
RTVSPost2010Prop44ColorRGB
 90
      255
102
RTVSPost2010PropOp44
 70
     0
102
RTVSPost2010Prop45
280
     0
102
RTVSPost2010PropOp45
 70
     0
102
RTVSPost2010Prop46
 90
       50
102
RTVSPost2010PropOp46
 70
     0
102
RTVSPost2010Prop47
 90
       50
102
RTVSPost2010PropOp47
 70
     0
102
RTVSPost2010Prop48
 90
       50
102
RTVSPost2010PropOp48
 70
     0
102
RTVSPost2010Prop49
280
     0
102
RTVSPost2010PropOp49
 70
     0
102
RTVSPost2010Prop50
 90
       50
102
RTVSPost2010PropOp50
 70
     0
102
RTVSPost2010Prop51ColorIndex
 90
      256
102
RTVSPost2010Prop51ColorRGB
 90
-16777216
102
RTVSPost2010PropOp51
 70
     0
102
RTVSPost2010Prop52
140
1.0
102
RTVSPost2010PropOp52
 70
     0
102
RTVSPost2010Prop53
 90
        2
102
RTVSPost2010PropOp53
 70
     0
102
RTVSPost2010Prop54
  1
strokes_ogs.tif
102
RTVSPost2010PropOp54
 70
     0
102
RTVSPost2010Prop55
280
     0
102
RTVSPost2010PropOp55
 70
     0
102
RTVSPost2010Prop56
140
1.0
102
RTVSPost2010PropOp56
 70
     0
102
RTVSPost2010Prop57
140
1.0
102
RTVSPost2010PropOp57
 70
     0
102
RTVSPropertyOp0
 70
     0
102
RTVSPropertyOp1
 70
     0
102
RTVSPropertyOp2
 70
     0
102
RTVSPropertyOp3
 70
     0
102
RTVSPropertyOp4
 70
     0
102
RTVSPropertyOp5
 70
     0
102
RTVSPropertyOp6
 70
     0
102
RTVSPropertyOp7
 70
     0
102
RTVSPropertyOp8
 70
     0
102
RTVSPropertyOp9
 70
     0
102
RTVSPropertyOp10
 70
     0
102
RTVSPropertyOp11
 70
     0
102
RTVSPropertyOp12
 70
     0
102
RTVSPropertyOp13
 70
     0
102
RTVSPropertyOp14
 70
     2
102
RTVSPropertyOp15
 70
     0
102
RTVSPropertyOp16
 70
     0
102
RTVSPropertyOp17
 70
     0
102
RTVSPropertyOp18
 70
     0
102
RTVSPropertyOp19
 70
     0
102
RTVSPropertyOp20
 70
     0
102
RTVSPropertyOp21
 70
     0
102
RTVSPropertyOp22
 70
     0
102
RTVSPropertyOp23
 70
     0
102
RTVSPropertyOp24
 70
     0
102
RTVSPropertyOp25
 70
     0
102
RTVSPropertyOp26
 70
     0
102
RTVSPropertyOp27
 70
     0
102
RTVSPropertyOp28
 70
     0
102
RTVSPropertyOp29
 70
     0
102
RTVSPropertyOp30
 70
     0
102
RTVSPropertyOp31
 70
     0
102
RTVSPropertyOp32
 70
     0
102
RTVSPropertyOp33
 70
     0
102
RTVSPropertyOp34
 70
     0
102
RTVSPropertyOp35
 70
     0
102
RTVSPropertyOp36
 70
     0
102
RTVSPropertyOp37
 70
     0
102
RTVSPropertyOp38
 70
     0
102
RTVSPropertyOp39
 70
     0
102
RTVSPropertyOp40
 70
     0
102
RTVSPropertyOp41
 70
     0
102
RTVSPropertyOp42
 70
     0
102
RTVSPropertyOp43
 70
     0
102
RTVSPropertyOp44
 70
     0
102
RTVSPropertyOp45
 70
     0
102
RTVSPropertyOp46
 70
     0
102
RTVSPropertyOp47
 70
     0
102
RTVSPropertyOp48
 70
     0
102
RTVSPropertyOp49
 70
     0
102
RTVSPropertyOp50
 70
     0
102
RTVSPropertyOp51
 70
     0
102
RTVSPropertyOp52
 70
     0
102
RTVSPropertyOp53
 70
     0
102
RTVSPropertyOp54
 70
     0
102
RTVSPropertyOp55
 70
     0
102
RTVSPropertyOp56
 70
     0
102
RTVSPropertyOp57
 70
     0
102
RTVSPropertyOp58
 70
     1
102
RTVSPropertyOp59
 70
     1
102
RTVSPropertyOp60
 70
     1
102
RTVSPropertyOp61
 70
     1
102
RTVSPropertyOp62
 70
     1
  0
XRECORD
  5
419D
102
{ACAD_REACTORS
330
419C
102
}
330
419C
100
AcDbXrecord
280
     1
102
RTVSPost2010Prop28
280
     0
102
RTVSPost2010PropOp28
 70
     1
102
RTVSPost2010Prop29
280
     1
102
RTVSPost2010PropOp29
 70
     1
102
RTVSPost2010Prop30
280
     1
102
RTVSPost2010PropOp30
 70
     1
102
RTVSPost2010Prop31
280
     0
102
RTVSPost2010PropOp31
 70
     1
102
RTVSPost2010Prop32
280
     0
102
RTVSPost2010PropOp32
 70
     1
102
RTVSPost2010Prop33
280
     0
102
RTVSPost2010PropOp33
 70
     1
102
RTVSPost2010Prop34
280
     0
102
RTVSPost2010PropOp34
 70
     1
102
RTVSPost2010Prop35
280
     0
102
RTVSPost2010PropOp35
 70
     1
102
RTVSPost2010Prop36
280
     0
102
RTVSPost2010PropOp36
 70
     1
102
RTVSPost2010Prop37
 90
       50
102
RTVSPost2010PropOp37
 70
     1
102
RTVSPost2010Prop38
140
0.0
102
RTVSPost2010PropOp38
 70
     1
102
RTVSPost2010Prop39
140
1.0
102
RTVSPost2010PropOp39
 70
     1
102
RTVSPost2010Prop40
 90
        0
102
RTVSPost2010PropOp40
 70
     1
102
RTVSPost2010Prop41ColorIndex
 90
       18
102
RTVSPost2010Prop41ColorRGB
 90
        0
102
RTVSPost2010PropOp41
 70
     1
102
RTVSPost2010Prop42
 90
       50
102
RTVSPost2010PropOp42
 70
     1
102
RTVSPost2010Prop43
 90
        3
102
RTVSPost2010PropOp43
 70
     1
102
RTVSPost2010Prop44ColorIndex
 90
        5
102
RTVSPost2010Prop44ColorRGB
 90
      255
102
RTVSPost2010PropOp44
 70
     1
102
RTVSPost2010Prop45
280
     0
102
RTVSPost2010PropOp45
 70
     1
102
RTVSPost2010Prop46
 90
       50
102
RTVSPost2010PropOp46
 70
     1
102
RTVSPost2010Prop47
 90
       50
102
RTVSPost2010PropOp47
 70
     1
102
RTVSPost2010Prop48
 90
       50
102
RTVSPost2010PropOp48
 70
     1
102
RTVSPost2010Prop49
280
     0
102
RTVSPost2010PropOp49
 70
     1
102
RTVSPost2010Prop50
 90
       50
102
RTVSPost2010PropOp50
 70
     1
102
RTVSPost2010Prop51ColorIndex
 90
      256
102
RTVSPost2010Prop51ColorRGB
 90
-16777216
102
RTVSPost2010PropOp51
 70
     0
102
RTVSPost2010Prop52
140
1.0
102
RTVSPost2010PropOp52
 70
     0
102
RTVSPost2010Prop53
 90
        2
102
RTVSPost2010PropOp53
 70
     1
102
RTVSPost2010Prop54
  1
strokes_ogs.tif
102
RTVSPost2010PropOp54
 70
     1
102
RTVSPost2010Prop55
280
     0
102
RTVSPost2010PropOp55
 70
     1
102
RTVSPost2010Prop56
140
1.0
102
RTVSPost2010PropOp56
 70
     1
102
RTVSPost2010Prop57
140
1.0
102
RTVSPost2010PropOp57
 70
     1
102
RTVSPropertyOp0
 70
     1
102
RTVSPropertyOp1
 70
     1
102
RTVSPropertyOp2
 70
     1
102
RTVSPropertyOp3
 70
     1
102
RTVSPropertyOp4
 70
     1
102
RTVSPropertyOp5
 70
     1
102
RTVSPropertyOp6
 70
     1
102
RTVSPropertyOp7
 70
     1
102
RTVSPropertyOp8
 70
     1
102
RTVSPropertyOp9
 70
     1
102
RTVSPropertyOp10
 70
     1
102
RTVSPropertyOp11
 70
     1
102
RTVSPropertyOp12
 70
     1
102
RTVSPropertyOp13
 70
     1
102
RTVSPropertyOp14
 70
     1
102
RTVSPropertyOp15
 70
     1
102
RTVSPropertyOp16
 70
     1
102
RTVSPropertyOp17
 70
     1
102
RTVSPropertyOp18
 70
     1
102
RTVSPropertyOp19
 70
     1
102
RTVSPropertyOp20
 70
     1
102
RTVSPropertyOp21
 70
     1
102
RTVSPropertyOp22
 70
     1
102
RTVSPropertyOp23
 70
     1
102
RTVSPropertyOp24
 70
     1
102
RTVSPropertyOp25
 70
     1
102
RTVSPropertyOp26
 70
     1
102
RTVSPropertyOp27
 70
     1
102
RTVSPropertyOp28
 70
     1
102
RTVSPropertyOp29
 70
     1
102
RTVSPropertyOp30
 70
     1
102
RTVSPropertyOp31
 70
     1
102
RTVSPropertyOp32
 70
     1
102
RTVSPropertyOp33
 70
     1
102
RTVSPropertyOp34
 70
     1
102
RTVSPropertyOp35
 70
     1
102
RTVSPropertyOp36
 70
     1
102
RTVSPropertyOp37
 70
     1
102
RTVSPropertyOp38
 70
     1
102
RTVSPropertyOp39
 70
     1
102
RTVSPropertyOp40
 70
     1
102
RTVSPropertyOp41
 70
     1
102
RTVSPropertyOp42
 70
     1
102
RTVSPropertyOp43
 70
     1
102
RTVSPropertyOp44
 70
     1
102
RTVSPropertyOp45
 70
     1
102
RTVSPropertyOp46
 70
     1
102
RTVSPropertyOp47
 70
     1
102
RTVSPropertyOp48
 70
     1
102
RTVSPropertyOp49
 70
     1
102
RTVSPropertyOp50
 70
     1
102
RTVSPropertyOp51
 70
     0
102
RTVSPropertyOp52
 70
     0
102
RTVSPropertyOp53
 70
     1
102
RTVSPropertyOp54
 70
     1
102
RTVSPropertyOp55
 70
     1
102
RTVSPropertyOp56
 70
     1
102
RTVSPropertyOp57
 70
     1
102
RTVSPropertyOp58
 70
     1
102
RTVSPropertyOp59
 70
     1
102
RTVSPropertyOp60
 70
     1
102
RTVSPropertyOp61
 70
     1
102
RTVSPropertyOp62
 70
     1
  0
XRECORD
  5
41B3
102
{ACAD_REACTORS
330
41B2
102
}
330
41B2
100
AcDbXrecord
280
     1
102
RTVSPost2010Prop28
280
     0
102
RTVSPost2010PropOp28
 70
     1
102
RTVSPost2010Prop29
280
     1
102
RTVSPost2010PropOp29
 70
     1
102
RTVSPost2010Prop30
280
     1
102
RTVSPost2010PropOp30
 70
     1
102
RTVSPost2010Prop31
280
     0
102
RTVSPost2010PropOp31
 70
     1
102
RTVSPost2010Prop32
280
     0
102
RTVSPost2010PropOp32
 70
     1
102
RTVSPost2010Prop33
280
     0
102
RTVSPost2010PropOp33
 70
     1
102
RTVSPost2010Prop34
280
     0
102
RTVSPost2010PropOp34
 70
     1
102
RTVSPost2010Prop35
280
     0
102
RTVSPost2010PropOp35
 70
     1
102
RTVSPost2010Prop36
280
     0
102
RTVSPost2010PropOp36
 70
     1
102
RTVSPost2010Prop37
 90
       50
102
RTVSPost2010PropOp37
 70
     1
102
RTVSPost2010Prop38
140
0.0
102
RTVSPost2010PropOp38
 70
     1
102
RTVSPost2010Prop39
140
1.0
102
RTVSPost2010PropOp39
 70
     1
102
RTVSPost2010Prop40
 90
        0
102
RTVSPost2010PropOp40
 70
     1
102
RTVSPost2010Prop41ColorIndex
 90
       18
102
RTVSPost2010Prop41ColorRGB
 90
        0
102
RTVSPost2010PropOp41
 70
     1
102
RTVSPost2010Prop42
 90
       50
102
RTVSPost2010PropOp42
 70
     1
102
RTVSPost2010Prop43
 90
        3
102
RTVSPost2010PropOp43
 70
     1
102
RTVSPost2010Prop44ColorIndex
 90
        5
102
RTVSPost2010Prop44ColorRGB
 90
      255
102
RTVSPost2010PropOp44
 70
     1
102
RTVSPost2010Prop45
280
     0
102
RTVSPost2010PropOp45
 70
     1
102
RTVSPost2010Prop46
 90
       50
102
RTVSPost2010PropOp46
 70
     1
102
RTVSPost2010Prop47
 90
       50
102
RTVSPost2010PropOp47
 70
     1
102
RTVSPost2010Prop48
 90
       50
102
RTVSPost2010PropOp48
 70
     1
102
RTVSPost2010Prop49
280
     0
102
RTVSPost2010PropOp49
 70
     1
102
RTVSPost2010Prop50
 90
       50
102
RTVSPost2010PropOp50
 70
     1
102
RTVSPost2010Prop51ColorIndex
 90
      256
102
RTVSPost2010Prop51ColorRGB
 90
-16777216
102
RTVSPost2010PropOp51
 70
     0
102
RTVSPost2010Prop52
140
1.0
102
RTVSPost2010PropOp52
 70
     0
102
RTVSPost2010Prop53
 90
        2
102
RTVSPost2010PropOp53
 70
     1
102
RTVSPost2010Prop54
  1
strokes_ogs.tif
102
RTVSPost2010PropOp54
 70
     1
102
RTVSPost2010Prop55
280
     0
102
RTVSPost2010PropOp55
 70
     1
102
RTVSPost2010Prop56
140
1.0
102
RTVSPost2010PropOp56
 70
     1
102
RTVSPost2010Prop57
140
1.0
102
RTVSPost2010PropOp57
 70
     1
102
RTVSPropertyOp0
 70
     1
102
RTVSPropertyOp1
 70
     1
102
RTVSPropertyOp2
 70
     1
102
RTVSPropertyOp3
 70
     1
102
RTVSPropertyOp4
 70
     1
102
RTVSPropertyOp5
 70
     1
102
RTVSPropertyOp6
 70
     1
102
RTVSPropertyOp7
 70
     1
102
RTVSPropertyOp8
 70
     1
102
RTVSPropertyOp9
 70
     1
102
RTVSPropertyOp10
 70
     1
102
RTVSPropertyOp11
 70
     1
102
RTVSPropertyOp12
 70
     1
102
RTVSPropertyOp13
 70
     1
102
RTVSPropertyOp14
 70
     1
102
RTVSPropertyOp15
 70
     1
102
RTVSPropertyOp16
 70
     1
102
RTVSPropertyOp17
 70
     1
102
RTVSPropertyOp18
 70
     1
102
RTVSPropertyOp19
 70
     1
102
RTVSPropertyOp20
 70
     1
102
RTVSPropertyOp21
 70
     1
102
RTVSPropertyOp22
 70
     1
102
RTVSPropertyOp23
 70
     1
102
RTVSPropertyOp24
 70
     1
102
RTVSPropertyOp25
 70
     1
102
RTVSPropertyOp26
 70
     1
102
RTVSPropertyOp27
 70
     1
102
RTVSPropertyOp28
 70
     1
102
RTVSPropertyOp29
 70
     1
102
RTVSPropertyOp30
 70
     1
102
RTVSPropertyOp31
 70
     1
102
RTVSPropertyOp32
 70
     1
102
RTVSPropertyOp33
 70
     1
102
RTVSPropertyOp34
 70
     1
102
RTVSPropertyOp35
 70
     1
102
RTVSPropertyOp36
 70
     1
102
RTVSPropertyOp37
 70
     1
102
RTVSPropertyOp38
 70
     1
102
RTVSPropertyOp39
 70
     1
102
RTVSPropertyOp40
 70
     1
102
RTVSPropertyOp41
 70
     1
102
RTVSPropertyOp42
 70
     1
102
RTVSPropertyOp43
 70
     1
102
RTVSPropertyOp44
 70
     1
102
RTVSPropertyOp45
 70
     1
102
RTVSPropertyOp46
 70
     1
102
RTVSPropertyOp47
 70
     1
102
RTVSPropertyOp48
 70
     1
102
RTVSPropertyOp49
 70
     1
102
RTVSPropertyOp50
 70
     1
102
RTVSPropertyOp51
 70
     0
102
RTVSPropertyOp52
 70
     0
102
RTVSPropertyOp53
 70
     1
102
RTVSPropertyOp54
 70
     1
102
RTVSPropertyOp55
 70
     1
102
RTVSPropertyOp56
 70
     1
102
RTVSPropertyOp57
 70
     1
102
RTVSPropertyOp58
 70
     1
102
RTVSPropertyOp59
 70
     1
102
RTVSPropertyOp60
 70
     1
102
RTVSPropertyOp61
 70
     1
102
RTVSPropertyOp62
 70
     1
  0
XRECORD
  5
41B1
102
{ACAD_REACTORS
330
41B0
102
}
330
41B0
100
AcDbXrecord
280
     1
102
RTVSPost2010Prop28
280
     0
102
RTVSPost2010PropOp28
 70
     1
102
RTVSPost2010Prop29
280
     1
102
RTVSPost2010PropOp29
 70
     1
102
RTVSPost2010Prop30
280
     1
102
RTVSPost2010PropOp30
 70
     1
102
RTVSPost2010Prop31
280
     0
102
RTVSPost2010PropOp31
 70
     1
102
RTVSPost2010Prop32
280
     0
102
RTVSPost2010PropOp32
 70
     1
102
RTVSPost2010Prop33
280
     0
102
RTVSPost2010PropOp33
 70
     1
102
RTVSPost2010Prop34
280
     0
102
RTVSPost2010PropOp34
 70
     1
102
RTVSPost2010Prop35
280
     0
102
RTVSPost2010PropOp35
 70
     1
102
RTVSPost2010Prop36
280
     0
102
RTVSPost2010PropOp36
 70
     1
102
RTVSPost2010Prop37
 90
       50
102
RTVSPost2010PropOp37
 70
     1
102
RTVSPost2010Prop38
140
0.0
102
RTVSPost2010PropOp38
 70
     1
102
RTVSPost2010Prop39
140
1.0
102
RTVSPost2010PropOp39
 70
     1
102
RTVSPost2010Prop40
 90
        0
102
RTVSPost2010PropOp40
 70
     1
102
RTVSPost2010Prop41ColorIndex
 90
       18
102
RTVSPost2010Prop41ColorRGB
 90
        0
102
RTVSPost2010PropOp41
 70
     1
102
RTVSPost2010Prop42
 90
       50
102
RTVSPost2010PropOp42
 70
     1
102
RTVSPost2010Prop43
 90
        3
102
RTVSPost2010PropOp43
 70
     1
102
RTVSPost2010Prop44ColorIndex
 90
        5
102
RTVSPost2010Prop44ColorRGB
 90
      255
102
RTVSPost2010PropOp44
 70
     1
102
RTVSPost2010Prop45
280
     0
102
RTVSPost2010PropOp45
 70
     1
102
RTVSPost2010Prop46
 90
       50
102
RTVSPost2010PropOp46
 70
     1
102
RTVSPost2010Prop47
 90
       50
102
RTVSPost2010PropOp47
 70
     1
102
RTVSPost2010Prop48
 90
       50
102
RTVSPost2010PropOp48
 70
     1
102
RTVSPost2010Prop49
280
     0
102
RTVSPost2010PropOp49
 70
     1
102
RTVSPost2010Prop50
 90
       50
102
RTVSPost2010PropOp50
 70
     1
102
RTVSPost2010Prop51ColorIndex
 90
      256
102
RTVSPost2010Prop51ColorRGB
 90
-16777216
102
RTVSPost2010PropOp51
 70
     0
102
RTVSPost2010Prop52
140
1.0
102
RTVSPost2010PropOp52
 70
     0
102
RTVSPost2010Prop53
 90
        2
102
RTVSPost2010PropOp53
 70
     1
102
RTVSPost2010Prop54
  1
strokes_ogs.tif
102
RTVSPost2010PropOp54
 70
     1
102
RTVSPost2010Prop55
280
     0
102
RTVSPost2010PropOp55
 70
     1
102
RTVSPost2010Prop56
140
1.0
102
RTVSPost2010PropOp56
 70
     1
102
RTVSPost2010Prop57
140
1.0
102
RTVSPost2010PropOp57
 70
     1
102
RTVSPropertyOp0
 70
     1
102
RTVSPropertyOp1
 70
     1
102
RTVSPropertyOp2
 70
     1
102
RTVSPropertyOp3
 70
     1
102
RTVSPropertyOp4
 70
     1
102
RTVSPropertyOp5
 70
     1
102
RTVSPropertyOp6
 70
     1
102
RTVSPropertyOp7
 70
     1
102
RTVSPropertyOp8
 70
     1
102
RTVSPropertyOp9
 70
     1
102
RTVSPropertyOp10
 70
     1
102
RTVSPropertyOp11
 70
     1
102
RTVSPropertyOp12
 70
     1
102
RTVSPropertyOp13
 70
     1
102
RTVSPropertyOp14
 70
     1
102
RTVSPropertyOp15
 70
     1
102
RTVSPropertyOp16
 70
     1
102
RTVSPropertyOp17
 70
     1
102
RTVSPropertyOp18
 70
     1
102
RTVSPropertyOp19
 70
     1
102
RTVSPropertyOp20
 70
     1
102
RTVSPropertyOp21
 70
     1
102
RTVSPropertyOp22
 70
     1
102
RTVSPropertyOp23
 70
     1
102
RTVSPropertyOp24
 70
     1
102
RTVSPropertyOp25
 70
     1
102
RTVSPropertyOp26
 70
     1
102
RTVSPropertyOp27
 70
     1
102
RTVSPropertyOp28
 70
     1
102
RTVSPropertyOp29
 70
     1
102
RTVSPropertyOp30
 70
     1
102
RTVSPropertyOp31
 70
     1
102
RTVSPropertyOp32
 70
     1
102
RTVSPropertyOp33
 70
     1
102
RTVSPropertyOp34
 70
     1
102
RTVSPropertyOp35
 70
     1
102
RTVSPropertyOp36
 70
     1
102
RTVSPropertyOp37
 70
     1
102
RTVSPropertyOp38
 70
     1
102
RTVSPropertyOp39
 70
     1
102
RTVSPropertyOp40
 70
     1
102
RTVSPropertyOp41
 70
     1
102
RTVSPropertyOp42
 70
     1
102
RTVSPropertyOp43
 70
     1
102
RTVSPropertyOp44
 70
     1
102
RTVSPropertyOp45
 70
     1
102
RTVSPropertyOp46
 70
     1
102
RTVSPropertyOp47
 70
     1
102
RTVSPropertyOp48
 70
     1
102
RTVSPropertyOp49
 70
     1
102
RTVSPropertyOp50
 70
     1
102
RTVSPropertyOp51
 70
     0
102
RTVSPropertyOp52
 70
     0
102
RTVSPropertyOp53
 70
     1
102
RTVSPropertyOp54
 70
     1
102
RTVSPropertyOp55
 70
     1
102
RTVSPropertyOp56
 70
     1
102
RTVSPropertyOp57
 70
     1
102
RTVSPropertyOp58
 70
     1
102
RTVSPropertyOp59
 70
     1
102
RTVSPropertyOp60
 70
     1
102
RTVSPropertyOp61
 70
     1
102
RTVSPropertyOp62
 70
     1
  0
XRECORD
  5
41AB
102
{ACAD_REACTORS
330
41AA
102
}
330
41AA
100
AcDbXrecord
280
     1
102
RTVSPost2010Prop28
280
     0
102
RTVSPost2010PropOp28
 70
     1
102
RTVSPost2010Prop29
280
     1
102
RTVSPost2010PropOp29
 70
     1
102
RTVSPost2010Prop30
280
     1
102
RTVSPost2010PropOp30
 70
     1
102
RTVSPost2010Prop31
280
     0
102
RTVSPost2010PropOp31
 70
     1
102
RTVSPost2010Prop32
280
     0
102
RTVSPost2010PropOp32
 70
     1
102
RTVSPost2010Prop33
280
     0
102
RTVSPost2010PropOp33
 70
     1
102
RTVSPost2010Prop34
280
     0
102
RTVSPost2010PropOp34
 70
     1
102
RTVSPost2010Prop35
280
     0
102
RTVSPost2010PropOp35
 70
     1
102
RTVSPost2010Prop36
280
     0
102
RTVSPost2010PropOp36
 70
     1
102
RTVSPost2010Prop37
 90
       50
102
RTVSPost2010PropOp37
 70
     1
102
RTVSPost2010Prop38
140
0.0
102
RTVSPost2010PropOp38
 70
     1
102
RTVSPost2010Prop39
140
1.0
102
RTVSPost2010PropOp39
 70
     1
102
RTVSPost2010Prop40
 90
        0
102
RTVSPost2010PropOp40
 70
     1
102
RTVSPost2010Prop41ColorIndex
 90
       18
102
RTVSPost2010Prop41ColorRGB
 90
        0
102
RTVSPost2010PropOp41
 70
     1
102
RTVSPost2010Prop42
 90
       50
102
RTVSPost2010PropOp42
 70
     1
102
RTVSPost2010Prop43
 90
        3
102
RTVSPost2010PropOp43
 70
     1
102
RTVSPost2010Prop44ColorIndex
 90
        5
102
RTVSPost2010Prop44ColorRGB
 90
      255
102
RTVSPost2010PropOp44
 70
     1
102
RTVSPost2010Prop45
280
     0
102
RTVSPost2010PropOp45
 70
     1
102
RTVSPost2010Prop46
 90
       50
102
RTVSPost2010PropOp46
 70
     1
102
RTVSPost2010Prop47
 90
       50
102
RTVSPost2010PropOp47
 70
     1
102
RTVSPost2010Prop48
 90
       50
102
RTVSPost2010PropOp48
 70
     1
102
RTVSPost2010Prop49
280
     0
102
RTVSPost2010PropOp49
 70
     1
102
RTVSPost2010Prop50
 90
       50
102
RTVSPost2010PropOp50
 70
     1
102
RTVSPost2010Prop51ColorIndex
 90
      256
102
RTVSPost2010Prop51ColorRGB
 90
-16777216
102
RTVSPost2010PropOp51
 70
     0
102
RTVSPost2010Prop52
140
1.0
102
RTVSPost2010PropOp52
 70
     0
102
RTVSPost2010Prop53
 90
        2
102
RTVSPost2010PropOp53
 70
     1
102
RTVSPost2010Prop54
  1
strokes_ogs.tif
102
RTVSPost2010PropOp54
 70
     1
102
RTVSPost2010Prop55
280
     0
102
RTVSPost2010PropOp55
 70
     1
102
RTVSPost2010Prop56
140
1.0
102
RTVSPost2010PropOp56
 70
     1
102
RTVSPost2010Prop57
140
1.0
102
RTVSPost2010PropOp57
 70
     1
102
RTVSPropertyOp0
 70
     1
102
RTVSPropertyOp1
 70
     1
102
RTVSPropertyOp2
 70
     1
102
RTVSPropertyOp3
 70
     1
102
RTVSPropertyOp4
 70
     1
102
RTVSPropertyOp5
 70
     1
102
RTVSPropertyOp6
 70
     1
102
RTVSPropertyOp7
 70
     1
102
RTVSPropertyOp8
 70
     1
102
RTVSPropertyOp9
 70
     1
102
RTVSPropertyOp10
 70
     1
102
RTVSPropertyOp11
 70
     1
102
RTVSPropertyOp12
 70
     1
102
RTVSPropertyOp13
 70
     1
102
RTVSPropertyOp14
 70
     1
102
RTVSPropertyOp15
 70
     1
102
RTVSPropertyOp16
 70
     1
102
RTVSPropertyOp17
 70
     1
102
RTVSPropertyOp18
 70
     1
102
RTVSPropertyOp19
 70
     1
102
RTVSPropertyOp20
 70
     1
102
RTVSPropertyOp21
 70
     1
102
RTVSPropertyOp22
 70
     1
102
RTVSPropertyOp23
 70
     1
102
RTVSPropertyOp24
 70
     1
102
RTVSPropertyOp25
 70
     1
102
RTVSPropertyOp26
 70
     1
102
RTVSPropertyOp27
 70
     1
102
RTVSPropertyOp28
 70
     1
102
RTVSPropertyOp29
 70
     1
102
RTVSPropertyOp30
 70
     1
102
RTVSPropertyOp31
 70
     1
102
RTVSPropertyOp32
 70
     1
102
RTVSPropertyOp33
 70
     1
102
RTVSPropertyOp34
 70
     1
102
RTVSPropertyOp35
 70
     1
102
RTVSPropertyOp36
 70
     1
102
RTVSPropertyOp37
 70
     1
102
RTVSPropertyOp38
 70
     1
102
RTVSPropertyOp39
 70
     1
102
RTVSPropertyOp40
 70
     1
102
RTVSPropertyOp41
 70
     1
102
RTVSPropertyOp42
 70
     1
102
RTVSPropertyOp43
 70
     1
102
RTVSPropertyOp44
 70
     1
102
RTVSPropertyOp45
 70
     1
102
RTVSPropertyOp46
 70
     1
102
RTVSPropertyOp47
 70
     1
102
RTVSPropertyOp48
 70
     1
102
RTVSPropertyOp49
 70
     1
102
RTVSPropertyOp50
 70
     1
102
RTVSPropertyOp51
 70
     0
102
RTVSPropertyOp52
 70
     0
102
RTVSPropertyOp53
 70
     1
102
RTVSPropertyOp54
 70
     1
102
RTVSPropertyOp55
 70
     1
102
RTVSPropertyOp56
 70
     1
102
RTVSPropertyOp57
 70
     1
102
RTVSPropertyOp58
 70
     1
102
RTVSPropertyOp59
 70
     1
102
RTVSPropertyOp60
 70
     1
102
RTVSPropertyOp61
 70
     1
102
RTVSPropertyOp62
 70
     1
  0
XRECORD
  5
41AD
102
{ACAD_REACTORS
330
41AC
102
}
330
41AC
100
AcDbXrecord
280
     1
102
RTVSPost2010Prop28
280
     0
102
RTVSPost2010PropOp28
 70
     1
102
RTVSPost2010Prop29
280
     1
102
RTVSPost2010PropOp29
 70
     1
102
RTVSPost2010Prop30
280
     1
102
RTVSPost2010PropOp30
 70
     1
102
RTVSPost2010Prop31
280
     0
102
RTVSPost2010PropOp31
 70
     1
102
RTVSPost2010Prop32
280
     0
102
RTVSPost2010PropOp32
 70
     1
102
RTVSPost2010Prop33
280
     0
102
RTVSPost2010PropOp33
 70
     1
102
RTVSPost2010Prop34
280
     0
102
RTVSPost2010PropOp34
 70
     1
102
RTVSPost2010Prop35
280
     0
102
RTVSPost2010PropOp35
 70
     1
102
RTVSPost2010Prop36
280
     0
102
RTVSPost2010PropOp36
 70
     1
102
RTVSPost2010Prop37
 90
       50
102
RTVSPost2010PropOp37
 70
     1
102
RTVSPost2010Prop38
140
0.0
102
RTVSPost2010PropOp38
 70
     1
102
RTVSPost2010Prop39
140
1.0
102
RTVSPost2010PropOp39
 70
     1
102
RTVSPost2010Prop40
 90
        0
102
RTVSPost2010PropOp40
 70
     1
102
RTVSPost2010Prop41ColorIndex
 90
       18
102
RTVSPost2010Prop41ColorRGB
 90
        0
102
RTVSPost2010PropOp41
 70
     1
102
RTVSPost2010Prop42
 90
       50
102
RTVSPost2010PropOp42
 70
     1
102
RTVSPost2010Prop43
 90
        3
102
RTVSPost2010PropOp43
 70
     1
102
RTVSPost2010Prop44ColorIndex
 90
        5
102
RTVSPost2010Prop44ColorRGB
 90
      255
102
RTVSPost2010PropOp44
 70
     1
102
RTVSPost2010Prop45
280
     0
102
RTVSPost2010PropOp45
 70
     1
102
RTVSPost2010Prop46
 90
       50
102
RTVSPost2010PropOp46
 70
     1
102
RTVSPost2010Prop47
 90
       50
102
RTVSPost2010PropOp47
 70
     1
102
RTVSPost2010Prop48
 90
       50
102
RTVSPost2010PropOp48
 70
     1
102
RTVSPost2010Prop49
280
     0
102
RTVSPost2010PropOp49
 70
     1
102
RTVSPost2010Prop50
 90
       50
102
RTVSPost2010PropOp50
 70
     1
102
RTVSPost2010Prop51ColorIndex
 90
      256
102
RTVSPost2010Prop51ColorRGB
 90
-16777216
102
RTVSPost2010PropOp51
 70
     0
102
RTVSPost2010Prop52
140
1.0
102
RTVSPost2010PropOp52
 70
     0
102
RTVSPost2010Prop53
 90
        2
102
RTVSPost2010PropOp53
 70
     1
102
RTVSPost2010Prop54
  1
strokes_ogs.tif
102
RTVSPost2010PropOp54
 70
     1
102
RTVSPost2010Prop55
280
     0
102
RTVSPost2010PropOp55
 70
     1
102
RTVSPost2010Prop56
140
1.0
102
RTVSPost2010PropOp56
 70
     1
102
RTVSPost2010Prop57
140
1.0
102
RTVSPost2010PropOp57
 70
     1
102
RTVSPropertyOp0
 70
     1
102
RTVSPropertyOp1
 70
     1
102
RTVSPropertyOp2
 70
     1
102
RTVSPropertyOp3
 70
     1
102
RTVSPropertyOp4
 70
     1
102
RTVSPropertyOp5
 70
     1
102
RTVSPropertyOp6
 70
     1
102
RTVSPropertyOp7
 70
     1
102
RTVSPropertyOp8
 70
     1
102
RTVSPropertyOp9
 70
     1
102
RTVSPropertyOp10
 70
     1
102
RTVSPropertyOp11
 70
     1
102
RTVSPropertyOp12
 70
     1
102
RTVSPropertyOp13
 70
     1
102
RTVSPropertyOp14
 70
     1
102
RTVSPropertyOp15
 70
     1
102
RTVSPropertyOp16
 70
     1
102
RTVSPropertyOp17
 70
     1
102
RTVSPropertyOp18
 70
     1
102
RTVSPropertyOp19
 70
     1
102
RTVSPropertyOp20
 70
     1
102
RTVSPropertyOp21
 70
     1
102
RTVSPropertyOp22
 70
     1
102
RTVSPropertyOp23
 70
     1
102
RTVSPropertyOp24
 70
     1
102
RTVSPropertyOp25
 70
     1
102
RTVSPropertyOp26
 70
     1
102
RTVSPropertyOp27
 70
     1
102
RTVSPropertyOp28
 70
     1
102
RTVSPropertyOp29
 70
     1
102
RTVSPropertyOp30
 70
     1
102
RTVSPropertyOp31
 70
     1
102
RTVSPropertyOp32
 70
     1
102
RTVSPropertyOp33
 70
     1
102
RTVSPropertyOp34
 70
     1
102
RTVSPropertyOp35
 70
     1
102
RTVSPropertyOp36
 70
     1
102
RTVSPropertyOp37
 70
     1
102
RTVSPropertyOp38
 70
     1
102
RTVSPropertyOp39
 70
     1
102
RTVSPropertyOp40
 70
     1
102
RTVSPropertyOp41
 70
     1
102
RTVSPropertyOp42
 70
     1
102
RTVSPropertyOp43
 70
     1
102
RTVSPropertyOp44
 70
     1
102
RTVSPropertyOp45
 70
     1
102
RTVSPropertyOp46
 70
     1
102
RTVSPropertyOp47
 70
     1
102
RTVSPropertyOp48
 70
     1
102
RTVSPropertyOp49
 70
     1
102
RTVSPropertyOp50
 70
     1
102
RTVSPropertyOp51
 70
     0
102
RTVSPropertyOp52
 70
     0
102
RTVSPropertyOp53
 70
     1
102
RTVSPropertyOp54
 70
     1
102
RTVSPropertyOp55
 70
     1
102
RTVSPropertyOp56
 70
     1
102
RTVSPropertyOp57
 70
     1
102
RTVSPropertyOp58
 70
     1
102
RTVSPropertyOp59
 70
     1
102
RTVSPropertyOp60
 70
     1
102
RTVSPropertyOp61
 70
     1
102
RTVSPropertyOp62
 70
     1
  0
XRECORD
  5
41A3
102
{ACAD_REACTORS
330
41A2
102
}
330
41A2
100
AcDbXrecord
280
     1
102
RTVSPost2010Prop28
280
     0
102
RTVSPost2010PropOp28
 70
     1
102
RTVSPost2010Prop29
280
     1
102
RTVSPost2010PropOp29
 70
     1
102
RTVSPost2010Prop30
280
     1
102
RTVSPost2010PropOp30
 70
     1
102
RTVSPost2010Prop31
280
     0
102
RTVSPost2010PropOp31
 70
     1
102
RTVSPost2010Prop32
280
     0
102
RTVSPost2010PropOp32
 70
     1
102
RTVSPost2010Prop33
280
     0
102
RTVSPost2010PropOp33
 70
     1
102
RTVSPost2010Prop34
280
     0
102
RTVSPost2010PropOp34
 70
     1
102
RTVSPost2010Prop35
280
     0
102
RTVSPost2010PropOp35
 70
     1
102
RTVSPost2010Prop36
280
     0
102
RTVSPost2010PropOp36
 70
     1
102
RTVSPost2010Prop37
 90
       50
102
RTVSPost2010PropOp37
 70
     1
102
RTVSPost2010Prop38
140
0.0
102
RTVSPost2010PropOp38
 70
     1
102
RTVSPost2010Prop39
140
1.0
102
RTVSPost2010PropOp39
 70
     1
102
RTVSPost2010Prop40
 90
        0
102
RTVSPost2010PropOp40
 70
     1
102
RTVSPost2010Prop41ColorIndex
 90
       18
102
RTVSPost2010Prop41ColorRGB
 90
        0
102
RTVSPost2010PropOp41
 70
     1
102
RTVSPost2010Prop42
 90
       50
102
RTVSPost2010PropOp42
 70
     1
102
RTVSPost2010Prop43
 90
        3
102
RTVSPost2010PropOp43
 70
     1
102
RTVSPost2010Prop44ColorIndex
 90
        5
102
RTVSPost2010Prop44ColorRGB
 90
      255
102
RTVSPost2010PropOp44
 70
     1
102
RTVSPost2010Prop45
280
     0
102
RTVSPost2010PropOp45
 70
     1
102
RTVSPost2010Prop46
 90
       50
102
RTVSPost2010PropOp46
 70
     1
102
RTVSPost2010Prop47
 90
       50
102
RTVSPost2010PropOp47
 70
     1
102
RTVSPost2010Prop48
 90
       50
102
RTVSPost2010PropOp48
 70
     1
102
RTVSPost2010Prop49
280
     0
102
RTVSPost2010PropOp49
 70
     1
102
RTVSPost2010Prop50
 90
       50
102
RTVSPost2010PropOp50
 70
     1
102
RTVSPost2010Prop51ColorIndex
 90
      256
102
RTVSPost2010Prop51ColorRGB
 90
-16777216
102
RTVSPost2010PropOp51
 70
     0
102
RTVSPost2010Prop52
140
1.0
102
RTVSPost2010PropOp52
 70
     0
102
RTVSPost2010Prop53
 90
        2
102
RTVSPost2010PropOp53
 70
     1
102
RTVSPost2010Prop54
  1
strokes_ogs.tif
102
RTVSPost2010PropOp54
 70
     1
102
RTVSPost2010Prop55
280
     0
102
RTVSPost2010PropOp55
 70
     1
102
RTVSPost2010Prop56
140
1.0
102
RTVSPost2010PropOp56
 70
     1
102
RTVSPost2010Prop57
140
1.0
102
RTVSPost2010PropOp57
 70
     1
102
RTVSPropertyOp0
 70
     1
102
RTVSPropertyOp1
 70
     1
102
RTVSPropertyOp2
 70
     1
102
RTVSPropertyOp3
 70
     1
102
RTVSPropertyOp4
 70
     1
102
RTVSPropertyOp5
 70
     1
102
RTVSPropertyOp6
 70
     1
102
RTVSPropertyOp7
 70
     1
102
RTVSPropertyOp8
 70
     1
102
RTVSPropertyOp9
 70
     1
102
RTVSPropertyOp10
 70
     1
102
RTVSPropertyOp11
 70
     1
102
RTVSPropertyOp12
 70
     1
102
RTVSPropertyOp13
 70
     1
102
RTVSPropertyOp14
 70
     1
102
RTVSPropertyOp15
 70
     1
102
RTVSPropertyOp16
 70
     1
102
RTVSPropertyOp17
 70
     1
102
RTVSPropertyOp18
 70
     1
102
RTVSPropertyOp19
 70
     1
102
RTVSPropertyOp20
 70
     1
102
RTVSPropertyOp21
 70
     1
102
RTVSPropertyOp22
 70
     1
102
RTVSPropertyOp23
 70
     1
102
RTVSPropertyOp24
 70
     1
102
RTVSPropertyOp25
 70
     1
102
RTVSPropertyOp26
 70
     1
102
RTVSPropertyOp27
 70
     1
102
RTVSPropertyOp28
 70
     1
102
RTVSPropertyOp29
 70
     1
102
RTVSPropertyOp30
 70
     1
102
RTVSPropertyOp31
 70
     1
102
RTVSPropertyOp32
 70
     1
102
RTVSPropertyOp33
 70
     1
102
RTVSPropertyOp34
 70
     1
102
RTVSPropertyOp35
 70
     1
102
RTVSPropertyOp36
 70
     1
102
RTVSPropertyOp37
 70
     1
102
RTVSPropertyOp38
 70
     1
102
RTVSPropertyOp39
 70
     1
102
RTVSPropertyOp40
 70
     1
102
RTVSPropertyOp41
 70
     1
102
RTVSPropertyOp42
 70
     1
102
RTVSPropertyOp43
 70
     1
102
RTVSPropertyOp44
 70
     1
102
RTVSPropertyOp45
 70
     1
102
RTVSPropertyOp46
 70
     1
102
RTVSPropertyOp47
 70
     1
102
RTVSPropertyOp48
 70
     1
102
RTVSPropertyOp49
 70
     1
102
RTVSPropertyOp50
 70
     1
102
RTVSPropertyOp51
 70
     0
102
RTVSPropertyOp52
 70
     0
102
RTVSPropertyOp53
 70
     1
102
RTVSPropertyOp54
 70
     1
102
RTVSPropertyOp55
 70
     1
102
RTVSPropertyOp56
 70
     1
102
RTVSPropertyOp57
 70
     1
102
RTVSPropertyOp58
 70
     1
102
RTVSPropertyOp59
 70
     1
102
RTVSPropertyOp60
 70
     1
102
RTVSPropertyOp61
 70
     1
102
RTVSPropertyOp62
 70
     1
  0
XRECORD
  5
4197
102
{ACAD_REACTORS
330
4196
102
}
330
4196
100
AcDbXrecord
280
     1
102
RTVSPost2010Prop28
280
     0
102
RTVSPost2010PropOp28
 70
     1
102
RTVSPost2010Prop29
280
     1
102
RTVSPost2010PropOp29
 70
     1
102
RTVSPost2010Prop30
280
     1
102
RTVSPost2010PropOp30
 70
     1
102
RTVSPost2010Prop31
280
     0
102
RTVSPost2010PropOp31
 70
     1
102
RTVSPost2010Prop32
280
     0
102
RTVSPost2010PropOp32
 70
     1
102
RTVSPost2010Prop33
280
     0
102
RTVSPost2010PropOp33
 70
     1
102
RTVSPost2010Prop34
280
     0
102
RTVSPost2010PropOp34
 70
     1
102
RTVSPost2010Prop35
280
     0
102
RTVSPost2010PropOp35
 70
     1
102
RTVSPost2010Prop36
280
     0
102
RTVSPost2010PropOp36
 70
     1
102
RTVSPost2010Prop37
 90
       50
102
RTVSPost2010PropOp37
 70
     1
102
RTVSPost2010Prop38
140
0.0
102
RTVSPost2010PropOp38
 70
     1
102
RTVSPost2010Prop39
140
1.0
102
RTVSPost2010PropOp39
 70
     1
102
RTVSPost2010Prop40
 90
        0
102
RTVSPost2010PropOp40
 70
     1
102
RTVSPost2010Prop41ColorIndex
 90
       18
102
RTVSPost2010Prop41ColorRGB
 90
        0
102
RTVSPost2010PropOp41
 70
     1
102
RTVSPost2010Prop42
 90
       50
102
RTVSPost2010PropOp42
 70
     1
102
RTVSPost2010Prop43
 90
        3
102
RTVSPost2010PropOp43
 70
     1
102
RTVSPost2010Prop44ColorIndex
 90
        5
102
RTVSPost2010Prop44ColorRGB
 90
      255
102
RTVSPost2010PropOp44
 70
     1
102
RTVSPost2010Prop45
280
     0
102
RTVSPost2010PropOp45
 70
     1
102
RTVSPost2010Prop46
 90
       50
102
RTVSPost2010PropOp46
 70
     1
102
RTVSPost2010Prop47
 90
       50
102
RTVSPost2010PropOp47
 70
     1
102
RTVSPost2010Prop48
 90
       50
102
RTVSPost2010PropOp48
 70
     1
102
RTVSPost2010Prop49
280
     0
102
RTVSPost2010PropOp49
 70
     1
102
RTVSPost2010Prop50
 90
       50
102
RTVSPost2010PropOp50
 70
     1
102
RTVSPost2010Prop51ColorIndex
 90
      256
102
RTVSPost2010Prop51ColorRGB
 90
-16777216
102
RTVSPost2010PropOp51
 70
     0
102
RTVSPost2010Prop52
140
1.0
102
RTVSPost2010PropOp52
 70
     0
102
RTVSPost2010Prop53
 90
        2
102
RTVSPost2010PropOp53
 70
     1
102
RTVSPost2010Prop54
  1
strokes_ogs.tif
102
RTVSPost2010PropOp54
 70
     1
102
RTVSPost2010Prop55
280
     0
102
RTVSPost2010PropOp55
 70
     1
102
RTVSPost2010Prop56
140
1.0
102
RTVSPost2010PropOp56
 70
     1
102
RTVSPost2010Prop57
140
1.0
102
RTVSPost2010PropOp57
 70
     1
102
RTVSPropertyOp0
 70
     1
102
RTVSPropertyOp1
 70
     1
102
RTVSPropertyOp2
 70
     1
102
RTVSPropertyOp3
 70
     1
102
RTVSPropertyOp4
 70
     1
102
RTVSPropertyOp5
 70
     1
102
RTVSPropertyOp6
 70
     1
102
RTVSPropertyOp7
 70
     1
102
RTVSPropertyOp8
 70
     1
102
RTVSPropertyOp9
 70
     1
102
RTVSPropertyOp10
 70
     1
102
RTVSPropertyOp11
 70
     1
102
RTVSPropertyOp12
 70
     1
102
RTVSPropertyOp13
 70
     1
102
RTVSPropertyOp14
 70
     1
102
RTVSPropertyOp15
 70
     1
102
RTVSPropertyOp16
 70
     1
102
RTVSPropertyOp17
 70
     1
102
RTVSPropertyOp18
 70
     1
102
RTVSPropertyOp19
 70
     1
102
RTVSPropertyOp20
 70
     1
102
RTVSPropertyOp21
 70
     1
102
RTVSPropertyOp22
 70
     1
102
RTVSPropertyOp23
 70
     1
102
RTVSPropertyOp24
 70
     1
102
RTVSPropertyOp25
 70
     1
102
RTVSPropertyOp26
 70
     1
102
RTVSPropertyOp27
 70
     1
102
RTVSPropertyOp28
 70
     1
102
RTVSPropertyOp29
 70
     1
102
RTVSPropertyOp30
 70
     1
102
RTVSPropertyOp31
 70
     1
102
RTVSPropertyOp32
 70
     1
102
RTVSPropertyOp33
 70
     1
102
RTVSPropertyOp34
 70
     1
102
RTVSPropertyOp35
 70
     1
102
RTVSPropertyOp36
 70
     1
102
RTVSPropertyOp37
 70
     1
102
RTVSPropertyOp38
 70
     1
102
RTVSPropertyOp39
 70
     1
102
RTVSPropertyOp40
 70
     1
102
RTVSPropertyOp41
 70
     1
102
RTVSPropertyOp42
 70
     1
102
RTVSPropertyOp43
 70
     1
102
RTVSPropertyOp44
 70
     1
102
RTVSPropertyOp45
 70
     1
102
RTVSPropertyOp46
 70
     1
102
RTVSPropertyOp47
 70
     1
102
RTVSPropertyOp48
 70
     1
102
RTVSPropertyOp49
 70
     1
102
RTVSPropertyOp50
 70
     1
102
RTVSPropertyOp51
 70
     0
102
RTVSPropertyOp52
 70
     0
102
RTVSPropertyOp53
 70
     1
102
RTVSPropertyOp54
 70
     1
102
RTVSPropertyOp55
 70
     1
102
RTVSPropertyOp56
 70
     1
102
RTVSPropertyOp57
 70
     1
102
RTVSPropertyOp58
 70
     1
102
RTVSPropertyOp59
 70
     1
102
RTVSPropertyOp60
 70
     1
102
RTVSPropertyOp61
 70
     1
102
RTVSPropertyOp62
 70
     1
  0
XRECORD
  5
41AF
102
{ACAD_REACTORS
330
41AE
102
}
330
41AE
100
AcDbXrecord
280
     1
102
RTVSPost2010Prop28
280
     0
102
RTVSPost2010PropOp28
 70
     1
102
RTVSPost2010Prop29
280
     1
102
RTVSPost2010PropOp29
 70
     1
102
RTVSPost2010Prop30
280
     1
102
RTVSPost2010PropOp30
 70
     1
102
RTVSPost2010Prop31
280
     0
102
RTVSPost2010PropOp31
 70
     1
102
RTVSPost2010Prop32
280
     0
102
RTVSPost2010PropOp32
 70
     1
102
RTVSPost2010Prop33
280
     0
102
RTVSPost2010PropOp33
 70
     1
102
RTVSPost2010Prop34
280
     0
102
RTVSPost2010PropOp34
 70
     1
102
RTVSPost2010Prop35
280
     0
102
RTVSPost2010PropOp35
 70
     1
102
RTVSPost2010Prop36
280
     0
102
RTVSPost2010PropOp36
 70
     1
102
RTVSPost2010Prop37
 90
       50
102
RTVSPost2010PropOp37
 70
     1
102
RTVSPost2010Prop38
140
0.0
102
RTVSPost2010PropOp38
 70
     1
102
RTVSPost2010Prop39
140
1.0
102
RTVSPost2010PropOp39
 70
     1
102
RTVSPost2010Prop40
 90
        0
102
RTVSPost2010PropOp40
 70
     1
102
RTVSPost2010Prop41ColorIndex
 90
       18
102
RTVSPost2010Prop41ColorRGB
 90
        0
102
RTVSPost2010PropOp41
 70
     1
102
RTVSPost2010Prop42
 90
       50
102
RTVSPost2010PropOp42
 70
     1
102
RTVSPost2010Prop43
 90
        3
102
RTVSPost2010PropOp43
 70
     1
102
RTVSPost2010Prop44ColorIndex
 90
        5
102
RTVSPost2010Prop44ColorRGB
 90
      255
102
RTVSPost2010PropOp44
 70
     1
102
RTVSPost2010Prop45
280
     0
102
RTVSPost2010PropOp45
 70
     1
102
RTVSPost2010Prop46
 90
       50
102
RTVSPost2010PropOp46
 70
     1
102
RTVSPost2010Prop47
 90
       50
102
RTVSPost2010PropOp47
 70
     1
102
RTVSPost2010Prop48
 90
       50
102
RTVSPost2010PropOp48
 70
     1
102
RTVSPost2010Prop49
280
     0
102
RTVSPost2010PropOp49
 70
     1
102
RTVSPost2010Prop50
 90
       50
102
RTVSPost2010PropOp50
 70
     1
102
RTVSPost2010Prop51ColorIndex
 90
      256
102
RTVSPost2010Prop51ColorRGB
 90
-16777216
102
RTVSPost2010PropOp51
 70
     0
102
RTVSPost2010Prop52
140
1.0
102
RTVSPost2010PropOp52
 70
     0
102
RTVSPost2010Prop53
 90
        2
102
RTVSPost2010PropOp53
 70
     1
102
RTVSPost2010Prop54
  1
strokes_ogs.tif
102
RTVSPost2010PropOp54
 70
     1
102
RTVSPost2010Prop55
280
     0
102
RTVSPost2010PropOp55
 70
     1
102
RTVSPost2010Prop56
140
1.0
102
RTVSPost2010PropOp56
 70
     1
102
RTVSPost2010Prop57
140
1.0
102
RTVSPost2010PropOp57
 70
     1
102
RTVSPropertyOp0
 70
     1
102
RTVSPropertyOp1
 70
     1
102
RTVSPropertyOp2
 70
     1
102
RTVSPropertyOp3
 70
     1
102
RTVSPropertyOp4
 70
     1
102
RTVSPropertyOp5
 70
     1
102
RTVSPropertyOp6
 70
     1
102
RTVSPropertyOp7
 70
     1
102
RTVSPropertyOp8
 70
     1
102
RTVSPropertyOp9
 70
     1
102
RTVSPropertyOp10
 70
     1
102
RTVSPropertyOp11
 70
     1
102
RTVSPropertyOp12
 70
     1
102
RTVSPropertyOp13
 70
     1
102
RTVSPropertyOp14
 70
     1
102
RTVSPropertyOp15
 70
     1
102
RTVSPropertyOp16
 70
     1
102
RTVSPropertyOp17
 70
     1
102
RTVSPropertyOp18
 70
     1
102
RTVSPropertyOp19
 70
     1
102
RTVSPropertyOp20
 70
     1
102
RTVSPropertyOp21
 70
     1
102
RTVSPropertyOp22
 70
     1
102
RTVSPropertyOp23
 70
     1
102
RTVSPropertyOp24
 70
     1
102
RTVSPropertyOp25
 70
     1
102
RTVSPropertyOp26
 70
     1
102
RTVSPropertyOp27
 70
     1
102
RTVSPropertyOp28
 70
     1
102
RTVSPropertyOp29
 70
     1
102
RTVSPropertyOp30
 70
     1
102
RTVSPropertyOp31
 70
     1
102
RTVSPropertyOp32
 70
     1
102
RTVSPropertyOp33
 70
     1
102
RTVSPropertyOp34
 70
     1
102
RTVSPropertyOp35
 70
     1
102
RTVSPropertyOp36
 70
     1
102
RTVSPropertyOp37
 70
     1
102
RTVSPropertyOp38
 70
     1
102
RTVSPropertyOp39
 70
     1
102
RTVSPropertyOp40
 70
     1
102
RTVSPropertyOp41
 70
     1
102
RTVSPropertyOp42
 70
     1
102
RTVSPropertyOp43
 70
     1
102
RTVSPropertyOp44
 70
     1
102
RTVSPropertyOp45
 70
     1
102
RTVSPropertyOp46
 70
     1
102
RTVSPropertyOp47
 70
     1
102
RTVSPropertyOp48
 70
     1
102
RTVSPropertyOp49
 70
     1
102
RTVSPropertyOp50
 70
     1
102
RTVSPropertyOp51
 70
     0
102
RTVSPropertyOp52
 70
     0
102
RTVSPropertyOp53
 70
     1
102
RTVSPropertyOp54
 70
     1
102
RTVSPropertyOp55
 70
     1
102
RTVSPropertyOp56
 70
     1
102
RTVSPropertyOp57
 70
     1
102
RTVSPropertyOp58
 70
     1
102
RTVSPropertyOp59
 70
     1
102
RTVSPropertyOp60
 70
     1
102
RTVSPropertyOp61
 70
     1
102
RTVSPropertyOp62
 70
     1
  0
ENDSEC
  0
EOF
